  0
SECTION
  2
HEADER
  9
$ACADVER
  1
AC1009
  9
$INSBASE
 10
0.0
 20
0.0
 30
0.0
  9
$EXTMIN
 10
265.26599981999988
 20
190.95800009999991
 30
0.0
  9
$EXTMAX
 10
1770.3659969800001
 20
591.05799999999999
 30
0.0
  9
$LIMMIN
 10
0.0
 20
0.0
  9
$LIMMAX
 10
0.0
 20
0.0
  9
$ORTHOMODE
 70
     0
  9
$REGENMODE
 70
     1
  9
$FILLMODE
 70
     1
  9
$QTEXTMODE
 70
     0
  9
$MIRRTEXT
 70
     1
  9
$DRAGMODE
 70
     2
  9
$LTSCALE
 40
1.0
  9
$OSMODE
 70
   823
  9
$ATTMODE
 70
     1
  9
$TEXTSIZE
 40
0.0
  9
$TRACEWID
 40
0.05
  9
$TEXTSTYLE
  7
STANDARD
  9
$CLAYER
  8
0
  9
$CELTYPE
  6
CONTINUOUS
  9
$CECOLOR
 62
   256
  9
$DIMSCALE
 40
1.0
  9
$DIMASZ
 40
0.18
  9
$DIMEXO
 40
0.0625
  9
$DIMDLI
 40
0.38
  9
$DIMRND
 40
0.0
  9
$DIMDLE
 40
0.0
  9
$DIMEXE
 40
0.18
  9
$DIMTP
 40
0.0
  9
$DIMTM
 40
0.0
  9
$DIMTXT
 40
0.18
  9
$DIMCEN
 40
0.09
  9
$DIMTSZ
 40
0.0
  9
$DIMTOL
 70
     0
  9
$DIMLIM
 70
     0
  9
$DIMTIH
 70
     1
  9
$DIMTOH
 70
     1
  9
$DIMSE1
 70
     0
  9
$DIMSE2
 70
     0
  9
$DIMTAD
 70
     0
  9
$DIMZIN
 70
     0
  9
$DIMBLK
  1

  9
$DIMASO
 70
     1
  9
$DIMSHO
 70
     1
  9
$DIMPOST
  1

  9
$DIMAPOST
  1

  9
$DIMALT
 70
     0
  9
$DIMALTD
 70
     2
  9
$DIMALTF
 40
25.399999999999999
  9
$DIMLFAC
 40
1.0
  9
$DIMTOFL
 70
     0
  9
$DIMTVP
 40
0.0
  9
$DIMTIX
 70
     0
  9
$DIMSOXD
 70
     0
  9
$DIMSAH
 70
     0
  9
$DIMBLK1
  1

  9
$DIMBLK2
  1

  9
$DIMSTYLE
  2
STANDARD
  9
$DIMCLRD
 70
     0
  9
$DIMCLRE
 70
     0
  9
$DIMCLRT
 70
     0
  9
$DIMTFAC
 40
1.0
  9
$DIMGAP
 40
0.09
  9
$LUNITS
 70
     2
  9
$LUPREC
 70
     4
  9
$SKETCHINC
 40
0.1
  9
$FILLETRAD
 40
0.0
  9
$AUNITS
 70
     0
  9
$AUPREC
 70
     0
  9
$MENU
  1
acad
  9
$ELEVATION
 40
0.0
  9
$PELEVATION
 40
0.0
  9
$THICKNESS
 40
0.0
  9
$LIMCHECK
 70
     0
  9
$BLIPMODE
 70
     0
  9
$CHAMFERA
 40
0.0
  9
$CHAMFERB
 40
0.0
  9
$SKPOLY
 70
     0
  9
$TDCREATE
 40
2444972.041666666
  9
$TDUPDATE
 40
2453340.5950788311
  9
$TDINDWG
 40
0.0104852199
  9
$TDUSRTIMER
 40
0.0104852199
  9
$USRTIMER
 70
     1
  9
$ANGBASE
 50
0.0
  9
$ANGDIR
 70
     0
  9
$PDMODE
 70
     0
  9
$PDSIZE
 40
0.0
  9
$PLINEWID
 40
0.0
  9
$COORDS
 70
     2
  9
$SPLFRAME
 70
     0
  9
$SPLINETYPE
 70
     6
  9
$SPLINESEGS
 70
     8
  9
$ATTDIA
 70
     0
  9
$ATTREQ
 70
     1
  9
$HANDLING
 70
 22529
  9
$HANDSEED
  5
CD4
  9
$SURFTAB1
 70
     6
  9
$SURFTAB2
 70
     6
  9
$SURFTYPE
 70
     6
  9
$SURFU
 70
     6
  9
$SURFV
 70
     6
  9
$UCSNAME
  2

  9
$UCSORG
 10
0.0
 20
0.0
 30
0.0
  9
$UCSXDIR
 10
1.0
 20
0.0
 30
0.0
  9
$UCSYDIR
 10
0.0
 20
1.0
 30
0.0
  9
$PUCSNAME
  2

  9
$PUCSORG
 10
0.0
 20
0.0
 30
0.0
  9
$PUCSXDIR
 10
1.0
 20
0.0
 30
0.0
  9
$PUCSYDIR
 10
0.0
 20
1.0
 30
0.0
  9
$USERI1
 70
     0
  9
$USERI2
 70
     0
  9
$USERI3
 70
     0
  9
$USERI4
 70
     0
  9
$USERI5
 70
     0
  9
$USERR1
 40
0.0
  9
$USERR2
 40
0.0
  9
$USERR3
 40
0.0
  9
$USERR4
 40
0.0
  9
$USERR5
 40
0.0
  9
$WORLDVIEW
 70
     1
  9
$SHADEDGE
 70
     3
  9
$SHADEDIF
 70
    70
  9
$TILEMODE
 70
     1
  9
$MAXACTVP
 70
    16
  9
$PLIMCHECK
 70
     0
  9
$PEXTMIN
 10
1.0000000000000000E+020
 20
1.0000000000000000E+020
 30
1.0000000000000000E+020
  9
$PEXTMAX
 10
-1.0000000000000000E+020
 20
-1.0000000000000000E+020
 30
-1.0000000000000000E+020
  9
$PLIMMIN
 10
0.0
 20
0.0
  9
$PLIMMAX
 10
12.0
 20
9.0
  9
$UNITMODE
 70
     0
  9
$VISRETAIN
 70
     0
  9
$PLINEGEN
 70
     1
  9
$PSLTSCALE
 70
     0
  0
ENDSEC
  0
SECTION
  2
TABLES
  0
TABLE
  2
VPORT
 70
     2
  0
VPORT
  2
*ACTIVE
 70
     0
 10
0.0
 20
0.0
 11
1.0
 21
1.0
 12
1017.819983065343
 22
391.01585718495721
 13
0.0
 23
0.0
 14
1.0
 24
1.0
 15
0.0
 25
0.0
 16
0.0
 26
0.0
 36
1.0
 17
0.0
 27
0.0
 37
0.0
 40
761.58520332269836
 41
1.989224137931034
 42
50.0
 43
0.0
 44
0.0
 50
0.0
 51
0.0
 71
     0
 72
   100
 73
     1
 74
     1
 75
     0
 76
     0
 77
     0
 78
     0
  0
ENDTAB
  0
TABLE
  2
LTYPE
 70
     1
  0
LTYPE
  2
CONTINUOUS
 70
     0
  3
Solid line
 72
    65
 73
     0
 40
0.0
  0
ENDTAB
  0
TABLE
  2
LAYER
 70
     7
  0
LAYER
  2
0
 70
     0
 62
     7
  6
CONTINUOUS
  0
LAYER
  2
TOPLAYER
 70
     0
 62
     1
  6
CONTINUOUS
  0
LAYER
  2
TOPPASTE
 70
     0
 62
     8
  6
CONTINUOUS
  0
LAYER
  2
BOTTOMPASTE
 70
     0
 62
    16
  6
CONTINUOUS
  0
LAYER
  2
TOPSOLDER
 70
     0
 62
   216
  6
CONTINUOUS
  0
LAYER
  2
BOTTOMSOLDER
 70
     0
 62
     6
  6
CONTINUOUS
  0
LAYER
  2
MECHANICAL1
 70
     0
 62
     6
  6
CONTINUOUS
  0
ENDTAB
  0
TABLE
  2
STYLE
 70
     1
  0
STYLE
  2
STANDARD
 70
     0
 40
0.0
 41
1.0
 50
0.0
 71
     0
 42
0.0
  3
txt
  4

  0
ENDTAB
  0
TABLE
  2
VIEW
 70
     0
  0
ENDTAB
  0
TABLE
  2
UCS
 70
     0
  0
ENDTAB
  0
TABLE
  2
APPID
 70
     2
  0
APPID
  2
ACAD
 70
     0
  0
APPID
  2
DCO15
 70
     0
  0
ENDTAB
  0
TABLE
  2
DIMSTYLE
 70
     1
  0
DIMSTYLE
  2
STANDARD
 70
     0
  3

  4

  5

  6

  7

 40
1.0
 41
0.18
 42
0.0625
 43
0.38
 44
0.18
 45
0.0
 46
0.0
 47
0.0
 48
0.0
140
0.18
141
0.09
142
0.0
143
25.399999999999999
144
1.0
145
0.0
146
1.0
147
0.09
 71
     0
 72
     0
 73
     1
 74
     1
 75
     0
 76
     0
 77
     0
 78
     0
170
     0
171
     2
172
     0
173
     0
174
     0
175
     0
176
     0
177
     0
178
     0
  0
ENDTAB
  0
ENDSEC
  0
SECTION
  2
BLOCKS
  0
BLOCK
  8
0
  2
$MODEL_SPACE
 70
     0
 10
0.0
 20
0.0
 30
0.0
  3
$MODEL_SPACE
  1

  0
ENDBLK
  5
E
  8
0
  0
BLOCK
 67
     1
  8
0
  2
$PAPER_SPACE
 70
     0
 10
0.0
 20
0.0
 30
0.0
  3
$PAPER_SPACE
  1

  0
ENDBLK
  5
10
 67
     1
  8
0
  0
ENDSEC
  0
SECTION
  2
ENTITIES
  0
POLYLINE
  5
23
  8
TOPLAYER
 66
     1
 10
0.0
 20
0.0
 30
0.0
 40
2.9999990799999989
 41
2.9999990799999989
  0
VERTEX
  5
7A9
  8
TOPLAYER
 10
324.8160001
 20
418.00800065999988
 30
0.0
  0
VERTEX
  5
7AA
  8
TOPLAYER
 10
324.8160001
 20
469.2579997599999
 30
0.0
  0
SEQEND
  5
7AB
  8
TOPLAYER
  0
POLYLINE
  5
27
  8
TOPLAYER
 66
     1
 10
0.0
 20
0.0
 30
0.0
 70
     1
 40
1.499999539999999
 41
1.499999539999999
  0
VERTEX
  5
7AC
  8
TOPLAYER
 10
324.06600159999999
 20
418.00800065999988
 30
0.0
 42
1.0
  0
VERTEX
  5
7AD
  8
TOPLAYER
 10
325.56599859999989
 20
418.00800065999988
 30
0.0
 42
1.0
  0
SEQEND
  5
7AE
  8
TOPLAYER
  0
POLYLINE
  5
2B
  8
TOPLAYER
 66
     1
 10
0.0
 20
0.0
 30
0.0
 70
     1
 40
1.499999539999999
 41
1.499999539999999
  0
VERTEX
  5
7AF
  8
TOPLAYER
 10
324.06600159999999
 20
469.2579997599999
 30
0.0
 42
1.0
  0
VERTEX
  5
7B0
  8
TOPLAYER
 10
325.56599859999989
 20
469.2579997599999
 30
0.0
 42
1.0
  0
SEQEND
  5
7B1
  8
TOPLAYER
  0
POLYLINE
  5
47
  8
TOPLAYER
 66
     1
 10
0.0
 20
0.0
 30
0.0
 40
6.3999999000000001
 41
6.3999999000000001
  0
VERTEX
  5
7B2
  8
TOPLAYER
 10
338.31600104
 20
523.00799893999999
 30
0.0
  0
VERTEX
  5
7B3
  8
TOPLAYER
 10
1724.316000179999
 20
523.00799893999999
 30
0.0
  0
SEQEND
  5
7B4
  8
TOPLAYER
  0
POLYLINE
  5
4B
  8
TOPLAYER
 66
     1
 10
0.0
 20
0.0
 30
0.0
 70
     1
 40
3.1999986799999989
 41
3.1999986799999989
  0
VERTEX
  5
7B5
  8
TOPLAYER
 10
336.71600169999988
 20
523.00799893999999
 30
0.0
 42
1.0
  0
VERTEX
  5
7B6
  8
TOPLAYER
 10
339.9160003799999
 20
523.00799893999999
 30
0.0
 42
1.0
  0
SEQEND
  5
7B7
  8
TOPLAYER
  0
POLYLINE
  5
4F
  8
TOPLAYER
 66
     1
 10
0.0
 20
0.0
 30
0.0
 70
     1
 40
3.1999986799999989
 41
3.1999986799999989
  0
VERTEX
  5
7B8
  8
TOPLAYER
 10
1722.7160008400001
 20
523.00799893999999
 30
0.0
 42
1.0
  0
VERTEX
  5
7B9
  8
TOPLAYER
 10
1725.91599952
 20
523.00799893999999
 30
0.0
 42
1.0
  0
SEQEND
  5
7BA
  8
TOPLAYER
  0
POLYLINE
  5
53
  8
TOPLAYER
 66
     1
 10
0.0
 20
0.0
 30
0.0
 40
6.3999999000000001
 41
6.3999999000000001
  0
VERTEX
  5
7BB
  8
TOPLAYER
 10
338.31600104
 20
346.00799987999989
 30
0.0
  0
VERTEX
  5
7BC
  8
TOPLAYER
 10
1724.316000179999
 20
346.00799987999989
 30
0.0
  0
SEQEND
  5
7BD
  8
TOPLAYER
  0
POLYLINE
  5
57
  8
TOPLAYER
 66
     1
 10
0.0
 20
0.0
 30
0.0
 70
     1
 40
3.1999986799999989
 41
3.1999986799999989
  0
VERTEX
  5
7BE
  8
TOPLAYER
 10
336.71600169999988
 20
346.00799987999989
 30
0.0
 42
1.0
  0
VERTEX
  5
7BF
  8
TOPLAYER
 10
339.9160003799999
 20
346.00799987999989
 30
0.0
 42
1.0
  0
SEQEND
  5
7C0
  8
TOPLAYER
  0
POLYLINE
  5
5B
  8
TOPLAYER
 66
     1
 10
0.0
 20
0.0
 30
0.0
 70
     1
 40
3.1999986799999989
 41
3.1999986799999989
  0
VERTEX
  5
7C1
  8
TOPLAYER
 10
1722.7160008400001
 20
346.00799987999989
 30
0.0
 42
1.0
  0
VERTEX
  5
7C2
  8
TOPLAYER
 10
1725.91599952
 20
346.00799987999989
 30
0.0
 42
1.0
  0
SEQEND
  5
7C3
  8
TOPLAYER
  0
POLYLINE
  5
5F
  8
TOPLAYER
 66
     1
 10
0.0
 20
0.0
 30
0.0
 40
6.3999999000000001
 41
6.3999999000000001
  0
VERTEX
  5
7C4
  8
TOPLAYER
 10
338.31600104
 20
279.00799925999991
 30
0.0
  0
VERTEX
  5
7C5
  8
TOPLAYER
 10
1724.316000179999
 20
279.00799925999991
 30
0.0
  0
SEQEND
  5
7C6
  8
TOPLAYER
  0
POLYLINE
  5
63
  8
TOPLAYER
 66
     1
 10
0.0
 20
0.0
 30
0.0
 70
     1
 40
3.1999986799999989
 41
3.1999986799999989
  0
VERTEX
  5
7C7
  8
TOPLAYER
 10
336.71600169999988
 20
279.00799925999991
 30
0.0
 42
1.0
  0
VERTEX
  5
7C8
  8
TOPLAYER
 10
339.9160003799999
 20
279.00799925999991
 30
0.0
 42
1.0
  0
SEQEND
  5
7C9
  8
TOPLAYER
  0
POLYLINE
  5
67
  8
TOPLAYER
 66
     1
 10
0.0
 20
0.0
 30
0.0
 70
     1
 40
3.1999986799999989
 41
3.1999986799999989
  0
VERTEX
  5
7CA
  8
TOPLAYER
 10
1722.7160008400001
 20
279.00799925999991
 30
0.0
 42
1.0
  0
VERTEX
  5
7CB
  8
TOPLAYER
 10
1725.91599952
 20
279.00799925999991
 30
0.0
 42
1.0
  0
SEQEND
  5
7CC
  8
TOPLAYER
  0
POLYLINE
  5
6B
  8
TOPLAYER
 66
     1
 10
0.0
 20
0.0
 30
0.0
 40
6.3999999000000001
 41
6.3999999000000001
  0
VERTEX
  5
7CD
  8
TOPLAYER
 10
338.31600104
 20
229.00800019999991
 30
0.0
  0
VERTEX
  5
7CE
  8
TOPLAYER
 10
1724.316000179999
 20
229.00800019999991
 30
0.0
  0
SEQEND
  5
7CF
  8
TOPLAYER
  0
POLYLINE
  5
6F
  8
TOPLAYER
 66
     1
 10
0.0
 20
0.0
 30
0.0
 70
     1
 40
3.1999986799999989
 41
3.1999986799999989
  0
VERTEX
  5
7D0
  8
TOPLAYER
 10
336.71600169999988
 20
229.00800019999991
 30
0.0
 42
1.0
  0
VERTEX
  5
7D1
  8
TOPLAYER
 10
339.9160003799999
 20
229.00800019999991
 30
0.0
 42
1.0
  0
SEQEND
  5
7D2
  8
TOPLAYER
  0
POLYLINE
  5
73
  8
TOPLAYER
 66
     1
 10
0.0
 20
0.0
 30
0.0
 70
     1
 40
3.1999986799999989
 41
3.1999986799999989
  0
VERTEX
  5
7D3
  8
TOPLAYER
 10
1722.7160008400001
 20
229.00800019999991
 30
0.0
 42
1.0
  0
VERTEX
  5
7D4
  8
TOPLAYER
 10
1725.91599952
 20
229.00800019999991
 30
0.0
 42
1.0
  0
SEQEND
  5
7D5
  8
TOPLAYER
  0
POLYLINE
  5
77
  8
TOPLAYER
 66
     1
 10
0.0
 20
0.0
 30
0.0
 40
6.3999999000000001
 41
6.3999999000000001
  0
VERTEX
  5
7D6
  8
TOPLAYER
 10
328.31600071999992
 20
199.00799923999989
 30
0.0
  0
VERTEX
  5
7D7
  8
TOPLAYER
 10
1724.316000179999
 20
199.00799923999989
 30
0.0
  0
SEQEND
  5
7D8
  8
TOPLAYER
  0
POLYLINE
  5
7B
  8
TOPLAYER
 66
     1
 10
0.0
 20
0.0
 30
0.0
 70
     1
 40
3.1999986799999989
 41
3.1999986799999989
  0
VERTEX
  5
7D9
  8
TOPLAYER
 10
326.71600137999991
 20
199.00799923999989
 30
0.0
 42
1.0
  0
VERTEX
  5
7DA
  8
TOPLAYER
 10
329.91600005999999
 20
199.00799923999989
 30
0.0
 42
1.0
  0
SEQEND
  5
7DB
  8
TOPLAYER
  0
POLYLINE
  5
7F
  8
TOPLAYER
 66
     1
 10
0.0
 20
0.0
 30
0.0
 70
     1
 40
3.1999986799999989
 41
3.1999986799999989
  0
VERTEX
  5
7DC
  8
TOPLAYER
 10
1722.7160008400001
 20
199.00799923999989
 30
0.0
 42
1.0
  0
VERTEX
  5
7DD
  8
TOPLAYER
 10
1725.91599952
 20
199.00799923999989
 30
0.0
 42
1.0
  0
SEQEND
  5
7DE
  8
TOPLAYER
  0
POLYLINE
  5
83
  8
TOPLAYER
 66
     1
 10
0.0
 20
0.0
 30
0.0
 40
2.9999990799999989
 41
2.9999990799999989
  0
VERTEX
  5
7DF
  8
TOPLAYER
 10
324.8160001
 20
312.75800033999991
 30
0.0
  0
VERTEX
  5
7E0
  8
TOPLAYER
 10
324.8160001
 20
407.00799979999988
 30
0.0
  0
SEQEND
  5
7E1
  8
TOPLAYER
  0
POLYLINE
  5
87
  8
TOPLAYER
 66
     1
 10
0.0
 20
0.0
 30
0.0
 70
     1
 40
1.499999539999999
 41
1.499999539999999
  0
VERTEX
  5
7E2
  8
TOPLAYER
 10
324.06600159999999
 20
312.75800033999991
 30
0.0
 42
1.0
  0
VERTEX
  5
7E3
  8
TOPLAYER
 10
325.56599859999989
 20
312.75800033999991
 30
0.0
 42
1.0
  0
SEQEND
  5
7E4
  8
TOPLAYER
  0
POLYLINE
  5
8B
  8
TOPLAYER
 66
     1
 10
0.0
 20
0.0
 30
0.0
 70
     1
 40
1.499999539999999
 41
1.499999539999999
  0
VERTEX
  5
7E5
  8
TOPLAYER
 10
324.06600159999999
 20
407.00799979999988
 30
0.0
 42
1.0
  0
VERTEX
  5
7E6
  8
TOPLAYER
 10
325.56599859999989
 20
407.00799979999988
 30
0.0
 42
1.0
  0
SEQEND
  5
7E7
  8
TOPLAYER
  0
POLYLINE
  5
8F
  8
TOPLAYER
 66
     1
 10
0.0
 20
0.0
 30
0.0
 40
2.9999990799999989
 41
2.9999990799999989
  0
VERTEX
  5
7E8
  8
TOPLAYER
 10
272.31600095999988
 20
420.00799919999997
 30
0.0
  0
VERTEX
  5
7E9
  8
TOPLAYER
 10
317.31599985999992
 20
420.00799919999997
 30
0.0
  0
SEQEND
  5
7EA
  8
TOPLAYER
  0
POLYLINE
  5
93
  8
TOPLAYER
 66
     1
 10
0.0
 20
0.0
 30
0.0
 70
     1
 40
1.499999539999999
 41
1.499999539999999
  0
VERTEX
  5
7EB
  8
TOPLAYER
 10
271.56600245999988
 20
420.00799919999997
 30
0.0
 42
1.0
  0
VERTEX
  5
7EC
  8
TOPLAYER
 10
273.06599945999989
 20
420.00799919999997
 30
0.0
 42
1.0
  0
SEQEND
  5
7ED
  8
TOPLAYER
  0
POLYLINE
  5
97
  8
TOPLAYER
 66
     1
 10
0.0
 20
0.0
 30
0.0
 70
     1
 40
1.499999539999999
 41
1.499999539999999
  0
VERTEX
  5
7EE
  8
TOPLAYER
 10
316.56600135999992
 20
420.00799919999997
 30
0.0
 42
1.0
  0
VERTEX
  5
7EF
  8
TOPLAYER
 10
318.06599835999998
 20
420.00799919999997
 30
0.0
 42
1.0
  0
SEQEND
  5
7F0
  8
TOPLAYER
  0
POLYLINE
  5
9B
  8
TOPLAYER
 66
     1
 10
0.0
 20
0.0
 30
0.0
 40
2.9999990799999989
 41
2.9999990799999989
  0
VERTEX
  5
7F1
  8
TOPLAYER
 10
320.31599893999999
 20
423.00800081999989
 30
0.0
  0
VERTEX
  5
7F2
  8
TOPLAYER
 10
320.31599893999999
 20
473.75800091999997
 30
0.0
  0
SEQEND
  5
7F3
  8
TOPLAYER
  0
POLYLINE
  5
9F
  8
TOPLAYER
 66
     1
 10
0.0
 20
0.0
 30
0.0
 70
     1
 40
1.499999539999999
 41
1.499999539999999
  0
VERTEX
  5
7F4
  8
TOPLAYER
 10
319.56600043999998
 20
423.00800081999989
 30
0.0
 42
1.0
  0
VERTEX
  5
7F5
  8
TOPLAYER
 10
321.06599743999988
 20
423.00800081999989
 30
0.0
 42
1.0
  0
SEQEND
  5
7F6
  8
TOPLAYER
  0
POLYLINE
  5
A3
  8
TOPLAYER
 66
     1
 10
0.0
 20
0.0
 30
0.0
 70
     1
 40
1.499999539999999
 41
1.499999539999999
  0
VERTEX
  5
7F7
  8
TOPLAYER
 10
319.56600043999998
 20
473.75800091999997
 30
0.0
 42
1.0
  0
VERTEX
  5
7F8
  8
TOPLAYER
 10
321.06599743999988
 20
473.75800091999997
 30
0.0
 42
1.0
  0
SEQEND
  5
7F9
  8
TOPLAYER
  0
POLYLINE
  5
A7
  8
TOPLAYER
 66
     1
 10
0.0
 20
0.0
 30
0.0
 40
2.9999990799999989
 41
2.9999990799999989
  0
VERTEX
  5
7FA
  8
TOPLAYER
 10
272.31600095999988
 20
415.00799904000002
 30
0.0
  0
VERTEX
  5
7FB
  8
TOPLAYER
 10
321.81600101999999
 20
415.00799904000002
 30
0.0
  0
SEQEND
  5
7FC
  8
TOPLAYER
  0
POLYLINE
  5
AB
  8
TOPLAYER
 66
     1
 10
0.0
 20
0.0
 30
0.0
 70
     1
 40
1.499999539999999
 41
1.499999539999999
  0
VERTEX
  5
7FD
  8
TOPLAYER
 10
271.56600245999988
 20
415.00799904000002
 30
0.0
 42
1.0
  0
VERTEX
  5
7FE
  8
TOPLAYER
 10
273.06599945999989
 20
415.00799904000002
 30
0.0
 42
1.0
  0
SEQEND
  5
7FF
  8
TOPLAYER
  0
POLYLINE
  5
AF
  8
TOPLAYER
 66
     1
 10
0.0
 20
0.0
 30
0.0
 70
     1
 40
1.499999539999999
 41
1.499999539999999
  0
VERTEX
  5
800
  8
TOPLAYER
 10
321.06600251999993
 20
415.00799904000002
 30
0.0
 42
1.0
  0
VERTEX
  5
801
  8
TOPLAYER
 10
322.56599951999999
 20
415.00799904000002
 30
0.0
 42
1.0
  0
SEQEND
  5
802
  8
TOPLAYER
  0
POLYLINE
  5
B3
  8
TOPLAYER
 66
     1
 10
0.0
 20
0.0
 30
0.0
 40
2.9999990799999989
 41
2.9999990799999989
  0
VERTEX
  5
803
  8
TOPLAYER
 10
272.31600095999988
 20
410.00799888
 30
0.0
  0
VERTEX
  5
804
  8
TOPLAYER
 10
321.81600101999999
 20
410.00799888
 30
0.0
  0
SEQEND
  5
805
  8
TOPLAYER
  0
POLYLINE
  5
B7
  8
TOPLAYER
 66
     1
 10
0.0
 20
0.0
 30
0.0
 70
     1
 40
1.499999539999999
 41
1.499999539999999
  0
VERTEX
  5
806
  8
TOPLAYER
 10
271.56600245999988
 20
410.00799888
 30
0.0
 42
1.0
  0
VERTEX
  5
807
  8
TOPLAYER
 10
273.06599945999989
 20
410.00799888
 30
0.0
 42
1.0
  0
SEQEND
  5
808
  8
TOPLAYER
  0
POLYLINE
  5
BB
  8
TOPLAYER
 66
     1
 10
0.0
 20
0.0
 30
0.0
 70
     1
 40
1.499999539999999
 41
1.499999539999999
  0
VERTEX
  5
809
  8
TOPLAYER
 10
321.06600251999993
 20
410.00799888
 30
0.0
 42
1.0
  0
VERTEX
  5
80A
  8
TOPLAYER
 10
322.56599951999999
 20
410.00799888
 30
0.0
 42
1.0
  0
SEQEND
  5
80B
  8
TOPLAYER
  0
POLYLINE
  5
BF
  8
TOPLAYER
 66
     1
 10
0.0
 20
0.0
 30
0.0
 40
2.9999990799999989
 41
2.9999990799999989
  0
VERTEX
  5
80C
  8
TOPLAYER
 10
272.81599995999989
 20
405.0080012599999
 30
0.0
  0
VERTEX
  5
80D
  8
TOPLAYER
 10
317.31599985999992
 20
405.0080012599999
 30
0.0
  0
SEQEND
  5
80E
  8
TOPLAYER
  0
POLYLINE
  5
C3
  8
TOPLAYER
 66
     1
 10
0.0
 20
0.0
 30
0.0
 70
     1
 40
1.499999539999999
 41
1.499999539999999
  0
VERTEX
  5
80F
  8
TOPLAYER
 10
272.06600145999988
 20
405.0080012599999
 30
0.0
 42
1.0
  0
VERTEX
  5
810
  8
TOPLAYER
 10
273.56599846
 20
405.0080012599999
 30
0.0
 42
1.0
  0
SEQEND
  5
811
  8
TOPLAYER
  0
POLYLINE
  5
C7
  8
TOPLAYER
 66
     1
 10
0.0
 20
0.0
 30
0.0
 70
     1
 40
1.499999539999999
 41
1.499999539999999
  0
VERTEX
  5
812
  8
TOPLAYER
 10
316.56600135999992
 20
405.0080012599999
 30
0.0
 42
1.0
  0
VERTEX
  5
813
  8
TOPLAYER
 10
318.06599835999998
 20
405.0080012599999
 30
0.0
 42
1.0
  0
SEQEND
  5
814
  8
TOPLAYER
  0
POLYLINE
  5
CB
  8
TOPLAYER
 66
     1
 10
0.0
 20
0.0
 30
0.0
 40
2.9999990799999989
 41
2.9999990799999989
  0
VERTEX
  5
815
  8
TOPLAYER
 10
320.31599893999999
 20
308.2579991799999
 30
0.0
  0
VERTEX
  5
816
  8
TOPLAYER
 10
320.31599893999999
 20
402.00799963999992
 30
0.0
  0
SEQEND
  5
817
  8
TOPLAYER
  0
POLYLINE
  5
CF
  8
TOPLAYER
 66
     1
 10
0.0
 20
0.0
 30
0.0
 70
     1
 40
1.499999539999999
 41
1.499999539999999
  0
VERTEX
  5
818
  8
TOPLAYER
 10
319.56600043999998
 20
308.2579991799999
 30
0.0
 42
1.0
  0
VERTEX
  5
819
  8
TOPLAYER
 10
321.06599743999988
 20
308.2579991799999
 30
0.0
 42
1.0
  0
SEQEND
  5
81A
  8
TOPLAYER
  0
POLYLINE
  5
D3
  8
TOPLAYER
 66
     1
 10
0.0
 20
0.0
 30
0.0
 70
     1
 40
1.499999539999999
 41
1.499999539999999
  0
VERTEX
  5
81B
  8
TOPLAYER
 10
319.56600043999998
 20
402.00799963999992
 30
0.0
 42
1.0
  0
VERTEX
  5
81C
  8
TOPLAYER
 10
321.06599743999988
 20
402.00799963999992
 30
0.0
 42
1.0
  0
SEQEND
  5
81D
  8
TOPLAYER
  0
POLYLINE
  5
D7
  8
TOPLAYER
 66
     1
 10
0.0
 20
0.0
 30
0.0
 40
0.0999998
 41
0.0999998
  0
VERTEX
  5
81E
  8
TOPLAYER
 10
290.31599797999991
 20
468.00799971999999
 30
0.0
  0
VERTEX
  5
81F
  8
TOPLAYER
 10
290.31599797999991
 20
478.0080000399999
 30
0.0
  0
SEQEND
  5
820
  8
TOPLAYER
  0
POLYLINE
  5
DB
  8
TOPLAYER
 66
     1
 10
0.0
 20
0.0
 30
0.0
 70
     1
 40
0.0499999
 41
0.0499999
  0
VERTEX
  5
821
  8
TOPLAYER
 10
290.29099930000001
 20
468.00799971999999
 30
0.0
 42
1.0
  0
VERTEX
  5
822
  8
TOPLAYER
 10
290.34099665999992
 20
468.00799971999999
 30
0.0
 42
1.0
  0
SEQEND
  5
823
  8
TOPLAYER
  0
POLYLINE
  5
DF
  8
TOPLAYER
 66
     1
 10
0.0
 20
0.0
 30
0.0
 70
     1
 40
0.0499999
 41
0.0499999
  0
VERTEX
  5
824
  8
TOPLAYER
 10
290.29099930000001
 20
478.0080000399999
 30
0.0
 42
1.0
  0
VERTEX
  5
825
  8
TOPLAYER
 10
290.34099665999992
 20
478.0080000399999
 30
0.0
 42
1.0
  0
SEQEND
  5
826
  8
TOPLAYER
  0
POLYLINE
  5
E3
  8
TOPLAYER
 66
     1
 10
0.0
 20
0.0
 30
0.0
 40
0.0999998
 41
0.0999998
  0
VERTEX
  5
827
  8
TOPLAYER
 10
290.31599797999991
 20
458.00799940000002
 30
0.0
  0
VERTEX
  5
828
  8
TOPLAYER
 10
290.31599797999991
 20
468.00799971999999
 30
0.0
  0
SEQEND
  5
829
  8
TOPLAYER
  0
POLYLINE
  5
E7
  8
TOPLAYER
 66
     1
 10
0.0
 20
0.0
 30
0.0
 70
     1
 40
0.0499999
 41
0.0499999
  0
VERTEX
  5
82A
  8
TOPLAYER
 10
290.29099930000001
 20
458.00799940000002
 30
0.0
 42
1.0
  0
VERTEX
  5
82B
  8
TOPLAYER
 10
290.34099665999992
 20
458.00799940000002
 30
0.0
 42
1.0
  0
SEQEND
  5
82C
  8
TOPLAYER
  0
POLYLINE
  5
EB
  8
TOPLAYER
 66
     1
 10
0.0
 20
0.0
 30
0.0
 70
     1
 40
0.0499999
 41
0.0499999
  0
VERTEX
  5
82D
  8
TOPLAYER
 10
290.29099930000001
 20
468.00799971999999
 30
0.0
 42
1.0
  0
VERTEX
  5
82E
  8
TOPLAYER
 10
290.34099665999992
 20
468.00799971999999
 30
0.0
 42
1.0
  0
SEQEND
  5
82F
  8
TOPLAYER
  0
POLYLINE
  5
EF
  8
TOPLAYER
 66
     1
 10
0.0
 20
0.0
 30
0.0
 40
0.0999998
 41
0.0999998
  0
VERTEX
  5
830
  8
TOPLAYER
 10
280.31599765999988
 20
468.00799971999999
 30
0.0
  0
VERTEX
  5
831
  8
TOPLAYER
 10
290.31599797999991
 20
468.00799971999999
 30
0.0
  0
SEQEND
  5
832
  8
TOPLAYER
  0
POLYLINE
  5
F3
  8
TOPLAYER
 66
     1
 10
0.0
 20
0.0
 30
0.0
 70
     1
 40
0.0499999
 41
0.0499999
  0
VERTEX
  5
833
  8
TOPLAYER
 10
280.29099897999993
 20
468.00799971999999
 30
0.0
 42
1.0
  0
VERTEX
  5
834
  8
TOPLAYER
 10
280.34099634
 20
468.00799971999999
 30
0.0
 42
1.0
  0
SEQEND
  5
835
  8
TOPLAYER
  0
POLYLINE
  5
F7
  8
TOPLAYER
 66
     1
 10
0.0
 20
0.0
 30
0.0
 70
     1
 40
0.0499999
 41
0.0499999
  0
VERTEX
  5
836
  8
TOPLAYER
 10
290.29099930000001
 20
468.00799971999999
 30
0.0
 42
1.0
  0
VERTEX
  5
837
  8
TOPLAYER
 10
290.34099665999992
 20
468.00799971999999
 30
0.0
 42
1.0
  0
SEQEND
  5
838
  8
TOPLAYER
  0
POLYLINE
  5
FB
  8
TOPLAYER
 66
     1
 10
0.0
 20
0.0
 30
0.0
 40
0.0999998
 41
0.0999998
  0
VERTEX
  5
839
  8
TOPLAYER
 10
290.31599797999991
 20
468.00799971999999
 30
0.0
  0
VERTEX
  5
83A
  8
TOPLAYER
 10
300.31599829999988
 20
468.00799971999999
 30
0.0
  0
SEQEND
  5
83B
  8
TOPLAYER
  0
POLYLINE
  5
FF
  8
TOPLAYER
 66
     1
 10
0.0
 20
0.0
 30
0.0
 70
     1
 40
0.0499999
 41
0.0499999
  0
VERTEX
  5
83C
  8
TOPLAYER
 10
290.29099930000001
 20
468.00799971999999
 30
0.0
 42
1.0
  0
VERTEX
  5
83D
  8
TOPLAYER
 10
290.34099665999992
 20
468.00799971999999
 30
0.0
 42
1.0
  0
SEQEND
  5
83E
  8
TOPLAYER
  0
POLYLINE
  5
103
  8
TOPLAYER
 66
     1
 10
0.0
 20
0.0
 30
0.0
 70
     1
 40
0.0499999
 41
0.0499999
  0
VERTEX
  5
83F
  8
TOPLAYER
 10
300.29099961999992
 20
468.00799971999999
 30
0.0
 42
1.0
  0
VERTEX
  5
840
  8
TOPLAYER
 10
300.34099697999989
 20
468.00799971999999
 30
0.0
 42
1.0
  0
SEQEND
  5
841
  8
TOPLAYER
  0
POLYLINE
  5
107
  8
TOPLAYER
 66
     1
 10
0.0
 20
0.0
 30
0.0
 40
0.0999998
 41
0.0999998
  0
VERTEX
  5
842
  8
TOPLAYER
 10
1760.315999299999
 20
468.00799971999999
 30
0.0
  0
VERTEX
  5
843
  8
TOPLAYER
 10
1760.315999299999
 20
478.0080000399999
 30
0.0
  0
SEQEND
  5
844
  8
TOPLAYER
  0
POLYLINE
  5
10B
  8
TOPLAYER
 66
     1
 10
0.0
 20
0.0
 30
0.0
 70
     1
 40
0.0499999
 41
0.0499999
  0
VERTEX
  5
845
  8
TOPLAYER
 10
1760.29100062
 20
468.00799971999999
 30
0.0
 42
1.0
  0
VERTEX
  5
846
  8
TOPLAYER
 10
1760.3409979800001
 20
468.00799971999999
 30
0.0
 42
1.0
  0
SEQEND
  5
847
  8
TOPLAYER
  0
POLYLINE
  5
10F
  8
TOPLAYER
 66
     1
 10
0.0
 20
0.0
 30
0.0
 70
     1
 40
0.0499999
 41
0.0499999
  0
VERTEX
  5
848
  8
TOPLAYER
 10
1760.29100062
 20
478.0080000399999
 30
0.0
 42
1.0
  0
VERTEX
  5
849
  8
TOPLAYER
 10
1760.3409979800001
 20
478.0080000399999
 30
0.0
 42
1.0
  0
SEQEND
  5
84A
  8
TOPLAYER
  0
POLYLINE
  5
113
  8
TOPLAYER
 66
     1
 10
0.0
 20
0.0
 30
0.0
 40
0.0999998
 41
0.0999998
  0
VERTEX
  5
84B
  8
TOPLAYER
 10
1750.3159989799999
 20
478.0080000399999
 30
0.0
  0
VERTEX
  5
84C
  8
TOPLAYER
 10
1760.315999299999
 20
478.0080000399999
 30
0.0
  0
SEQEND
  5
84D
  8
TOPLAYER
  0
POLYLINE
  5
117
  8
TOPLAYER
 66
     1
 10
0.0
 20
0.0
 30
0.0
 70
     1
 40
0.0499999
 41
0.0499999
  0
VERTEX
  5
84E
  8
TOPLAYER
 10
1750.2910003
 20
478.0080000399999
 30
0.0
 42
1.0
  0
VERTEX
  5
84F
  8
TOPLAYER
 10
1750.3409976600001
 20
478.0080000399999
 30
0.0
 42
1.0
  0
SEQEND
  5
850
  8
TOPLAYER
  0
POLYLINE
  5
11B
  8
TOPLAYER
 66
     1
 10
0.0
 20
0.0
 30
0.0
 70
     1
 40
0.0499999
 41
0.0499999
  0
VERTEX
  5
851
  8
TOPLAYER
 10
1760.29100062
 20
478.0080000399999
 30
0.0
 42
1.0
  0
VERTEX
  5
852
  8
TOPLAYER
 10
1760.3409979800001
 20
478.0080000399999
 30
0.0
 42
1.0
  0
SEQEND
  5
853
  8
TOPLAYER
  0
POLYLINE
  5
11F
  8
TOPLAYER
 66
     1
 10
0.0
 20
0.0
 30
0.0
 40
0.0999998
 41
0.0999998
  0
VERTEX
  5
854
  8
TOPLAYER
 10
1760.315999299999
 20
478.0080000399999
 30
0.0
  0
VERTEX
  5
855
  8
TOPLAYER
 10
1760.315999299999
 20
488.00800035999993
 30
0.0
  0
SEQEND
  5
856
  8
TOPLAYER
  0
POLYLINE
  5
123
  8
TOPLAYER
 66
     1
 10
0.0
 20
0.0
 30
0.0
 70
     1
 40
0.0499999
 41
0.0499999
  0
VERTEX
  5
857
  8
TOPLAYER
 10
1760.29100062
 20
478.0080000399999
 30
0.0
 42
1.0
  0
VERTEX
  5
858
  8
TOPLAYER
 10
1760.3409979800001
 20
478.0080000399999
 30
0.0
 42
1.0
  0
SEQEND
  5
859
  8
TOPLAYER
  0
POLYLINE
  5
127
  8
TOPLAYER
 66
     1
 10
0.0
 20
0.0
 30
0.0
 70
     1
 40
0.0499999
 41
0.0499999
  0
VERTEX
  5
85A
  8
TOPLAYER
 10
1760.29100062
 20
488.00800035999993
 30
0.0
 42
1.0
  0
VERTEX
  5
85B
  8
TOPLAYER
 10
1760.3409979800001
 20
488.00800035999993
 30
0.0
 42
1.0
  0
SEQEND
  5
85C
  8
TOPLAYER
  0
POLYLINE
  5
12B
  8
TOPLAYER
 66
     1
 10
0.0
 20
0.0
 30
0.0
 40
0.0999998
 41
0.0999998
  0
VERTEX
  5
85D
  8
TOPLAYER
 10
1760.315999299999
 20
478.0080000399999
 30
0.0
  0
VERTEX
  5
85E
  8
TOPLAYER
 10
1770.31599962
 20
478.0080000399999
 30
0.0
  0
SEQEND
  5
85F
  8
TOPLAYER
  0
POLYLINE
  5
12F
  8
TOPLAYER
 66
     1
 10
0.0
 20
0.0
 30
0.0
 70
     1
 40
0.0499999
 41
0.0499999
  0
VERTEX
  5
860
  8
TOPLAYER
 10
1760.29100062
 20
478.0080000399999
 30
0.0
 42
1.0
  0
VERTEX
  5
861
  8
TOPLAYER
 10
1760.3409979800001
 20
478.0080000399999
 30
0.0
 42
1.0
  0
SEQEND
  5
862
  8
TOPLAYER
  0
POLYLINE
  5
133
  8
TOPLAYER
 66
     1
 10
0.0
 20
0.0
 30
0.0
 70
     1
 40
0.0499999
 41
0.0499999
  0
VERTEX
  5
863
  8
TOPLAYER
 10
1770.29100094
 20
478.0080000399999
 30
0.0
 42
1.0
  0
VERTEX
  5
864
  8
TOPLAYER
 10
1770.3409982999999
 20
478.0080000399999
 30
0.0
 42
1.0
  0
SEQEND
  5
865
  8
TOPLAYER
  0
POLYLINE
  5
137
  8
TOPLAYER
 66
     1
 10
0.0
 20
0.0
 30
0.0
 40
2.9999990799999989
 41
2.9999990799999989
  0
VERTEX
  5
866
  8
TOPLAYER
 10
324.31600109999999
 20
305.25800009999989
 30
0.0
  0
VERTEX
  5
867
  8
TOPLAYER
 10
785.3160011199999
 20
305.25800009999989
 30
0.0
  0
SEQEND
  5
868
  8
TOPLAYER
  0
POLYLINE
  5
13B
  8
TOPLAYER
 66
     1
 10
0.0
 20
0.0
 30
0.0
 70
     1
 40
1.499999539999999
 41
1.499999539999999
  0
VERTEX
  5
869
  8
TOPLAYER
 10
323.56600259999999
 20
305.25800009999989
 30
0.0
 42
1.0
  0
VERTEX
  5
86A
  8
TOPLAYER
 10
325.06599959999988
 20
305.25800009999989
 30
0.0
 42
1.0
  0
SEQEND
  5
86B
  8
TOPLAYER
  0
POLYLINE
  5
13F
  8
TOPLAYER
 66
     1
 10
0.0
 20
0.0
 30
0.0
 70
     1
 40
1.499999539999999
 41
1.499999539999999
  0
VERTEX
  5
86C
  8
TOPLAYER
 10
784.56600261999995
 20
305.25800009999989
 30
0.0
 42
1.0
  0
VERTEX
  5
86D
  8
TOPLAYER
 10
786.06599961999984
 20
305.25800009999989
 30
0.0
 42
1.0
  0
SEQEND
  5
86E
  8
TOPLAYER
  0
POLYLINE
  5
143
  8
TOPLAYER
 66
     1
 10
0.0
 20
0.0
 30
0.0
 40
2.9999990799999989
 41
2.9999990799999989
  0
VERTEX
  5
86F
  8
TOPLAYER
 10
327.81599917999989
 20
309.7580012599999
 30
0.0
  0
VERTEX
  5
870
  8
TOPLAYER
 10
785.3160011199999
 20
309.7580012599999
 30
0.0
  0
SEQEND
  5
871
  8
TOPLAYER
  0
POLYLINE
  5
147
  8
TOPLAYER
 66
     1
 10
0.0
 20
0.0
 30
0.0
 70
     1
 40
1.499999539999999
 41
1.499999539999999
  0
VERTEX
  5
872
  8
TOPLAYER
 10
327.06600068
 20
309.7580012599999
 30
0.0
 42
1.0
  0
VERTEX
  5
873
  8
TOPLAYER
 10
328.56599768000001
 20
309.7580012599999
 30
0.0
 42
1.0
  0
SEQEND
  5
874
  8
TOPLAYER
  0
POLYLINE
  5
14B
  8
TOPLAYER
 66
     1
 10
0.0
 20
0.0
 30
0.0
 70
     1
 40
1.499999539999999
 41
1.499999539999999
  0
VERTEX
  5
875
  8
TOPLAYER
 10
784.56600261999995
 20
309.7580012599999
 30
0.0
 42
1.0
  0
VERTEX
  5
876
  8
TOPLAYER
 10
786.06599961999984
 20
309.7580012599999
 30
0.0
 42
1.0
  0
SEQEND
  5
877
  8
TOPLAYER
  0
POLYLINE
  5
14F
  8
TOPLAYER
 66
     1
 10
0.0
 20
0.0
 30
0.0
 40
2.9999990799999989
 41
2.9999990799999989
  0
VERTEX
  5
878
  8
TOPLAYER
 10
327.81599917999989
 20
472.25799883999991
 30
0.0
  0
VERTEX
  5
879
  8
TOPLAYER
 10
1267.5659992799999
 20
472.25799883999991
 30
0.0
  0
SEQEND
  5
87A
  8
TOPLAYER
  0
POLYLINE
  5
153
  8
TOPLAYER
 66
     1
 10
0.0
 20
0.0
 30
0.0
 70
     1
 40
1.499999539999999
 41
1.499999539999999
  0
VERTEX
  5
87B
  8
TOPLAYER
 10
327.06600068
 20
472.25799883999991
 30
0.0
 42
1.0
  0
VERTEX
  5
87C
  8
TOPLAYER
 10
328.56599768000001
 20
472.25799883999991
 30
0.0
 42
1.0
  0
SEQEND
  5
87D
  8
TOPLAYER
  0
POLYLINE
  5
157
  8
TOPLAYER
 66
     1
 10
0.0
 20
0.0
 30
0.0
 70
     1
 40
1.499999539999999
 41
1.499999539999999
  0
VERTEX
  5
87E
  8
TOPLAYER
 10
1266.81600078
 20
472.25799883999991
 30
0.0
 42
1.0
  0
VERTEX
  5
87F
  8
TOPLAYER
 10
1268.3159977800001
 20
472.25799883999991
 30
0.0
 42
1.0
  0
SEQEND
  5
880
  8
TOPLAYER
  0
POLYLINE
  5
15B
  8
TOPLAYER
 66
     1
 10
0.0
 20
0.0
 30
0.0
 40
6.3999999000000001
 41
6.3999999000000001
  0
VERTEX
  5
881
  8
TOPLAYER
 10
338.31600104
 20
386.00800115999999
 30
0.0
  0
VERTEX
  5
882
  8
TOPLAYER
 10
1724.316000179999
 20
386.00800115999999
 30
0.0
  0
SEQEND
  5
883
  8
TOPLAYER
  0
POLYLINE
  5
15F
  8
TOPLAYER
 66
     1
 10
0.0
 20
0.0
 30
0.0
 70
     1
 40
3.1999986799999989
 41
3.1999986799999989
  0
VERTEX
  5
884
  8
TOPLAYER
 10
336.71600169999988
 20
386.00800115999999
 30
0.0
 42
1.0
  0
VERTEX
  5
885
  8
TOPLAYER
 10
339.9160003799999
 20
386.00800115999999
 30
0.0
 42
1.0
  0
SEQEND
  5
886
  8
TOPLAYER
  0
POLYLINE
  5
163
  8
TOPLAYER
 66
     1
 10
0.0
 20
0.0
 30
0.0
 70
     1
 40
3.1999986799999989
 41
3.1999986799999989
  0
VERTEX
  5
887
  8
TOPLAYER
 10
1722.7160008400001
 20
386.00800115999999
 30
0.0
 42
1.0
  0
VERTEX
  5
888
  8
TOPLAYER
 10
1725.91599952
 20
386.00800115999999
 30
0.0
 42
1.0
  0
SEQEND
  5
889
  8
TOPLAYER
  0
POLYLINE
  5
167
  8
TOPLAYER
 66
     1
 10
0.0
 20
0.0
 30
0.0
 40
6.3999999000000001
 41
6.3999999000000001
  0
VERTEX
  5
88A
  8
TOPLAYER
 10
338.31600104
 20
376.00800083999991
 30
0.0
  0
VERTEX
  5
88B
  8
TOPLAYER
 10
1724.316000179999
 20
376.00800083999991
 30
0.0
  0
SEQEND
  5
88C
  8
TOPLAYER
  0
POLYLINE
  5
16B
  8
TOPLAYER
 66
     1
 10
0.0
 20
0.0
 30
0.0
 70
     1
 40
3.1999986799999989
 41
3.1999986799999989
  0
VERTEX
  5
88D
  8
TOPLAYER
 10
336.71600169999988
 20
376.00800083999991
 30
0.0
 42
1.0
  0
VERTEX
  5
88E
  8
TOPLAYER
 10
339.9160003799999
 20
376.00800083999991
 30
0.0
 42
1.0
  0
SEQEND
  5
88F
  8
TOPLAYER
  0
POLYLINE
  5
16F
  8
TOPLAYER
 66
     1
 10
0.0
 20
0.0
 30
0.0
 70
     1
 40
3.1999986799999989
 41
3.1999986799999989
  0
VERTEX
  5
890
  8
TOPLAYER
 10
1722.7160008400001
 20
376.00800083999991
 30
0.0
 42
1.0
  0
VERTEX
  5
891
  8
TOPLAYER
 10
1725.91599952
 20
376.00800083999991
 30
0.0
 42
1.0
  0
SEQEND
  5
892
  8
TOPLAYER
  0
POLYLINE
  5
173
  8
TOPLAYER
 66
     1
 10
0.0
 20
0.0
 30
0.0
 40
6.3999999000000001
 41
6.3999999000000001
  0
VERTEX
  5
893
  8
TOPLAYER
 10
338.31600104
 20
366.00800052
 30
0.0
  0
VERTEX
  5
894
  8
TOPLAYER
 10
1724.316000179999
 20
366.00800052
 30
0.0
  0
SEQEND
  5
895
  8
TOPLAYER
  0
POLYLINE
  5
177
  8
TOPLAYER
 66
     1
 10
0.0
 20
0.0
 30
0.0
 70
     1
 40
3.1999986799999989
 41
3.1999986799999989
  0
VERTEX
  5
896
  8
TOPLAYER
 10
336.71600169999988
 20
366.00800052
 30
0.0
 42
1.0
  0
VERTEX
  5
897
  8
TOPLAYER
 10
339.9160003799999
 20
366.00800052
 30
0.0
 42
1.0
  0
SEQEND
  5
898
  8
TOPLAYER
  0
POLYLINE
  5
17B
  8
TOPLAYER
 66
     1
 10
0.0
 20
0.0
 30
0.0
 70
     1
 40
3.1999986799999989
 41
3.1999986799999989
  0
VERTEX
  5
899
  8
TOPLAYER
 10
1722.7160008400001
 20
366.00800052
 30
0.0
 42
1.0
  0
VERTEX
  5
89A
  8
TOPLAYER
 10
1725.91599952
 20
366.00800052
 30
0.0
 42
1.0
  0
SEQEND
  5
89B
  8
TOPLAYER
  0
POLYLINE
  5
17F
  8
TOPLAYER
 66
     1
 10
0.0
 20
0.0
 30
0.0
 40
6.3999999000000001
 41
6.3999999000000001
  0
VERTEX
  5
89C
  8
TOPLAYER
 10
338.31600104
 20
356.00800019999991
 30
0.0
  0
VERTEX
  5
89D
  8
TOPLAYER
 10
1724.316000179999
 20
356.00800019999991
 30
0.0
  0
SEQEND
  5
89E
  8
TOPLAYER
  0
POLYLINE
  5
183
  8
TOPLAYER
 66
     1
 10
0.0
 20
0.0
 30
0.0
 70
     1
 40
3.1999986799999989
 41
3.1999986799999989
  0
VERTEX
  5
89F
  8
TOPLAYER
 10
336.71600169999988
 20
356.00800019999991
 30
0.0
 42
1.0
  0
VERTEX
  5
8A0
  8
TOPLAYER
 10
339.9160003799999
 20
356.00800019999991
 30
0.0
 42
1.0
  0
SEQEND
  5
8A1
  8
TOPLAYER
  0
POLYLINE
  5
187
  8
TOPLAYER
 66
     1
 10
0.0
 20
0.0
 30
0.0
 70
     1
 40
3.1999986799999989
 41
3.1999986799999989
  0
VERTEX
  5
8A2
  8
TOPLAYER
 10
1722.7160008400001
 20
356.00800019999991
 30
0.0
 42
1.0
  0
VERTEX
  5
8A3
  8
TOPLAYER
 10
1725.91599952
 20
356.00800019999991
 30
0.0
 42
1.0
  0
SEQEND
  5
8A4
  8
TOPLAYER
  0
POLYLINE
  5
18B
  8
TOPLAYER
 66
     1
 10
0.0
 20
0.0
 30
0.0
 40
6.3999999000000001
 41
6.3999999000000001
  0
VERTEX
  5
8A5
  8
TOPLAYER
 10
338.31600104
 20
336.00799955999992
 30
0.0
  0
VERTEX
  5
8A6
  8
TOPLAYER
 10
1724.316000179999
 20
336.00799955999992
 30
0.0
  0
SEQEND
  5
8A7
  8
TOPLAYER
  0
POLYLINE
  5
18F
  8
TOPLAYER
 66
     1
 10
0.0
 20
0.0
 30
0.0
 70
     1
 40
3.1999986799999989
 41
3.1999986799999989
  0
VERTEX
  5
8A8
  8
TOPLAYER
 10
336.71600169999988
 20
336.00799955999992
 30
0.0
 42
1.0
  0
VERTEX
  5
8A9
  8
TOPLAYER
 10
339.9160003799999
 20
336.00799955999992
 30
0.0
 42
1.0
  0
SEQEND
  5
8AA
  8
TOPLAYER
  0
POLYLINE
  5
193
  8
TOPLAYER
 66
     1
 10
0.0
 20
0.0
 30
0.0
 70
     1
 40
3.1999986799999989
 41
3.1999986799999989
  0
VERTEX
  5
8AB
  8
TOPLAYER
 10
1722.7160008400001
 20
336.00799955999992
 30
0.0
 42
1.0
  0
VERTEX
  5
8AC
  8
TOPLAYER
 10
1725.91599952
 20
336.00799955999992
 30
0.0
 42
1.0
  0
SEQEND
  5
8AD
  8
TOPLAYER
  0
POLYLINE
  5
197
  8
TOPLAYER
 66
     1
 10
0.0
 20
0.0
 30
0.0
 40
6.3999999000000001
 41
6.3999999000000001
  0
VERTEX
  5
8AE
  8
TOPLAYER
 10
338.31600104
 20
326.00799924
 30
0.0
  0
VERTEX
  5
8AF
  8
TOPLAYER
 10
1724.316000179999
 20
326.00799924
 30
0.0
  0
SEQEND
  5
8B0
  8
TOPLAYER
  0
POLYLINE
  5
19B
  8
TOPLAYER
 66
     1
 10
0.0
 20
0.0
 30
0.0
 70
     1
 40
3.1999986799999989
 41
3.1999986799999989
  0
VERTEX
  5
8B1
  8
TOPLAYER
 10
336.71600169999988
 20
326.00799924
 30
0.0
 42
1.0
  0
VERTEX
  5
8B2
  8
TOPLAYER
 10
339.9160003799999
 20
326.00799924
 30
0.0
 42
1.0
  0
SEQEND
  5
8B3
  8
TOPLAYER
  0
POLYLINE
  5
19F
  8
TOPLAYER
 66
     1
 10
0.0
 20
0.0
 30
0.0
 70
     1
 40
3.1999986799999989
 41
3.1999986799999989
  0
VERTEX
  5
8B4
  8
TOPLAYER
 10
1722.7160008400001
 20
326.00799924
 30
0.0
 42
1.0
  0
VERTEX
  5
8B5
  8
TOPLAYER
 10
1725.91599952
 20
326.00799924
 30
0.0
 42
1.0
  0
SEQEND
  5
8B6
  8
TOPLAYER
  0
POLYLINE
  5
1A3
  8
TOPLAYER
 66
     1
 10
0.0
 20
0.0
 30
0.0
 40
6.3999999000000001
 41
6.3999999000000001
  0
VERTEX
  5
8B7
  8
TOPLAYER
 10
338.31600104
 20
316.00799891999992
 30
0.0
  0
VERTEX
  5
8B8
  8
TOPLAYER
 10
1720.8159995599999
 20
316.00799891999992
 30
0.0
  0
SEQEND
  5
8B9
  8
TOPLAYER
  0
POLYLINE
  5
1A7
  8
TOPLAYER
 66
     1
 10
0.0
 20
0.0
 30
0.0
 70
     1
 40
3.1999986799999989
 41
3.1999986799999989
  0
VERTEX
  5
8BA
  8
TOPLAYER
 10
336.71600169999988
 20
316.00799891999992
 30
0.0
 42
1.0
  0
VERTEX
  5
8BB
  8
TOPLAYER
 10
339.9160003799999
 20
316.00799891999992
 30
0.0
 42
1.0
  0
SEQEND
  5
8BC
  8
TOPLAYER
  0
POLYLINE
  5
1AB
  8
TOPLAYER
 66
     1
 10
0.0
 20
0.0
 30
0.0
 70
     1
 40
3.1999986799999989
 41
3.1999986799999989
  0
VERTEX
  5
8BD
  8
TOPLAYER
 10
1719.2160002199989
 20
316.00799891999992
 30
0.0
 42
1.0
  0
VERTEX
  5
8BE
  8
TOPLAYER
 10
1722.4159989
 20
316.00799891999992
 30
0.0
 42
1.0
  0
SEQEND
  5
8BF
  8
TOPLAYER
  0
POLYLINE
  5
1AF
  8
TOPLAYER
 66
     1
 10
0.0
 20
0.0
 30
0.0
 40
6.3999999000000001
 41
6.3999999000000001
  0
VERTEX
  5
8C0
  8
TOPLAYER
 10
338.31600104
 20
299.0079998999999
 30
0.0
  0
VERTEX
  5
8C1
  8
TOPLAYER
 10
1720.8159995599999
 20
299.0079998999999
 30
0.0
  0
SEQEND
  5
8C2
  8
TOPLAYER
  0
POLYLINE
  5
1B3
  8
TOPLAYER
 66
     1
 10
0.0
 20
0.0
 30
0.0
 70
     1
 40
3.1999986799999989
 41
3.1999986799999989
  0
VERTEX
  5
8C3
  8
TOPLAYER
 10
336.71600169999988
 20
299.0079998999999
 30
0.0
 42
1.0
  0
VERTEX
  5
8C4
  8
TOPLAYER
 10
339.9160003799999
 20
299.0079998999999
 30
0.0
 42
1.0
  0
SEQEND
  5
8C5
  8
TOPLAYER
  0
POLYLINE
  5
1B7
  8
TOPLAYER
 66
     1
 10
0.0
 20
0.0
 30
0.0
 70
     1
 40
3.1999986799999989
 41
3.1999986799999989
  0
VERTEX
  5
8C6
  8
TOPLAYER
 10
1719.2160002199989
 20
299.0079998999999
 30
0.0
 42
1.0
  0
VERTEX
  5
8C7
  8
TOPLAYER
 10
1722.4159989
 20
299.0079998999999
 30
0.0
 42
1.0
  0
SEQEND
  5
8C8
  8
TOPLAYER
  0
POLYLINE
  5
1BB
  8
TOPLAYER
 66
     1
 10
0.0
 20
0.0
 30
0.0
 40
6.3999999000000001
 41
6.3999999000000001
  0
VERTEX
  5
8C9
  8
TOPLAYER
 10
338.31600104
 20
289.00799957999988
 30
0.0
  0
VERTEX
  5
8CA
  8
TOPLAYER
 10
1724.316000179999
 20
289.00799957999988
 30
0.0
  0
SEQEND
  5
8CB
  8
TOPLAYER
  0
POLYLINE
  5
1BF
  8
TOPLAYER
 66
     1
 10
0.0
 20
0.0
 30
0.0
 70
     1
 40
3.1999986799999989
 41
3.1999986799999989
  0
VERTEX
  5
8CC
  8
TOPLAYER
 10
336.71600169999988
 20
289.00799957999988
 30
0.0
 42
1.0
  0
VERTEX
  5
8CD
  8
TOPLAYER
 10
339.9160003799999
 20
289.00799957999988
 30
0.0
 42
1.0
  0
SEQEND
  5
8CE
  8
TOPLAYER
  0
POLYLINE
  5
1C3
  8
TOPLAYER
 66
     1
 10
0.0
 20
0.0
 30
0.0
 70
     1
 40
3.1999986799999989
 41
3.1999986799999989
  0
VERTEX
  5
8CF
  8
TOPLAYER
 10
1722.7160008400001
 20
289.00799957999988
 30
0.0
 42
1.0
  0
VERTEX
  5
8D0
  8
TOPLAYER
 10
1725.91599952
 20
289.00799957999988
 30
0.0
 42
1.0
  0
SEQEND
  5
8D1
  8
TOPLAYER
  0
POLYLINE
  5
1C7
  8
TOPLAYER
 66
     1
 10
0.0
 20
0.0
 30
0.0
 40
6.3999999000000001
 41
6.3999999000000001
  0
VERTEX
  5
8D2
  8
TOPLAYER
 10
338.31600104
 20
269.00799893999999
 30
0.0
  0
VERTEX
  5
8D3
  8
TOPLAYER
 10
1724.316000179999
 20
269.00799893999999
 30
0.0
  0
SEQEND
  5
8D4
  8
TOPLAYER
  0
POLYLINE
  5
1CB
  8
TOPLAYER
 66
     1
 10
0.0
 20
0.0
 30
0.0
 70
     1
 40
3.1999986799999989
 41
3.1999986799999989
  0
VERTEX
  5
8D5
  8
TOPLAYER
 10
336.71600169999988
 20
269.00799893999999
 30
0.0
 42
1.0
  0
VERTEX
  5
8D6
  8
TOPLAYER
 10
339.9160003799999
 20
269.00799893999999
 30
0.0
 42
1.0
  0
SEQEND
  5
8D7
  8
TOPLAYER
  0
POLYLINE
  5
1CF
  8
TOPLAYER
 66
     1
 10
0.0
 20
0.0
 30
0.0
 70
     1
 40
3.1999986799999989
 41
3.1999986799999989
  0
VERTEX
  5
8D8
  8
TOPLAYER
 10
1722.7160008400001
 20
269.00799893999999
 30
0.0
 42
1.0
  0
VERTEX
  5
8D9
  8
TOPLAYER
 10
1725.91599952
 20
269.00799893999999
 30
0.0
 42
1.0
  0
SEQEND
  5
8DA
  8
TOPLAYER
  0
POLYLINE
  5
1D3
  8
TOPLAYER
 66
     1
 10
0.0
 20
0.0
 30
0.0
 40
6.3999999000000001
 41
6.3999999000000001
  0
VERTEX
  5
8DB
  8
TOPLAYER
 10
338.31600104
 20
259.00800115999999
 30
0.0
  0
VERTEX
  5
8DC
  8
TOPLAYER
 10
1724.316000179999
 20
259.00800115999999
 30
0.0
  0
SEQEND
  5
8DD
  8
TOPLAYER
  0
POLYLINE
  5
1D7
  8
TOPLAYER
 66
     1
 10
0.0
 20
0.0
 30
0.0
 70
     1
 40
3.1999986799999989
 41
3.1999986799999989
  0
VERTEX
  5
8DE
  8
TOPLAYER
 10
336.71600169999988
 20
259.00800115999999
 30
0.0
 42
1.0
  0
VERTEX
  5
8DF
  8
TOPLAYER
 10
339.9160003799999
 20
259.00800115999999
 30
0.0
 42
1.0
  0
SEQEND
  5
8E0
  8
TOPLAYER
  0
POLYLINE
  5
1DB
  8
TOPLAYER
 66
     1
 10
0.0
 20
0.0
 30
0.0
 70
     1
 40
3.1999986799999989
 41
3.1999986799999989
  0
VERTEX
  5
8E1
  8
TOPLAYER
 10
1722.7160008400001
 20
259.00800115999999
 30
0.0
 42
1.0
  0
VERTEX
  5
8E2
  8
TOPLAYER
 10
1725.91599952
 20
259.00800115999999
 30
0.0
 42
1.0
  0
SEQEND
  5
8E3
  8
TOPLAYER
  0
POLYLINE
  5
1DF
  8
TOPLAYER
 66
     1
 10
0.0
 20
0.0
 30
0.0
 40
6.3999999000000001
 41
6.3999999000000001
  0
VERTEX
  5
8E4
  8
TOPLAYER
 10
338.31600104
 20
249.00800083999999
 30
0.0
  0
VERTEX
  5
8E5
  8
TOPLAYER
 10
1724.316000179999
 20
249.00800083999999
 30
0.0
  0
SEQEND
  5
8E6
  8
TOPLAYER
  0
POLYLINE
  5
1E3
  8
TOPLAYER
 66
     1
 10
0.0
 20
0.0
 30
0.0
 70
     1
 40
3.1999986799999989
 41
3.1999986799999989
  0
VERTEX
  5
8E7
  8
TOPLAYER
 10
336.71600169999988
 20
249.00800083999999
 30
0.0
 42
1.0
  0
VERTEX
  5
8E8
  8
TOPLAYER
 10
339.9160003799999
 20
249.00800083999999
 30
0.0
 42
1.0
  0
SEQEND
  5
8E9
  8
TOPLAYER
  0
POLYLINE
  5
1E7
  8
TOPLAYER
 66
     1
 10
0.0
 20
0.0
 30
0.0
 70
     1
 40
3.1999986799999989
 41
3.1999986799999989
  0
VERTEX
  5
8EA
  8
TOPLAYER
 10
1722.7160008400001
 20
249.00800083999999
 30
0.0
 42
1.0
  0
VERTEX
  5
8EB
  8
TOPLAYER
 10
1725.91599952
 20
249.00800083999999
 30
0.0
 42
1.0
  0
SEQEND
  5
8EC
  8
TOPLAYER
  0
POLYLINE
  5
1EB
  8
TOPLAYER
 66
     1
 10
0.0
 20
0.0
 30
0.0
 40
6.3999999000000001
 41
6.3999999000000001
  0
VERTEX
  5
8ED
  8
TOPLAYER
 10
338.31600104
 20
239.00800052
 30
0.0
  0
VERTEX
  5
8EE
  8
TOPLAYER
 10
1724.316000179999
 20
239.00800052
 30
0.0
  0
SEQEND
  5
8EF
  8
TOPLAYER
  0
POLYLINE
  5
1EF
  8
TOPLAYER
 66
     1
 10
0.0
 20
0.0
 30
0.0
 70
     1
 40
3.1999986799999989
 41
3.1999986799999989
  0
VERTEX
  5
8F0
  8
TOPLAYER
 10
336.71600169999988
 20
239.00800052
 30
0.0
 42
1.0
  0
VERTEX
  5
8F1
  8
TOPLAYER
 10
339.9160003799999
 20
239.00800052
 30
0.0
 42
1.0
  0
SEQEND
  5
8F2
  8
TOPLAYER
  0
POLYLINE
  5
1F3
  8
TOPLAYER
 66
     1
 10
0.0
 20
0.0
 30
0.0
 70
     1
 40
3.1999986799999989
 41
3.1999986799999989
  0
VERTEX
  5
8F3
  8
TOPLAYER
 10
1722.7160008400001
 20
239.00800052
 30
0.0
 42
1.0
  0
VERTEX
  5
8F4
  8
TOPLAYER
 10
1725.91599952
 20
239.00800052
 30
0.0
 42
1.0
  0
SEQEND
  5
8F5
  8
TOPLAYER
  0
POLYLINE
  5
1F7
  8
TOPLAYER
 66
     1
 10
0.0
 20
0.0
 30
0.0
 40
6.3999999000000001
 41
6.3999999000000001
  0
VERTEX
  5
8F6
  8
TOPLAYER
 10
338.31600104
 20
219.00799987999989
 30
0.0
  0
VERTEX
  5
8F7
  8
TOPLAYER
 10
1724.316000179999
 20
219.00799987999989
 30
0.0
  0
SEQEND
  5
8F8
  8
TOPLAYER
  0
POLYLINE
  5
1FB
  8
TOPLAYER
 66
     1
 10
0.0
 20
0.0
 30
0.0
 70
     1
 40
3.1999986799999989
 41
3.1999986799999989
  0
VERTEX
  5
8F9
  8
TOPLAYER
 10
336.71600169999988
 20
219.00799987999989
 30
0.0
 42
1.0
  0
VERTEX
  5
8FA
  8
TOPLAYER
 10
339.9160003799999
 20
219.00799987999989
 30
0.0
 42
1.0
  0
SEQEND
  5
8FB
  8
TOPLAYER
  0
POLYLINE
  5
1FF
  8
TOPLAYER
 66
     1
 10
0.0
 20
0.0
 30
0.0
 70
     1
 40
3.1999986799999989
 41
3.1999986799999989
  0
VERTEX
  5
8FC
  8
TOPLAYER
 10
1722.7160008400001
 20
219.00799987999989
 30
0.0
 42
1.0
  0
VERTEX
  5
8FD
  8
TOPLAYER
 10
1725.91599952
 20
219.00799987999989
 30
0.0
 42
1.0
  0
SEQEND
  5
8FE
  8
TOPLAYER
  0
POLYLINE
  5
203
  8
TOPLAYER
 66
     1
 10
0.0
 20
0.0
 30
0.0
 40
6.3999999000000001
 41
6.3999999000000001
  0
VERTEX
  5
8FF
  8
TOPLAYER
 10
338.31600104
 20
209.00799956
 30
0.0
  0
VERTEX
  5
900
  8
TOPLAYER
 10
1724.316000179999
 20
209.00799956
 30
0.0
  0
SEQEND
  5
901
  8
TOPLAYER
  0
POLYLINE
  5
207
  8
TOPLAYER
 66
     1
 10
0.0
 20
0.0
 30
0.0
 70
     1
 40
3.1999986799999989
 41
3.1999986799999989
  0
VERTEX
  5
902
  8
TOPLAYER
 10
336.71600169999988
 20
209.00799956
 30
0.0
 42
1.0
  0
VERTEX
  5
903
  8
TOPLAYER
 10
339.9160003799999
 20
209.00799956
 30
0.0
 42
1.0
  0
SEQEND
  5
904
  8
TOPLAYER
  0
POLYLINE
  5
20B
  8
TOPLAYER
 66
     1
 10
0.0
 20
0.0
 30
0.0
 70
     1
 40
3.1999986799999989
 41
3.1999986799999989
  0
VERTEX
  5
905
  8
TOPLAYER
 10
1722.7160008400001
 20
209.00799956
 30
0.0
 42
1.0
  0
VERTEX
  5
906
  8
TOPLAYER
 10
1725.91599952
 20
209.00799956
 30
0.0
 42
1.0
  0
SEQEND
  5
907
  8
TOPLAYER
  0
POLYLINE
  5
20F
  8
TOPLAYER
 66
     1
 10
0.0
 20
0.0
 30
0.0
 40
6.3999999000000001
 41
6.3999999000000001
  0
VERTEX
  5
908
  8
TOPLAYER
 10
323.31600055999991
 20
204.00799939999999
 30
0.0
  0
VERTEX
  5
909
  8
TOPLAYER
 10
323.31600055999991
 20
295.75799877999992
 30
0.0
  0
SEQEND
  5
90A
  8
TOPLAYER
  0
POLYLINE
  5
213
  8
TOPLAYER
 66
     1
 10
0.0
 20
0.0
 30
0.0
 70
     1
 40
3.1999986799999989
 41
3.1999986799999989
  0
VERTEX
  5
90B
  8
TOPLAYER
 10
321.71600122000001
 20
204.00799939999999
 30
0.0
 42
1.0
  0
VERTEX
  5
90C
  8
TOPLAYER
 10
324.91599989999992
 20
204.00799939999999
 30
0.0
 42
1.0
  0
SEQEND
  5
90D
  8
TOPLAYER
  0
POLYLINE
  5
217
  8
TOPLAYER
 66
     1
 10
0.0
 20
0.0
 30
0.0
 70
     1
 40
3.1999986799999989
 41
3.1999986799999989
  0
VERTEX
  5
90E
  8
TOPLAYER
 10
321.71600122000001
 20
295.75799877999992
 30
0.0
 42
1.0
  0
VERTEX
  5
90F
  8
TOPLAYER
 10
324.91599989999992
 20
295.75799877999992
 30
0.0
 42
1.0
  0
SEQEND
  5
910
  8
TOPLAYER
  0
POLYLINE
  5
21B
  8
TOPLAYER
 66
     1
 10
0.0
 20
0.0
 30
0.0
 40
6.3999999000000001
 41
6.3999999000000001
  0
VERTEX
  5
911
  8
TOPLAYER
 10
338.31600104
 20
396.00799893999999
 30
0.0
  0
VERTEX
  5
912
  8
TOPLAYER
 10
1724.316000179999
 20
396.00799893999999
 30
0.0
  0
SEQEND
  5
913
  8
TOPLAYER
  0
POLYLINE
  5
21F
  8
TOPLAYER
 66
     1
 10
0.0
 20
0.0
 30
0.0
 70
     1
 40
3.1999986799999989
 41
3.1999986799999989
  0
VERTEX
  5
914
  8
TOPLAYER
 10
336.71600169999988
 20
396.00799893999999
 30
0.0
 42
1.0
  0
VERTEX
  5
915
  8
TOPLAYER
 10
339.9160003799999
 20
396.00799893999999
 30
0.0
 42
1.0
  0
SEQEND
  5
916
  8
TOPLAYER
  0
POLYLINE
  5
223
  8
TOPLAYER
 66
     1
 10
0.0
 20
0.0
 30
0.0
 70
     1
 40
3.1999986799999989
 41
3.1999986799999989
  0
VERTEX
  5
917
  8
TOPLAYER
 10
1722.7160008400001
 20
396.00799893999999
 30
0.0
 42
1.0
  0
VERTEX
  5
918
  8
TOPLAYER
 10
1725.91599952
 20
396.00799893999999
 30
0.0
 42
1.0
  0
SEQEND
  5
919
  8
TOPLAYER
  0
POLYLINE
  5
227
  8
TOPLAYER
 66
     1
 10
0.0
 20
0.0
 30
0.0
 40
6.3999999000000001
 41
6.3999999000000001
  0
VERTEX
  5
91A
  8
TOPLAYER
 10
338.31600104
 20
406.00799925999991
 30
0.0
  0
VERTEX
  5
91B
  8
TOPLAYER
 10
1724.316000179999
 20
406.00799925999991
 30
0.0
  0
SEQEND
  5
91C
  8
TOPLAYER
  0
POLYLINE
  5
22B
  8
TOPLAYER
 66
     1
 10
0.0
 20
0.0
 30
0.0
 70
     1
 40
3.1999986799999989
 41
3.1999986799999989
  0
VERTEX
  5
91D
  8
TOPLAYER
 10
336.71600169999988
 20
406.00799925999991
 30
0.0
 42
1.0
  0
VERTEX
  5
91E
  8
TOPLAYER
 10
339.9160003799999
 20
406.00799925999991
 30
0.0
 42
1.0
  0
SEQEND
  5
91F
  8
TOPLAYER
  0
POLYLINE
  5
22F
  8
TOPLAYER
 66
     1
 10
0.0
 20
0.0
 30
0.0
 70
     1
 40
3.1999986799999989
 41
3.1999986799999989
  0
VERTEX
  5
920
  8
TOPLAYER
 10
1722.7160008400001
 20
406.00799925999991
 30
0.0
 42
1.0
  0
VERTEX
  5
921
  8
TOPLAYER
 10
1725.91599952
 20
406.00799925999991
 30
0.0
 42
1.0
  0
SEQEND
  5
922
  8
TOPLAYER
  0
POLYLINE
  5
233
  8
TOPLAYER
 66
     1
 10
0.0
 20
0.0
 30
0.0
 40
6.3999999000000001
 41
6.3999999000000001
  0
VERTEX
  5
923
  8
TOPLAYER
 10
338.31600104
 20
416.00799957999999
 30
0.0
  0
VERTEX
  5
924
  8
TOPLAYER
 10
1724.316000179999
 20
416.00799957999999
 30
0.0
  0
SEQEND
  5
925
  8
TOPLAYER
  0
POLYLINE
  5
237
  8
TOPLAYER
 66
     1
 10
0.0
 20
0.0
 30
0.0
 70
     1
 40
3.1999986799999989
 41
3.1999986799999989
  0
VERTEX
  5
926
  8
TOPLAYER
 10
336.71600169999988
 20
416.00799957999999
 30
0.0
 42
1.0
  0
VERTEX
  5
927
  8
TOPLAYER
 10
339.9160003799999
 20
416.00799957999999
 30
0.0
 42
1.0
  0
SEQEND
  5
928
  8
TOPLAYER
  0
POLYLINE
  5
23B
  8
TOPLAYER
 66
     1
 10
0.0
 20
0.0
 30
0.0
 70
     1
 40
3.1999986799999989
 41
3.1999986799999989
  0
VERTEX
  5
929
  8
TOPLAYER
 10
1722.7160008400001
 20
416.00799957999999
 30
0.0
 42
1.0
  0
VERTEX
  5
92A
  8
TOPLAYER
 10
1725.91599952
 20
416.00799957999999
 30
0.0
 42
1.0
  0
SEQEND
  5
92B
  8
TOPLAYER
  0
POLYLINE
  5
23F
  8
TOPLAYER
 66
     1
 10
0.0
 20
0.0
 30
0.0
 40
6.3999999000000001
 41
6.3999999000000001
  0
VERTEX
  5
92C
  8
TOPLAYER
 10
338.31600104
 20
426.0079998999999
 30
0.0
  0
VERTEX
  5
92D
  8
TOPLAYER
 10
1724.316000179999
 20
426.0079998999999
 30
0.0
  0
SEQEND
  5
92E
  8
TOPLAYER
  0
POLYLINE
  5
243
  8
TOPLAYER
 66
     1
 10
0.0
 20
0.0
 30
0.0
 70
     1
 40
3.1999986799999989
 41
3.1999986799999989
  0
VERTEX
  5
92F
  8
TOPLAYER
 10
336.71600169999988
 20
426.0079998999999
 30
0.0
 42
1.0
  0
VERTEX
  5
930
  8
TOPLAYER
 10
339.9160003799999
 20
426.0079998999999
 30
0.0
 42
1.0
  0
SEQEND
  5
931
  8
TOPLAYER
  0
POLYLINE
  5
247
  8
TOPLAYER
 66
     1
 10
0.0
 20
0.0
 30
0.0
 70
     1
 40
3.1999986799999989
 41
3.1999986799999989
  0
VERTEX
  5
932
  8
TOPLAYER
 10
1722.7160008400001
 20
426.0079998999999
 30
0.0
 42
1.0
  0
VERTEX
  5
933
  8
TOPLAYER
 10
1725.91599952
 20
426.0079998999999
 30
0.0
 42
1.0
  0
SEQEND
  5
934
  8
TOPLAYER
  0
POLYLINE
  5
24B
  8
TOPLAYER
 66
     1
 10
0.0
 20
0.0
 30
0.0
 40
6.3999999000000001
 41
6.3999999000000001
  0
VERTEX
  5
935
  8
TOPLAYER
 10
338.31600104
 20
436.00800021999999
 30
0.0
  0
VERTEX
  5
936
  8
TOPLAYER
 10
1724.316000179999
 20
436.00800021999999
 30
0.0
  0
SEQEND
  5
937
  8
TOPLAYER
  0
POLYLINE
  5
24F
  8
TOPLAYER
 66
     1
 10
0.0
 20
0.0
 30
0.0
 70
     1
 40
3.1999986799999989
 41
3.1999986799999989
  0
VERTEX
  5
938
  8
TOPLAYER
 10
336.71600169999988
 20
436.00800021999999
 30
0.0
 42
1.0
  0
VERTEX
  5
939
  8
TOPLAYER
 10
339.9160003799999
 20
436.00800021999999
 30
0.0
 42
1.0
  0
SEQEND
  5
93A
  8
TOPLAYER
  0
POLYLINE
  5
253
  8
TOPLAYER
 66
     1
 10
0.0
 20
0.0
 30
0.0
 70
     1
 40
3.1999986799999989
 41
3.1999986799999989
  0
VERTEX
  5
93B
  8
TOPLAYER
 10
1722.7160008400001
 20
436.00800021999999
 30
0.0
 42
1.0
  0
VERTEX
  5
93C
  8
TOPLAYER
 10
1725.91599952
 20
436.00800021999999
 30
0.0
 42
1.0
  0
SEQEND
  5
93D
  8
TOPLAYER
  0
POLYLINE
  5
257
  8
TOPLAYER
 66
     1
 10
0.0
 20
0.0
 30
0.0
 40
6.3999999000000001
 41
6.3999999000000001
  0
VERTEX
  5
93E
  8
TOPLAYER
 10
338.31600104
 20
446.00800054000001
 30
0.0
  0
VERTEX
  5
93F
  8
TOPLAYER
 10
1724.316000179999
 20
446.00800054000001
 30
0.0
  0
SEQEND
  5
940
  8
TOPLAYER
  0
POLYLINE
  5
25B
  8
TOPLAYER
 66
     1
 10
0.0
 20
0.0
 30
0.0
 70
     1
 40
3.1999986799999989
 41
3.1999986799999989
  0
VERTEX
  5
941
  8
TOPLAYER
 10
336.71600169999988
 20
446.00800054000001
 30
0.0
 42
1.0
  0
VERTEX
  5
942
  8
TOPLAYER
 10
339.9160003799999
 20
446.00800054000001
 30
0.0
 42
1.0
  0
SEQEND
  5
943
  8
TOPLAYER
  0
POLYLINE
  5
25F
  8
TOPLAYER
 66
     1
 10
0.0
 20
0.0
 30
0.0
 70
     1
 40
3.1999986799999989
 41
3.1999986799999989
  0
VERTEX
  5
944
  8
TOPLAYER
 10
1722.7160008400001
 20
446.00800054000001
 30
0.0
 42
1.0
  0
VERTEX
  5
945
  8
TOPLAYER
 10
1725.91599952
 20
446.00800054000001
 30
0.0
 42
1.0
  0
SEQEND
  5
946
  8
TOPLAYER
  0
POLYLINE
  5
263
  8
TOPLAYER
 66
     1
 10
0.0
 20
0.0
 30
0.0
 40
6.3999999000000001
 41
6.3999999000000001
  0
VERTEX
  5
947
  8
TOPLAYER
 10
338.31600104
 20
456.00800085999992
 30
0.0
  0
VERTEX
  5
948
  8
TOPLAYER
 10
1724.316000179999
 20
456.00800085999992
 30
0.0
  0
SEQEND
  5
949
  8
TOPLAYER
  0
POLYLINE
  5
267
  8
TOPLAYER
 66
     1
 10
0.0
 20
0.0
 30
0.0
 70
     1
 40
3.1999986799999989
 41
3.1999986799999989
  0
VERTEX
  5
94A
  8
TOPLAYER
 10
336.71600169999988
 20
456.00800085999992
 30
0.0
 42
1.0
  0
VERTEX
  5
94B
  8
TOPLAYER
 10
339.9160003799999
 20
456.00800085999992
 30
0.0
 42
1.0
  0
SEQEND
  5
94C
  8
TOPLAYER
  0
POLYLINE
  5
26B
  8
TOPLAYER
 66
     1
 10
0.0
 20
0.0
 30
0.0
 70
     1
 40
3.1999986799999989
 41
3.1999986799999989
  0
VERTEX
  5
94D
  8
TOPLAYER
 10
1722.7160008400001
 20
456.00800085999992
 30
0.0
 42
1.0
  0
VERTEX
  5
94E
  8
TOPLAYER
 10
1725.91599952
 20
456.00800085999992
 30
0.0
 42
1.0
  0
SEQEND
  5
94F
  8
TOPLAYER
  0
POLYLINE
  5
26F
  8
TOPLAYER
 66
     1
 10
0.0
 20
0.0
 30
0.0
 40
6.3999999000000001
 41
6.3999999000000001
  0
VERTEX
  5
950
  8
TOPLAYER
 10
338.31600104
 20
466.00800117999989
 30
0.0
  0
VERTEX
  5
951
  8
TOPLAYER
 10
1720.8159995599999
 20
466.00800117999989
 30
0.0
  0
SEQEND
  5
952
  8
TOPLAYER
  0
POLYLINE
  5
273
  8
TOPLAYER
 66
     1
 10
0.0
 20
0.0
 30
0.0
 70
     1
 40
3.1999986799999989
 41
3.1999986799999989
  0
VERTEX
  5
953
  8
TOPLAYER
 10
336.71600169999988
 20
466.00800117999989
 30
0.0
 42
1.0
  0
VERTEX
  5
954
  8
TOPLAYER
 10
339.9160003799999
 20
466.00800117999989
 30
0.0
 42
1.0
  0
SEQEND
  5
955
  8
TOPLAYER
  0
POLYLINE
  5
277
  8
TOPLAYER
 66
     1
 10
0.0
 20
0.0
 30
0.0
 70
     1
 40
3.1999986799999989
 41
3.1999986799999989
  0
VERTEX
  5
956
  8
TOPLAYER
 10
1719.2160002199989
 20
466.00800117999989
 30
0.0
 42
1.0
  0
VERTEX
  5
957
  8
TOPLAYER
 10
1722.4159989
 20
466.00800117999989
 30
0.0
 42
1.0
  0
SEQEND
  5
958
  8
TOPLAYER
  0
POLYLINE
  5
27B
  8
TOPLAYER
 66
     1
 10
0.0
 20
0.0
 30
0.0
 40
6.3999999000000001
 41
6.3999999000000001
  0
VERTEX
  5
959
  8
TOPLAYER
 10
338.31600104
 20
483.00800019999991
 30
0.0
  0
VERTEX
  5
95A
  8
TOPLAYER
 10
1720.8159995599999
 20
483.00800019999991
 30
0.0
  0
SEQEND
  5
95B
  8
TOPLAYER
  0
POLYLINE
  5
27F
  8
TOPLAYER
 66
     1
 10
0.0
 20
0.0
 30
0.0
 70
     1
 40
3.1999986799999989
 41
3.1999986799999989
  0
VERTEX
  5
95C
  8
TOPLAYER
 10
336.71600169999988
 20
483.00800019999991
 30
0.0
 42
1.0
  0
VERTEX
  5
95D
  8
TOPLAYER
 10
339.9160003799999
 20
483.00800019999991
 30
0.0
 42
1.0
  0
SEQEND
  5
95E
  8
TOPLAYER
  0
POLYLINE
  5
283
  8
TOPLAYER
 66
     1
 10
0.0
 20
0.0
 30
0.0
 70
     1
 40
3.1999986799999989
 41
3.1999986799999989
  0
VERTEX
  5
95F
  8
TOPLAYER
 10
1719.2160002199989
 20
483.00800019999991
 30
0.0
 42
1.0
  0
VERTEX
  5
960
  8
TOPLAYER
 10
1722.4159989
 20
483.00800019999991
 30
0.0
 42
1.0
  0
SEQEND
  5
961
  8
TOPLAYER
  0
POLYLINE
  5
287
  8
TOPLAYER
 66
     1
 10
0.0
 20
0.0
 30
0.0
 40
6.3999999000000001
 41
6.3999999000000001
  0
VERTEX
  5
962
  8
TOPLAYER
 10
338.31600104
 20
493.00800051999988
 30
0.0
  0
VERTEX
  5
963
  8
TOPLAYER
 10
1724.316000179999
 20
493.00800051999988
 30
0.0
  0
SEQEND
  5
964
  8
TOPLAYER
  0
POLYLINE
  5
28B
  8
TOPLAYER
 66
     1
 10
0.0
 20
0.0
 30
0.0
 70
     1
 40
3.1999986799999989
 41
3.1999986799999989
  0
VERTEX
  5
965
  8
TOPLAYER
 10
336.71600169999988
 20
493.00800051999988
 30
0.0
 42
1.0
  0
VERTEX
  5
966
  8
TOPLAYER
 10
339.9160003799999
 20
493.00800051999988
 30
0.0
 42
1.0
  0
SEQEND
  5
967
  8
TOPLAYER
  0
POLYLINE
  5
28F
  8
TOPLAYER
 66
     1
 10
0.0
 20
0.0
 30
0.0
 70
     1
 40
3.1999986799999989
 41
3.1999986799999989
  0
VERTEX
  5
968
  8
TOPLAYER
 10
1722.7160008400001
 20
493.00800051999988
 30
0.0
 42
1.0
  0
VERTEX
  5
969
  8
TOPLAYER
 10
1725.91599952
 20
493.00800051999988
 30
0.0
 42
1.0
  0
SEQEND
  5
96A
  8
TOPLAYER
  0
POLYLINE
  5
293
  8
TOPLAYER
 66
     1
 10
0.0
 20
0.0
 30
0.0
 40
6.3999999000000001
 41
6.3999999000000001
  0
VERTEX
  5
96B
  8
TOPLAYER
 10
338.31600104
 20
503.00800083999991
 30
0.0
  0
VERTEX
  5
96C
  8
TOPLAYER
 10
1724.316000179999
 20
503.00800083999991
 30
0.0
  0
SEQEND
  5
96D
  8
TOPLAYER
  0
POLYLINE
  5
297
  8
TOPLAYER
 66
     1
 10
0.0
 20
0.0
 30
0.0
 70
     1
 40
3.1999986799999989
 41
3.1999986799999989
  0
VERTEX
  5
96E
  8
TOPLAYER
 10
336.71600169999988
 20
503.00800083999991
 30
0.0
 42
1.0
  0
VERTEX
  5
96F
  8
TOPLAYER
 10
339.9160003799999
 20
503.00800083999991
 30
0.0
 42
1.0
  0
SEQEND
  5
970
  8
TOPLAYER
  0
POLYLINE
  5
29B
  8
TOPLAYER
 66
     1
 10
0.0
 20
0.0
 30
0.0
 70
     1
 40
3.1999986799999989
 41
3.1999986799999989
  0
VERTEX
  5
971
  8
TOPLAYER
 10
1722.7160008400001
 20
503.00800083999991
 30
0.0
 42
1.0
  0
VERTEX
  5
972
  8
TOPLAYER
 10
1725.91599952
 20
503.00800083999991
 30
0.0
 42
1.0
  0
SEQEND
  5
973
  8
TOPLAYER
  0
POLYLINE
  5
29F
  8
TOPLAYER
 66
     1
 10
0.0
 20
0.0
 30
0.0
 40
6.3999999000000001
 41
6.3999999000000001
  0
VERTEX
  5
974
  8
TOPLAYER
 10
338.31600104
 20
513.00800115999994
 30
0.0
  0
VERTEX
  5
975
  8
TOPLAYER
 10
1724.316000179999
 20
513.00800115999994
 30
0.0
  0
SEQEND
  5
976
  8
TOPLAYER
  0
POLYLINE
  5
2A3
  8
TOPLAYER
 66
     1
 10
0.0
 20
0.0
 30
0.0
 70
     1
 40
3.1999986799999989
 41
3.1999986799999989
  0
VERTEX
  5
977
  8
TOPLAYER
 10
336.71600169999988
 20
513.00800115999994
 30
0.0
 42
1.0
  0
VERTEX
  5
978
  8
TOPLAYER
 10
339.9160003799999
 20
513.00800115999994
 30
0.0
 42
1.0
  0
SEQEND
  5
979
  8
TOPLAYER
  0
POLYLINE
  5
2A7
  8
TOPLAYER
 66
     1
 10
0.0
 20
0.0
 30
0.0
 70
     1
 40
3.1999986799999989
 41
3.1999986799999989
  0
VERTEX
  5
97A
  8
TOPLAYER
 10
1722.7160008400001
 20
513.00800115999994
 30
0.0
 42
1.0
  0
VERTEX
  5
97B
  8
TOPLAYER
 10
1725.91599952
 20
513.00800115999994
 30
0.0
 42
1.0
  0
SEQEND
  5
97C
  8
TOPLAYER
  0
POLYLINE
  5
2AB
  8
TOPLAYER
 66
     1
 10
0.0
 20
0.0
 30
0.0
 40
6.3999999000000001
 41
6.3999999000000001
  0
VERTEX
  5
97D
  8
TOPLAYER
 10
338.31600104
 20
533.00799925999991
 30
0.0
  0
VERTEX
  5
97E
  8
TOPLAYER
 10
1724.316000179999
 20
533.00799925999991
 30
0.0
  0
SEQEND
  5
97F
  8
TOPLAYER
  0
POLYLINE
  5
2AF
  8
TOPLAYER
 66
     1
 10
0.0
 20
0.0
 30
0.0
 70
     1
 40
3.1999986799999989
 41
3.1999986799999989
  0
VERTEX
  5
980
  8
TOPLAYER
 10
336.71600169999988
 20
533.00799925999991
 30
0.0
 42
1.0
  0
VERTEX
  5
981
  8
TOPLAYER
 10
339.9160003799999
 20
533.00799925999991
 30
0.0
 42
1.0
  0
SEQEND
  5
982
  8
TOPLAYER
  0
POLYLINE
  5
2B3
  8
TOPLAYER
 66
     1
 10
0.0
 20
0.0
 30
0.0
 70
     1
 40
3.1999986799999989
 41
3.1999986799999989
  0
VERTEX
  5
983
  8
TOPLAYER
 10
1722.7160008400001
 20
533.00799925999991
 30
0.0
 42
1.0
  0
VERTEX
  5
984
  8
TOPLAYER
 10
1725.91599952
 20
533.00799925999991
 30
0.0
 42
1.0
  0
SEQEND
  5
985
  8
TOPLAYER
  0
POLYLINE
  5
2B7
  8
TOPLAYER
 66
     1
 10
0.0
 20
0.0
 30
0.0
 40
6.3999999000000001
 41
6.3999999000000001
  0
VERTEX
  5
986
  8
TOPLAYER
 10
338.31600104
 20
543.00799957999993
 30
0.0
  0
VERTEX
  5
987
  8
TOPLAYER
 10
1724.316000179999
 20
543.00799957999993
 30
0.0
  0
SEQEND
  5
988
  8
TOPLAYER
  0
POLYLINE
  5
2BB
  8
TOPLAYER
 66
     1
 10
0.0
 20
0.0
 30
0.0
 70
     1
 40
3.1999986799999989
 41
3.1999986799999989
  0
VERTEX
  5
989
  8
TOPLAYER
 10
336.71600169999988
 20
543.00799957999993
 30
0.0
 42
1.0
  0
VERTEX
  5
98A
  8
TOPLAYER
 10
339.9160003799999
 20
543.00799957999993
 30
0.0
 42
1.0
  0
SEQEND
  5
98B
  8
TOPLAYER
  0
POLYLINE
  5
2BF
  8
TOPLAYER
 66
     1
 10
0.0
 20
0.0
 30
0.0
 70
     1
 40
3.1999986799999989
 41
3.1999986799999989
  0
VERTEX
  5
98C
  8
TOPLAYER
 10
1722.7160008400001
 20
543.00799957999993
 30
0.0
 42
1.0
  0
VERTEX
  5
98D
  8
TOPLAYER
 10
1725.91599952
 20
543.00799957999993
 30
0.0
 42
1.0
  0
SEQEND
  5
98E
  8
TOPLAYER
  0
POLYLINE
  5
2C3
  8
TOPLAYER
 66
     1
 10
0.0
 20
0.0
 30
0.0
 40
6.3999999000000001
 41
6.3999999000000001
  0
VERTEX
  5
98F
  8
TOPLAYER
 10
338.31600104
 20
553.00799989999985
 30
0.0
  0
VERTEX
  5
990
  8
TOPLAYER
 10
1724.316000179999
 20
553.00799989999985
 30
0.0
  0
SEQEND
  5
991
  8
TOPLAYER
  0
POLYLINE
  5
2C7
  8
TOPLAYER
 66
     1
 10
0.0
 20
0.0
 30
0.0
 70
     1
 40
3.1999986799999989
 41
3.1999986799999989
  0
VERTEX
  5
992
  8
TOPLAYER
 10
336.71600169999988
 20
553.00799989999985
 30
0.0
 42
1.0
  0
VERTEX
  5
993
  8
TOPLAYER
 10
339.9160003799999
 20
553.00799989999985
 30
0.0
 42
1.0
  0
SEQEND
  5
994
  8
TOPLAYER
  0
POLYLINE
  5
2CB
  8
TOPLAYER
 66
     1
 10
0.0
 20
0.0
 30
0.0
 70
     1
 40
3.1999986799999989
 41
3.1999986799999989
  0
VERTEX
  5
995
  8
TOPLAYER
 10
1722.7160008400001
 20
553.00799989999985
 30
0.0
 42
1.0
  0
VERTEX
  5
996
  8
TOPLAYER
 10
1725.91599952
 20
553.00799989999985
 30
0.0
 42
1.0
  0
SEQEND
  5
997
  8
TOPLAYER
  0
POLYLINE
  5
2CF
  8
TOPLAYER
 66
     1
 10
0.0
 20
0.0
 30
0.0
 40
6.3999999000000001
 41
6.3999999000000001
  0
VERTEX
  5
998
  8
TOPLAYER
 10
328.31600071999992
 20
583.00800085999992
 30
0.0
  0
VERTEX
  5
999
  8
TOPLAYER
 10
1724.316000179999
 20
583.00800085999992
 30
0.0
  0
SEQEND
  5
99A
  8
TOPLAYER
  0
POLYLINE
  5
2D3
  8
TOPLAYER
 66
     1
 10
0.0
 20
0.0
 30
0.0
 70
     1
 40
3.1999986799999989
 41
3.1999986799999989
  0
VERTEX
  5
99B
  8
TOPLAYER
 10
326.71600137999991
 20
583.00800085999992
 30
0.0
 42
1.0
  0
VERTEX
  5
99C
  8
TOPLAYER
 10
329.91600005999999
 20
583.00800085999992
 30
0.0
 42
1.0
  0
SEQEND
  5
99D
  8
TOPLAYER
  0
POLYLINE
  5
2D7
  8
TOPLAYER
 66
     1
 10
0.0
 20
0.0
 30
0.0
 70
     1
 40
3.1999986799999989
 41
3.1999986799999989
  0
VERTEX
  5
99E
  8
TOPLAYER
 10
1722.7160008400001
 20
583.00800085999992
 30
0.0
 42
1.0
  0
VERTEX
  5
99F
  8
TOPLAYER
 10
1725.91599952
 20
583.00800085999992
 30
0.0
 42
1.0
  0
SEQEND
  5
9A0
  8
TOPLAYER
  0
POLYLINE
  5
2DB
  8
TOPLAYER
 66
     1
 10
0.0
 20
0.0
 30
0.0
 40
6.3999999000000001
 41
6.3999999000000001
  0
VERTEX
  5
9A1
  8
TOPLAYER
 10
338.31600104
 20
563.00800021999987
 30
0.0
  0
VERTEX
  5
9A2
  8
TOPLAYER
 10
1724.316000179999
 20
563.00800021999987
 30
0.0
  0
SEQEND
  5
9A3
  8
TOPLAYER
  0
POLYLINE
  5
2DF
  8
TOPLAYER
 66
     1
 10
0.0
 20
0.0
 30
0.0
 70
     1
 40
3.1999986799999989
 41
3.1999986799999989
  0
VERTEX
  5
9A4
  8
TOPLAYER
 10
336.71600169999988
 20
563.00800021999987
 30
0.0
 42
1.0
  0
VERTEX
  5
9A5
  8
TOPLAYER
 10
339.9160003799999
 20
563.00800021999987
 30
0.0
 42
1.0
  0
SEQEND
  5
9A6
  8
TOPLAYER
  0
POLYLINE
  5
2E3
  8
TOPLAYER
 66
     1
 10
0.0
 20
0.0
 30
0.0
 70
     1
 40
3.1999986799999989
 41
3.1999986799999989
  0
VERTEX
  5
9A7
  8
TOPLAYER
 10
1722.7160008400001
 20
563.00800021999987
 30
0.0
 42
1.0
  0
VERTEX
  5
9A8
  8
TOPLAYER
 10
1725.91599952
 20
563.00800021999987
 30
0.0
 42
1.0
  0
SEQEND
  5
9A9
  8
TOPLAYER
  0
POLYLINE
  5
2E7
  8
TOPLAYER
 66
     1
 10
0.0
 20
0.0
 30
0.0
 40
6.3999999000000001
 41
6.3999999000000001
  0
VERTEX
  5
9AA
  8
TOPLAYER
 10
323.31600055999991
 20
515.75800073999994
 30
0.0
  0
VERTEX
  5
9AB
  8
TOPLAYER
 10
323.31600055999991
 20
578.00800069999991
 30
0.0
  0
SEQEND
  5
9AC
  8
TOPLAYER
  0
POLYLINE
  5
2EB
  8
TOPLAYER
 66
     1
 10
0.0
 20
0.0
 30
0.0
 70
     1
 40
3.1999986799999989
 41
3.1999986799999989
  0
VERTEX
  5
9AD
  8
TOPLAYER
 10
321.71600122000001
 20
515.75800073999994
 30
0.0
 42
1.0
  0
VERTEX
  5
9AE
  8
TOPLAYER
 10
324.91599989999992
 20
515.75800073999994
 30
0.0
 42
1.0
  0
SEQEND
  5
9AF
  8
TOPLAYER
  0
POLYLINE
  5
2EF
  8
TOPLAYER
 66
     1
 10
0.0
 20
0.0
 30
0.0
 70
     1
 40
3.1999986799999989
 41
3.1999986799999989
  0
VERTEX
  5
9B0
  8
TOPLAYER
 10
321.71600122000001
 20
578.00800069999991
 30
0.0
 42
1.0
  0
VERTEX
  5
9B1
  8
TOPLAYER
 10
324.91599989999992
 20
578.00800069999991
 30
0.0
 42
1.0
  0
SEQEND
  5
9B2
  8
TOPLAYER
  0
POLYLINE
  5
2F3
  8
TOPLAYER
 66
     1
 10
0.0
 20
0.0
 30
0.0
 40
6.3999999000000001
 41
6.3999999000000001
  0
VERTEX
  5
9B3
  8
TOPLAYER
 10
338.31600104
 20
573.00800054000001
 30
0.0
  0
VERTEX
  5
9B4
  8
TOPLAYER
 10
1724.316000179999
 20
573.00800054000001
 30
0.0
  0
SEQEND
  5
9B5
  8
TOPLAYER
  0
POLYLINE
  5
2F7
  8
TOPLAYER
 66
     1
 10
0.0
 20
0.0
 30
0.0
 70
     1
 40
3.1999986799999989
 41
3.1999986799999989
  0
VERTEX
  5
9B6
  8
TOPLAYER
 10
336.71600169999988
 20
573.00800054000001
 30
0.0
 42
1.0
  0
VERTEX
  5
9B7
  8
TOPLAYER
 10
339.9160003799999
 20
573.00800054000001
 30
0.0
 42
1.0
  0
SEQEND
  5
9B8
  8
TOPLAYER
  0
POLYLINE
  5
2FB
  8
TOPLAYER
 66
     1
 10
0.0
 20
0.0
 30
0.0
 70
     1
 40
3.1999986799999989
 41
3.1999986799999989
  0
VERTEX
  5
9B9
  8
TOPLAYER
 10
1722.7160008400001
 20
573.00800054000001
 30
0.0
 42
1.0
  0
VERTEX
  5
9BA
  8
TOPLAYER
 10
1725.91599952
 20
573.00800054000001
 30
0.0
 42
1.0
  0
SEQEND
  5
9BB
  8
TOPLAYER
  0
POLYLINE
  5
2FF
  8
TOPLAYER
 66
     1
 10
0.0
 20
0.0
 30
0.0
 40
15.00000047999999
 41
15.00000047999999
  0
VERTEX
  5
9BC
  8
TOPLAYER
 10
277.81600012000001
 20
515.50800124
 30
0.0
  0
VERTEX
  5
9BD
  8
TOPLAYER
 10
319.0659988999999
 20
515.50800124
 30
0.0
  0
SEQEND
  5
9BE
  8
TOPLAYER
  0
POLYLINE
  5
303
  8
TOPLAYER
 66
     1
 10
0.0
 20
0.0
 30
0.0
 70
     1
 40
7.5000002399999994
 41
7.5000002399999994
  0
VERTEX
  5
9BF
  8
TOPLAYER
 10
274.06599999999992
 20
515.50800124
 30
0.0
 42
1.0
  0
VERTEX
  5
9C0
  8
TOPLAYER
 10
281.56600023999988
 20
515.50800124
 30
0.0
 42
1.0
  0
SEQEND
  5
9C1
  8
TOPLAYER
  0
POLYLINE
  5
307
  8
TOPLAYER
 66
     1
 10
0.0
 20
0.0
 30
0.0
 70
     1
 40
7.5000002399999994
 41
7.5000002399999994
  0
VERTEX
  5
9C2
  8
TOPLAYER
 10
315.31599877999992
 20
515.50800124
 30
0.0
 42
1.0
  0
VERTEX
  5
9C3
  8
TOPLAYER
 10
322.81599901999988
 20
515.50800124
 30
0.0
 42
1.0
  0
SEQEND
  5
9C4
  8
TOPLAYER
  0
POLYLINE
  5
30B
  8
TOPLAYER
 66
     1
 10
0.0
 20
0.0
 30
0.0
 40
15.00000047999999
 41
15.00000047999999
  0
VERTEX
  5
9C5
  8
TOPLAYER
 10
277.81600012000001
 20
295.50799927999992
 30
0.0
  0
VERTEX
  5
9C6
  8
TOPLAYER
 10
319.0659988999999
 20
295.50799927999992
 30
0.0
  0
SEQEND
  5
9C7
  8
TOPLAYER
  0
POLYLINE
  5
30F
  8
TOPLAYER
 66
     1
 10
0.0
 20
0.0
 30
0.0
 70
     1
 40
7.5000002399999994
 41
7.5000002399999994
  0
VERTEX
  5
9C8
  8
TOPLAYER
 10
274.06599999999992
 20
295.50799927999992
 30
0.0
 42
1.0
  0
VERTEX
  5
9C9
  8
TOPLAYER
 10
281.56600023999988
 20
295.50799927999992
 30
0.0
 42
1.0
  0
SEQEND
  5
9CA
  8
TOPLAYER
  0
POLYLINE
  5
313
  8
TOPLAYER
 66
     1
 10
0.0
 20
0.0
 30
0.0
 70
     1
 40
7.5000002399999994
 41
7.5000002399999994
  0
VERTEX
  5
9CB
  8
TOPLAYER
 10
315.31599877999992
 20
295.50799927999992
 30
0.0
 42
1.0
  0
VERTEX
  5
9CC
  8
TOPLAYER
 10
322.81599901999988
 20
295.50799927999992
 30
0.0
 42
1.0
  0
SEQEND
  5
9CD
  8
TOPLAYER
  0
POLYLINE
  5
317
  8
TOPLAYER
 66
     1
 10
0.0
 20
0.0
 30
0.0
 40
2.9999990799999989
 41
2.9999990799999989
  0
VERTEX
  5
9CE
  8
TOPLAYER
 10
323.31600055999991
 20
476.75799999999992
 30
0.0
  0
VERTEX
  5
9CF
  8
TOPLAYER
 10
1267.5659992799999
 20
476.75799999999992
 30
0.0
  0
SEQEND
  5
9D0
  8
TOPLAYER
  0
POLYLINE
  5
31B
  8
TOPLAYER
 66
     1
 10
0.0
 20
0.0
 30
0.0
 70
     1
 40
1.499999539999999
 41
1.499999539999999
  0
VERTEX
  5
9D1
  8
TOPLAYER
 10
322.5660020599999
 20
476.75799999999992
 30
0.0
 42
1.0
  0
VERTEX
  5
9D2
  8
TOPLAYER
 10
324.06599905999991
 20
476.75799999999992
 30
0.0
 42
1.0
  0
SEQEND
  5
9D3
  8
TOPLAYER
  0
POLYLINE
  5
31F
  8
TOPLAYER
 66
     1
 10
0.0
 20
0.0
 30
0.0
 70
     1
 40
1.499999539999999
 41
1.499999539999999
  0
VERTEX
  5
9D4
  8
TOPLAYER
 10
1266.81600078
 20
476.75799999999992
 30
0.0
 42
1.0
  0
VERTEX
  5
9D5
  8
TOPLAYER
 10
1268.3159977800001
 20
476.75799999999992
 30
0.0
 42
1.0
  0
SEQEND
  5
9D6
  8
TOPLAYER
  0
POLYLINE
  5
323
  8
MECHANICAL1
 66
     1
 10
0.0
 20
0.0
 30
0.0
 40
0.0999998
 41
0.0999998
  0
VERTEX
  5
9D7
  8
MECHANICAL1
 10
265.31599971999992
 20
400.00800109999989
 30
0.0
  0
VERTEX
  5
9D8
  8
MECHANICAL1
 10
265.31599971999992
 20
425.00799935999993
 30
0.0
  0
SEQEND
  5
9D9
  8
MECHANICAL1
  0
POLYLINE
  5
327
  8
MECHANICAL1
 66
     1
 10
0.0
 20
0.0
 30
0.0
 70
     1
 40
0.0499999
 41
0.0499999
  0
VERTEX
  5
9DA
  8
MECHANICAL1
 10
265.29100103999991
 20
400.00800109999989
 30
0.0
 42
1.0
  0
VERTEX
  5
9DB
  8
MECHANICAL1
 10
265.34099839999999
 20
400.00800109999989
 30
0.0
 42
1.0
  0
SEQEND
  5
9DC
  8
MECHANICAL1
  0
POLYLINE
  5
32B
  8
MECHANICAL1
 66
     1
 10
0.0
 20
0.0
 30
0.0
 70
     1
 40
0.0499999
 41
0.0499999
  0
VERTEX
  5
9DD
  8
MECHANICAL1
 10
265.29100103999991
 20
425.00799935999993
 30
0.0
 42
1.0
  0
VERTEX
  5
9DE
  8
MECHANICAL1
 10
265.34099839999999
 20
425.00799935999993
 30
0.0
 42
1.0
  0
SEQEND
  5
9DF
  8
MECHANICAL1
  0
POLYLINE
  5
32F
  8
MECHANICAL1
 66
     1
 10
0.0
 20
0.0
 30
0.0
 40
0.0999998
 41
0.0999998
  0
VERTEX
  5
9E0
  8
MECHANICAL1
 10
265.31599971999992
 20
528.00799910000001
 30
0.0
  0
VERTEX
  5
9E1
  8
MECHANICAL1
 10
300.3160008399999
 20
528.00799910000001
 30
0.0
  0
SEQEND
  5
9E2
  8
MECHANICAL1
  0
POLYLINE
  5
333
  8
MECHANICAL1
 66
     1
 10
0.0
 20
0.0
 30
0.0
 70
     1
 40
0.0499999
 41
0.0499999
  0
VERTEX
  5
9E3
  8
MECHANICAL1
 10
265.29100103999991
 20
528.00799910000001
 30
0.0
 42
1.0
  0
VERTEX
  5
9E4
  8
MECHANICAL1
 10
265.34099839999999
 20
528.00799910000001
 30
0.0
 42
1.0
  0
SEQEND
  5
9E5
  8
MECHANICAL1
  0
POLYLINE
  5
337
  8
MECHANICAL1
 66
     1
 10
0.0
 20
0.0
 30
0.0
 70
     1
 40
0.0499999
 41
0.0499999
  0
VERTEX
  5
9E6
  8
MECHANICAL1
 10
300.29100215999989
 20
528.00799910000001
 30
0.0
 42
1.0
  0
VERTEX
  5
9E7
  8
MECHANICAL1
 10
300.34099951999991
 20
528.00799910000001
 30
0.0
 42
1.0
  0
SEQEND
  5
9E8
  8
MECHANICAL1
  0
POLYLINE
  5
33B
  8
MECHANICAL1
 66
     1
 10
0.0
 20
0.0
 30
0.0
 40
0.0999998
 41
0.0999998
  0
VERTEX
  5
9E9
  8
MECHANICAL1
 10
315.31599877999992
 20
191.0079999999999
 30
0.0
  0
VERTEX
  5
9EA
  8
MECHANICAL1
 10
315.31599877999992
 20
268.00800093999999
 30
0.0
  0
SEQEND
  5
9EB
  8
MECHANICAL1
  0
POLYLINE
  5
33F
  8
MECHANICAL1
 66
     1
 10
0.0
 20
0.0
 30
0.0
 70
     1
 40
0.0499999
 41
0.0499999
  0
VERTEX
  5
9EC
  8
MECHANICAL1
 10
315.29100009999991
 20
191.0079999999999
 30
0.0
 42
1.0
  0
VERTEX
  5
9ED
  8
MECHANICAL1
 10
315.34099745999993
 20
191.0079999999999
 30
0.0
 42
1.0
  0
SEQEND
  5
9EE
  8
MECHANICAL1
  0
POLYLINE
  5
343
  8
MECHANICAL1
 66
     1
 10
0.0
 20
0.0
 30
0.0
 70
     1
 40
0.0499999
 41
0.0499999
  0
VERTEX
  5
9EF
  8
MECHANICAL1
 10
315.29100009999991
 20
268.00800093999999
 30
0.0
 42
1.0
  0
VERTEX
  5
9F0
  8
MECHANICAL1
 10
315.34099745999993
 20
268.00800093999999
 30
0.0
 42
1.0
  0
SEQEND
  5
9F1
  8
MECHANICAL1
  0
POLYLINE
  5
347
  8
MECHANICAL1
 66
     1
 10
0.0
 20
0.0
 30
0.0
 40
0.0999998
 41
0.0999998
  0
VERTEX
  5
9F2
  8
MECHANICAL1
 10
315.31599877999992
 20
323.00800015999999
 30
0.0
  0
VERTEX
  5
9F3
  8
MECHANICAL1
 10
315.31599877999992
 20
385.0080006199999
 30
0.0
  0
SEQEND
  5
9F4
  8
MECHANICAL1
  0
POLYLINE
  5
34B
  8
MECHANICAL1
 66
     1
 10
0.0
 20
0.0
 30
0.0
 70
     1
 40
0.0499999
 41
0.0499999
  0
VERTEX
  5
9F5
  8
MECHANICAL1
 10
315.29100009999991
 20
323.00800015999999
 30
0.0
 42
1.0
  0
VERTEX
  5
9F6
  8
MECHANICAL1
 10
315.34099745999993
 20
323.00800015999999
 30
0.0
 42
1.0
  0
SEQEND
  5
9F7
  8
MECHANICAL1
  0
POLYLINE
  5
34F
  8
MECHANICAL1
 66
     1
 10
0.0
 20
0.0
 30
0.0
 70
     1
 40
0.0499999
 41
0.0499999
  0
VERTEX
  5
9F8
  8
MECHANICAL1
 10
315.29100009999991
 20
385.0080006199999
 30
0.0
 42
1.0
  0
VERTEX
  5
9F9
  8
MECHANICAL1
 10
315.34099745999993
 20
385.0080006199999
 30
0.0
 42
1.0
  0
SEQEND
  5
9FA
  8
MECHANICAL1
  0
POLYLINE
  5
353
  8
MECHANICAL1
 66
     1
 10
0.0
 20
0.0
 30
0.0
 40
0.0999998
 41
0.0999998
  0
VERTEX
  5
9FB
  8
MECHANICAL1
 10
315.31599877999992
 20
440.00799983999991
 30
0.0
  0
VERTEX
  5
9FC
  8
MECHANICAL1
 10
315.31599877999992
 20
488.00800035999993
 30
0.0
  0
SEQEND
  5
9FD
  8
MECHANICAL1
  0
POLYLINE
  5
357
  8
MECHANICAL1
 66
     1
 10
0.0
 20
0.0
 30
0.0
 70
     1
 40
0.0499999
 41
0.0499999
  0
VERTEX
  5
9FE
  8
MECHANICAL1
 10
315.29100009999991
 20
440.00799983999991
 30
0.0
 42
1.0
  0
VERTEX
  5
9FF
  8
MECHANICAL1
 10
315.34099745999993
 20
440.00799983999991
 30
0.0
 42
1.0
  0
SEQEND
  5
A00
  8
MECHANICAL1
  0
POLYLINE
  5
35B
  8
MECHANICAL1
 66
     1
 10
0.0
 20
0.0
 30
0.0
 70
     1
 40
0.0499999
 41
0.0499999
  0
VERTEX
  5
A01
  8
MECHANICAL1
 10
315.29100009999991
 20
488.00800035999993
 30
0.0
 42
1.0
  0
VERTEX
  5
A02
  8
MECHANICAL1
 10
315.34099745999993
 20
488.00800035999993
 30
0.0
 42
1.0
  0
SEQEND
  5
A03
  8
MECHANICAL1
  0
POLYLINE
  5
35F
  8
MECHANICAL1
 66
     1
 10
0.0
 20
0.0
 30
0.0
 40
0.0999998
 41
0.0999998
  0
VERTEX
  5
A04
  8
MECHANICAL1
 10
315.31599877999992
 20
543.00799957999993
 30
0.0
  0
VERTEX
  5
A05
  8
MECHANICAL1
 10
315.31599877999992
 20
591.00800009999989
 30
0.0
  0
SEQEND
  5
A06
  8
MECHANICAL1
  0
POLYLINE
  5
363
  8
MECHANICAL1
 66
     1
 10
0.0
 20
0.0
 30
0.0
 70
     1
 40
0.0499999
 41
0.0499999
  0
VERTEX
  5
A07
  8
MECHANICAL1
 10
315.29100009999991
 20
543.00799957999993
 30
0.0
 42
1.0
  0
VERTEX
  5
A08
  8
MECHANICAL1
 10
315.34099745999993
 20
543.00799957999993
 30
0.0
 42
1.0
  0
SEQEND
  5
A09
  8
MECHANICAL1
  0
POLYLINE
  5
367
  8
MECHANICAL1
 66
     1
 10
0.0
 20
0.0
 30
0.0
 70
     1
 40
0.0499999
 41
0.0499999
  0
VERTEX
  5
A0A
  8
MECHANICAL1
 10
315.29100009999991
 20
591.00800009999989
 30
0.0
 42
1.0
  0
VERTEX
  5
A0B
  8
MECHANICAL1
 10
315.34099745999993
 20
591.00800009999989
 30
0.0
 42
1.0
  0
SEQEND
  5
A0C
  8
MECHANICAL1
  0
POLYLINE
  5
36B
  8
MECHANICAL1
 66
     1
 10
0.0
 20
0.0
 30
0.0
 40
0.0999998
 41
0.0999998
  0
VERTEX
  5
A0D
  8
MECHANICAL1
 10
265.31599971999992
 20
503.00800083999991
 30
0.0
  0
VERTEX
  5
A0E
  8
MECHANICAL1
 10
300.3160008399999
 20
503.00800083999991
 30
0.0
  0
SEQEND
  5
A0F
  8
MECHANICAL1
  0
POLYLINE
  5
36F
  8
MECHANICAL1
 66
     1
 10
0.0
 20
0.0
 30
0.0
 70
     1
 40
0.0499999
 41
0.0499999
  0
VERTEX
  5
A10
  8
MECHANICAL1
 10
265.29100103999991
 20
503.00800083999991
 30
0.0
 42
1.0
  0
VERTEX
  5
A11
  8
MECHANICAL1
 10
265.34099839999999
 20
503.00800083999991
 30
0.0
 42
1.0
  0
SEQEND
  5
A12
  8
MECHANICAL1
  0
POLYLINE
  5
373
  8
MECHANICAL1
 66
     1
 10
0.0
 20
0.0
 30
0.0
 70
     1
 40
0.0499999
 41
0.0499999
  0
VERTEX
  5
A13
  8
MECHANICAL1
 10
300.29100215999989
 20
503.00800083999991
 30
0.0
 42
1.0
  0
VERTEX
  5
A14
  8
MECHANICAL1
 10
300.34099951999991
 20
503.00800083999991
 30
0.0
 42
1.0
  0
SEQEND
  5
A15
  8
MECHANICAL1
  0
POLYLINE
  5
377
  8
MECHANICAL1
 66
     1
 10
0.0
 20
0.0
 30
0.0
 40
0.0999998
 41
0.0999998
  0
VERTEX
  5
A16
  8
MECHANICAL1
 10
265.31599971999992
 20
503.00800083999991
 30
0.0
  0
VERTEX
  5
A17
  8
MECHANICAL1
 10
265.31599971999992
 20
528.00799910000001
 30
0.0
  0
SEQEND
  5
A18
  8
MECHANICAL1
  0
POLYLINE
  5
37B
  8
MECHANICAL1
 66
     1
 10
0.0
 20
0.0
 30
0.0
 70
     1
 40
0.0499999
 41
0.0499999
  0
VERTEX
  5
A19
  8
MECHANICAL1
 10
265.29100103999991
 20
503.00800083999991
 30
0.0
 42
1.0
  0
VERTEX
  5
A1A
  8
MECHANICAL1
 10
265.34099839999999
 20
503.00800083999991
 30
0.0
 42
1.0
  0
SEQEND
  5
A1B
  8
MECHANICAL1
  0
POLYLINE
  5
37F
  8
MECHANICAL1
 66
     1
 10
0.0
 20
0.0
 30
0.0
 70
     1
 40
0.0499999
 41
0.0499999
  0
VERTEX
  5
A1C
  8
MECHANICAL1
 10
265.29100103999991
 20
528.00799910000001
 30
0.0
 42
1.0
  0
VERTEX
  5
A1D
  8
MECHANICAL1
 10
265.34099839999999
 20
528.00799910000001
 30
0.0
 42
1.0
  0
SEQEND
  5
A1E
  8
MECHANICAL1
  0
POLYLINE
  5
383
  8
MECHANICAL1
 66
     1
 10
0.0
 20
0.0
 30
0.0
 40
0.0999998
 41
0.0999998
  0
VERTEX
  5
A1F
  8
MECHANICAL1
 10
265.31599971999992
 20
400.00800109999989
 30
0.0
  0
VERTEX
  5
A20
  8
MECHANICAL1
 10
300.3160008399999
 20
400.00800109999989
 30
0.0
  0
SEQEND
  5
A21
  8
MECHANICAL1
  0
POLYLINE
  5
387
  8
MECHANICAL1
 66
     1
 10
0.0
 20
0.0
 30
0.0
 70
     1
 40
0.0499999
 41
0.0499999
  0
VERTEX
  5
A22
  8
MECHANICAL1
 10
265.29100103999991
 20
400.00800109999989
 30
0.0
 42
1.0
  0
VERTEX
  5
A23
  8
MECHANICAL1
 10
265.34099839999999
 20
400.00800109999989
 30
0.0
 42
1.0
  0
SEQEND
  5
A24
  8
MECHANICAL1
  0
POLYLINE
  5
38B
  8
MECHANICAL1
 66
     1
 10
0.0
 20
0.0
 30
0.0
 70
     1
 40
0.0499999
 41
0.0499999
  0
VERTEX
  5
A25
  8
MECHANICAL1
 10
300.29100215999989
 20
400.00800109999989
 30
0.0
 42
1.0
  0
VERTEX
  5
A26
  8
MECHANICAL1
 10
300.34099951999991
 20
400.00800109999989
 30
0.0
 42
1.0
  0
SEQEND
  5
A27
  8
MECHANICAL1
  0
POLYLINE
  5
38F
  8
MECHANICAL1
 66
     1
 10
0.0
 20
0.0
 30
0.0
 40
0.0999998
 41
0.0999998
  0
VERTEX
  5
A28
  8
MECHANICAL1
 10
265.31599971999992
 20
425.00799935999993
 30
0.0
  0
VERTEX
  5
A29
  8
MECHANICAL1
 10
300.3160008399999
 20
425.00799935999993
 30
0.0
  0
SEQEND
  5
A2A
  8
MECHANICAL1
  0
POLYLINE
  5
393
  8
MECHANICAL1
 66
     1
 10
0.0
 20
0.0
 30
0.0
 70
     1
 40
0.0499999
 41
0.0499999
  0
VERTEX
  5
A2B
  8
MECHANICAL1
 10
265.29100103999991
 20
425.00799935999993
 30
0.0
 42
1.0
  0
VERTEX
  5
A2C
  8
MECHANICAL1
 10
265.34099839999999
 20
425.00799935999993
 30
0.0
 42
1.0
  0
SEQEND
  5
A2D
  8
MECHANICAL1
  0
POLYLINE
  5
397
  8
MECHANICAL1
 66
     1
 10
0.0
 20
0.0
 30
0.0
 70
     1
 40
0.0499999
 41
0.0499999
  0
VERTEX
  5
A2E
  8
MECHANICAL1
 10
300.29100215999989
 20
425.00799935999993
 30
0.0
 42
1.0
  0
VERTEX
  5
A2F
  8
MECHANICAL1
 10
300.34099951999991
 20
425.00799935999993
 30
0.0
 42
1.0
  0
SEQEND
  5
A30
  8
MECHANICAL1
  0
POLYLINE
  5
39B
  8
MECHANICAL1
 66
     1
 10
0.0
 20
0.0
 30
0.0
 40
0.0999998
 41
0.0999998
  0
VERTEX
  5
A31
  8
MECHANICAL1
 10
265.31599971999992
 20
283.00799888
 30
0.0
  0
VERTEX
  5
A32
  8
MECHANICAL1
 10
300.3160008399999
 20
283.00799888
 30
0.0
  0
SEQEND
  5
A33
  8
MECHANICAL1
  0
POLYLINE
  5
39F
  8
MECHANICAL1
 66
     1
 10
0.0
 20
0.0
 30
0.0
 70
     1
 40
0.0499999
 41
0.0499999
  0
VERTEX
  5
A34
  8
MECHANICAL1
 10
265.29100103999991
 20
283.00799888
 30
0.0
 42
1.0
  0
VERTEX
  5
A35
  8
MECHANICAL1
 10
265.34099839999999
 20
283.00799888
 30
0.0
 42
1.0
  0
SEQEND
  5
A36
  8
MECHANICAL1
  0
POLYLINE
  5
3A3
  8
MECHANICAL1
 66
     1
 10
0.0
 20
0.0
 30
0.0
 70
     1
 40
0.0499999
 41
0.0499999
  0
VERTEX
  5
A37
  8
MECHANICAL1
 10
300.29100215999989
 20
283.00799888
 30
0.0
 42
1.0
  0
VERTEX
  5
A38
  8
MECHANICAL1
 10
300.34099951999991
 20
283.00799888
 30
0.0
 42
1.0
  0
SEQEND
  5
A39
  8
MECHANICAL1
  0
POLYLINE
  5
3A7
  8
MECHANICAL1
 66
     1
 10
0.0
 20
0.0
 30
0.0
 40
0.0999998
 41
0.0999998
  0
VERTEX
  5
A3A
  8
MECHANICAL1
 10
265.31599971999992
 20
283.00799888
 30
0.0
  0
VERTEX
  5
A3B
  8
MECHANICAL1
 10
265.31599971999992
 20
308.0079996799999
 30
0.0
  0
SEQEND
  5
A3C
  8
MECHANICAL1
  0
POLYLINE
  5
3AB
  8
MECHANICAL1
 66
     1
 10
0.0
 20
0.0
 30
0.0
 70
     1
 40
0.0499999
 41
0.0499999
  0
VERTEX
  5
A3D
  8
MECHANICAL1
 10
265.29100103999991
 20
283.00799888
 30
0.0
 42
1.0
  0
VERTEX
  5
A3E
  8
MECHANICAL1
 10
265.34099839999999
 20
283.00799888
 30
0.0
 42
1.0
  0
SEQEND
  5
A3F
  8
MECHANICAL1
  0
POLYLINE
  5
3AF
  8
MECHANICAL1
 66
     1
 10
0.0
 20
0.0
 30
0.0
 70
     1
 40
0.0499999
 41
0.0499999
  0
VERTEX
  5
A40
  8
MECHANICAL1
 10
265.29100103999991
 20
308.0079996799999
 30
0.0
 42
1.0
  0
VERTEX
  5
A41
  8
MECHANICAL1
 10
265.34099839999999
 20
308.0079996799999
 30
0.0
 42
1.0
  0
SEQEND
  5
A42
  8
MECHANICAL1
  0
POLYLINE
  5
3B3
  8
MECHANICAL1
 66
     1
 10
0.0
 20
0.0
 30
0.0
 40
0.0999998
 41
0.0999998
  0
VERTEX
  5
A43
  8
MECHANICAL1
 10
265.31599971999992
 20
308.0079996799999
 30
0.0
  0
VERTEX
  5
A44
  8
MECHANICAL1
 10
300.3160008399999
 20
308.0079996799999
 30
0.0
  0
SEQEND
  5
A45
  8
MECHANICAL1
  0
POLYLINE
  5
3B7
  8
MECHANICAL1
 66
     1
 10
0.0
 20
0.0
 30
0.0
 70
     1
 40
0.0499999
 41
0.0499999
  0
VERTEX
  5
A46
  8
MECHANICAL1
 10
265.29100103999991
 20
308.0079996799999
 30
0.0
 42
1.0
  0
VERTEX
  5
A47
  8
MECHANICAL1
 10
265.34099839999999
 20
308.0079996799999
 30
0.0
 42
1.0
  0
SEQEND
  5
A48
  8
MECHANICAL1
  0
POLYLINE
  5
3BB
  8
MECHANICAL1
 66
     1
 10
0.0
 20
0.0
 30
0.0
 70
     1
 40
0.0499999
 41
0.0499999
  0
VERTEX
  5
A49
  8
MECHANICAL1
 10
300.29100215999989
 20
308.0079996799999
 30
0.0
 42
1.0
  0
VERTEX
  5
A4A
  8
MECHANICAL1
 10
300.34099951999991
 20
308.0079996799999
 30
0.0
 42
1.0
  0
SEQEND
  5
A4B
  8
MECHANICAL1
  0
POLYLINE
  5
3BF
  8
MECHANICAL1
 66
     1
 10
0.0
 20
0.0
 30
0.0
 40
0.0999998
 41
0.0999998
  0
VERTEX
  5
A4C
  8
MECHANICAL1
 10
315.31599877999992
 20
591.00800009999989
 30
0.0
  0
VERTEX
  5
A4D
  8
MECHANICAL1
 10
1737.56599908
 20
591.00800009999989
 30
0.0
  0
SEQEND
  5
A4E
  8
MECHANICAL1
  0
POLYLINE
  5
3C3
  8
MECHANICAL1
 66
     1
 10
0.0
 20
0.0
 30
0.0
 70
     1
 40
0.0499999
 41
0.0499999
  0
VERTEX
  5
A4F
  8
MECHANICAL1
 10
315.29100009999991
 20
591.00800009999989
 30
0.0
 42
1.0
  0
VERTEX
  5
A50
  8
MECHANICAL1
 10
315.34099745999993
 20
591.00800009999989
 30
0.0
 42
1.0
  0
SEQEND
  5
A51
  8
MECHANICAL1
  0
POLYLINE
  5
3C7
  8
MECHANICAL1
 66
     1
 10
0.0
 20
0.0
 30
0.0
 70
     1
 40
0.0499999
 41
0.0499999
  0
VERTEX
  5
A52
  8
MECHANICAL1
 10
1737.5410004
 20
591.00800009999989
 30
0.0
 42
1.0
  0
VERTEX
  5
A53
  8
MECHANICAL1
 10
1737.590997759999
 20
591.00800009999989
 30
0.0
 42
1.0
  0
SEQEND
  5
A54
  8
MECHANICAL1
  0
POLYLINE
  5
3CB
  8
MECHANICAL1
 66
     1
 10
0.0
 20
0.0
 30
0.0
 40
0.0999998
 41
0.0999998
  0
VERTEX
  5
A55
  8
MECHANICAL1
 10
1737.56599908
 20
191.0079999999999
 30
0.0
  0
VERTEX
  5
A56
  8
MECHANICAL1
 10
1737.56599908
 20
591.00800009999989
 30
0.0
  0
SEQEND
  5
A57
  8
MECHANICAL1
  0
POLYLINE
  5
3CF
  8
MECHANICAL1
 66
     1
 10
0.0
 20
0.0
 30
0.0
 70
     1
 40
0.0499999
 41
0.0499999
  0
VERTEX
  5
A58
  8
MECHANICAL1
 10
1737.5410004
 20
191.0079999999999
 30
0.0
 42
1.0
  0
VERTEX
  5
A59
  8
MECHANICAL1
 10
1737.590997759999
 20
191.0079999999999
 30
0.0
 42
1.0
  0
SEQEND
  5
A5A
  8
MECHANICAL1
  0
POLYLINE
  5
3D3
  8
MECHANICAL1
 66
     1
 10
0.0
 20
0.0
 30
0.0
 70
     1
 40
0.0499999
 41
0.0499999
  0
VERTEX
  5
A5B
  8
MECHANICAL1
 10
1737.5410004
 20
591.00800009999989
 30
0.0
 42
1.0
  0
VERTEX
  5
A5C
  8
MECHANICAL1
 10
1737.590997759999
 20
591.00800009999989
 30
0.0
 42
1.0
  0
SEQEND
  5
A5D
  8
MECHANICAL1
  0
POLYLINE
  5
3D7
  8
MECHANICAL1
 66
     1
 10
0.0
 20
0.0
 30
0.0
 40
0.0999998
 41
0.0999998
  0
VERTEX
  5
A5E
  8
MECHANICAL1
 10
315.31599877999992
 20
191.0079999999999
 30
0.0
  0
VERTEX
  5
A5F
  8
MECHANICAL1
 10
1737.56599908
 20
191.0079999999999
 30
0.0
  0
SEQEND
  5
A60
  8
MECHANICAL1
  0
POLYLINE
  5
3DB
  8
MECHANICAL1
 66
     1
 10
0.0
 20
0.0
 30
0.0
 70
     1
 40
0.0499999
 41
0.0499999
  0
VERTEX
  5
A61
  8
MECHANICAL1
 10
315.29100009999991
 20
191.0079999999999
 30
0.0
 42
1.0
  0
VERTEX
  5
A62
  8
MECHANICAL1
 10
315.34099745999993
 20
191.0079999999999
 30
0.0
 42
1.0
  0
SEQEND
  5
A63
  8
MECHANICAL1
  0
POLYLINE
  5
3DF
  8
MECHANICAL1
 66
     1
 10
0.0
 20
0.0
 30
0.0
 70
     1
 40
0.0499999
 41
0.0499999
  0
VERTEX
  5
A64
  8
MECHANICAL1
 10
1737.5410004
 20
191.0079999999999
 30
0.0
 42
1.0
  0
VERTEX
  5
A65
  8
MECHANICAL1
 10
1737.590997759999
 20
191.0079999999999
 30
0.0
 42
1.0
  0
SEQEND
  5
A66
  8
MECHANICAL1
  0
POLYLINE
  5
3E3
  8
TOPLAYER
 66
     1
 10
0.0
 20
0.0
 30
0.0
 40
2.9999990799999989
 41
2.9999990799999989
  0
VERTEX
  5
A67
  8
TOPLAYER
 10
327.81599917999989
 20
309.7580012599999
 30
0.0
 42
-0.4142135623728771
  0
VERTEX
  5
A68
  8
TOPLAYER
 10
324.8160001
 20
312.75800033999991
 30
0.0
  0
SEQEND
  5
A69
  8
TOPLAYER
  0
POLYLINE
  5
3E7
  8
TOPLAYER
 66
     1
 10
0.0
 20
0.0
 30
0.0
 70
     1
 40
1.499999539999999
 41
1.499999539999999
  0
VERTEX
  5
A6A
  8
TOPLAYER
 10
327.06600068
 20
309.7580012599999
 30
0.0
 42
1.0
  0
VERTEX
  5
A6B
  8
TOPLAYER
 10
328.56599768000001
 20
309.7580012599999
 30
0.0
 42
1.0
  0
SEQEND
  5
A6C
  8
TOPLAYER
  0
POLYLINE
  5
3EB
  8
TOPLAYER
 66
     1
 10
0.0
 20
0.0
 30
0.0
 70
     1
 40
1.499999539999999
 41
1.499999539999999
  0
VERTEX
  5
A6D
  8
TOPLAYER
 10
324.06600159999999
 20
312.75800033999991
 30
0.0
 42
1.0
  0
VERTEX
  5
A6E
  8
TOPLAYER
 10
325.56599859999989
 20
312.75800033999991
 30
0.0
 42
1.0
  0
SEQEND
  5
A6F
  8
TOPLAYER
  0
POLYLINE
  5
407
  8
TOPLAYER
 66
     1
 10
0.0
 20
0.0
 30
0.0
 40
6.3999999000000001
 41
6.3999999000000001
  0
VERTEX
  5
A70
  8
TOPLAYER
 10
323.31600055999991
 20
524.80800041999998
 30
0.0
 42
-0.4142135623728771
  0
VERTEX
  5
A71
  8
TOPLAYER
 10
318.31600040000001
 20
519.80800025999997
 30
0.0
  0
SEQEND
  5
A72
  8
TOPLAYER
  0
POLYLINE
  5
40B
  8
TOPLAYER
 66
     1
 10
0.0
 20
0.0
 30
0.0
 70
     1
 40
3.1999986799999989
 41
3.1999986799999989
  0
VERTEX
  5
A73
  8
TOPLAYER
 10
321.71600122000001
 20
524.80800041999998
 30
0.0
 42
1.0
  0
VERTEX
  5
A74
  8
TOPLAYER
 10
324.91599989999992
 20
524.80800041999998
 30
0.0
 42
1.0
  0
SEQEND
  5
A75
  8
TOPLAYER
  0
POLYLINE
  5
40F
  8
TOPLAYER
 66
     1
 10
0.0
 20
0.0
 30
0.0
 70
     1
 40
3.1999986799999989
 41
3.1999986799999989
  0
VERTEX
  5
A76
  8
TOPLAYER
 10
316.71600105999988
 20
519.80800025999997
 30
0.0
 42
1.0
  0
VERTEX
  5
A77
  8
TOPLAYER
 10
319.9159997399999
 20
519.80800025999997
 30
0.0
 42
1.0
  0
SEQEND
  5
A78
  8
TOPLAYER
  0
POLYLINE
  5
413
  8
TOPLAYER
 66
     1
 10
0.0
 20
0.0
 30
0.0
 40
6.3999999000000001
 41
6.3999999000000001
  0
VERTEX
  5
A79
  8
TOPLAYER
 10
318.31600040000001
 20
291.25800015999988
 30
0.0
 42
-0.4142135623728771
  0
VERTEX
  5
A7A
  8
TOPLAYER
 10
323.31600055999991
 20
286.25799999999992
 30
0.0
  0
SEQEND
  5
A7B
  8
TOPLAYER
  0
POLYLINE
  5
417
  8
TOPLAYER
 66
     1
 10
0.0
 20
0.0
 30
0.0
 70
     1
 40
3.1999986799999989
 41
3.1999986799999989
  0
VERTEX
  5
A7C
  8
TOPLAYER
 10
316.71600105999988
 20
291.25800015999988
 30
0.0
 42
1.0
  0
VERTEX
  5
A7D
  8
TOPLAYER
 10
319.9159997399999
 20
291.25800015999988
 30
0.0
 42
1.0
  0
SEQEND
  5
A7E
  8
TOPLAYER
  0
POLYLINE
  5
41B
  8
TOPLAYER
 66
     1
 10
0.0
 20
0.0
 30
0.0
 70
     1
 40
3.1999986799999989
 41
3.1999986799999989
  0
VERTEX
  5
A7F
  8
TOPLAYER
 10
321.71600122000001
 20
286.25799999999992
 30
0.0
 42
1.0
  0
VERTEX
  5
A80
  8
TOPLAYER
 10
324.91599989999992
 20
286.25799999999992
 30
0.0
 42
1.0
  0
SEQEND
  5
A81
  8
TOPLAYER
  0
POLYLINE
  5
41F
  8
TOPLAYER
 66
     1
 10
0.0
 20
0.0
 30
0.0
 40
6.3999999000000001
 41
6.3999999000000001
  0
VERTEX
  5
A82
  8
TOPLAYER
 10
328.31600071999992
 20
199.00799923999989
 30
0.0
 42
-0.4142135623728771
  0
VERTEX
  5
A83
  8
TOPLAYER
 10
323.31600055999991
 20
204.00799939999999
 30
0.0
  0
SEQEND
  5
A84
  8
TOPLAYER
  0
POLYLINE
  5
423
  8
TOPLAYER
 66
     1
 10
0.0
 20
0.0
 30
0.0
 70
     1
 40
3.1999986799999989
 41
3.1999986799999989
  0
VERTEX
  5
A85
  8
TOPLAYER
 10
326.71600137999991
 20
199.00799923999989
 30
0.0
 42
1.0
  0
VERTEX
  5
A86
  8
TOPLAYER
 10
329.91600005999999
 20
199.00799923999989
 30
0.0
 42
1.0
  0
SEQEND
  5
A87
  8
TOPLAYER
  0
POLYLINE
  5
427
  8
TOPLAYER
 66
     1
 10
0.0
 20
0.0
 30
0.0
 70
     1
 40
3.1999986799999989
 41
3.1999986799999989
  0
VERTEX
  5
A88
  8
TOPLAYER
 10
321.71600122000001
 20
204.00799939999999
 30
0.0
 42
1.0
  0
VERTEX
  5
A89
  8
TOPLAYER
 10
324.91599989999992
 20
204.00799939999999
 30
0.0
 42
1.0
  0
SEQEND
  5
A8A
  8
TOPLAYER
  0
POLYLINE
  5
42B
  8
TOPLAYER
 66
     1
 10
0.0
 20
0.0
 30
0.0
 40
6.3999999000000001
 41
6.3999999000000001
  0
VERTEX
  5
A8B
  8
TOPLAYER
 10
323.31599801999988
 20
578.00800069999991
 30
0.0
 42
-0.4142135623728771
  0
VERTEX
  5
A8C
  8
TOPLAYER
 10
328.31599818000001
 20
583.00800085999992
 30
0.0
  0
SEQEND
  5
A8D
  8
TOPLAYER
  0
POLYLINE
  5
42F
  8
TOPLAYER
 66
     1
 10
0.0
 20
0.0
 30
0.0
 70
     1
 40
3.1999986799999989
 41
3.1999986799999989
  0
VERTEX
  5
A8E
  8
TOPLAYER
 10
321.71599867999998
 20
578.00800069999991
 30
0.0
 42
1.0
  0
VERTEX
  5
A8F
  8
TOPLAYER
 10
324.91599736000001
 20
578.00800069999991
 30
0.0
 42
1.0
  0
SEQEND
  5
A90
  8
TOPLAYER
  0
POLYLINE
  5
433
  8
TOPLAYER
 66
     1
 10
0.0
 20
0.0
 30
0.0
 70
     1
 40
3.1999986799999989
 41
3.1999986799999989
  0
VERTEX
  5
A91
  8
TOPLAYER
 10
326.71599883999988
 20
583.00800085999992
 30
0.0
 42
1.0
  0
VERTEX
  5
A92
  8
TOPLAYER
 10
329.91599751999991
 20
583.00800085999992
 30
0.0
 42
1.0
  0
SEQEND
  5
A93
  8
TOPLAYER
  0
POLYLINE
  5
437
  8
TOPLAYER
 66
     1
 10
0.0
 20
0.0
 30
0.0
 40
6.3999999000000001
 41
6.3999999000000001
  0
VERTEX
  5
A94
  8
TOPLAYER
 10
338.31600104
 20
563.00800021999987
 30
0.0
 42
-0.9999999999992555
  0
VERTEX
  5
A95
  8
TOPLAYER
 10
338.31600104
 20
573.00800054000001
 30
0.0
  0
SEQEND
  5
A96
  8
TOPLAYER
  0
POLYLINE
  5
43B
  8
TOPLAYER
 66
     1
 10
0.0
 20
0.0
 30
0.0
 70
     1
 40
3.1999986799999989
 41
3.1999986799999989
  0
VERTEX
  5
A97
  8
TOPLAYER
 10
336.71600169999988
 20
563.00800021999987
 30
0.0
 42
1.0
  0
VERTEX
  5
A98
  8
TOPLAYER
 10
339.9160003799999
 20
563.00800021999987
 30
0.0
 42
1.0
  0
SEQEND
  5
A99
  8
TOPLAYER
  0
POLYLINE
  5
43F
  8
TOPLAYER
 66
     1
 10
0.0
 20
0.0
 30
0.0
 70
     1
 40
3.1999986799999989
 41
3.1999986799999989
  0
VERTEX
  5
A9A
  8
TOPLAYER
 10
336.71600169999988
 20
573.00800054000001
 30
0.0
 42
1.0
  0
VERTEX
  5
A9B
  8
TOPLAYER
 10
339.9160003799999
 20
573.00800054000001
 30
0.0
 42
1.0
  0
SEQEND
  5
A9C
  8
TOPLAYER
  0
POLYLINE
  5
443
  8
TOPLAYER
 66
     1
 10
0.0
 20
0.0
 30
0.0
 40
6.3999999000000001
 41
6.3999999000000001
  0
VERTEX
  5
A9D
  8
TOPLAYER
 10
338.31600104
 20
543.00799957999993
 30
0.0
 42
-0.9999999999992555
  0
VERTEX
  5
A9E
  8
TOPLAYER
 10
338.31600104
 20
553.00799989999985
 30
0.0
  0
SEQEND
  5
A9F
  8
TOPLAYER
  0
POLYLINE
  5
447
  8
TOPLAYER
 66
     1
 10
0.0
 20
0.0
 30
0.0
 70
     1
 40
3.1999986799999989
 41
3.1999986799999989
  0
VERTEX
  5
AA0
  8
TOPLAYER
 10
336.71600169999988
 20
543.00799957999993
 30
0.0
 42
1.0
  0
VERTEX
  5
AA1
  8
TOPLAYER
 10
339.9160003799999
 20
543.00799957999993
 30
0.0
 42
1.0
  0
SEQEND
  5
AA2
  8
TOPLAYER
  0
POLYLINE
  5
44B
  8
TOPLAYER
 66
     1
 10
0.0
 20
0.0
 30
0.0
 70
     1
 40
3.1999986799999989
 41
3.1999986799999989
  0
VERTEX
  5
AA3
  8
TOPLAYER
 10
336.71600169999988
 20
553.00799989999985
 30
0.0
 42
1.0
  0
VERTEX
  5
AA4
  8
TOPLAYER
 10
339.9160003799999
 20
553.00799989999985
 30
0.0
 42
1.0
  0
SEQEND
  5
AA5
  8
TOPLAYER
  0
POLYLINE
  5
44F
  8
TOPLAYER
 66
     1
 10
0.0
 20
0.0
 30
0.0
 40
6.3999999000000001
 41
6.3999999000000001
  0
VERTEX
  5
AA6
  8
TOPLAYER
 10
338.31600104
 20
523.00799893999999
 30
0.0
 42
-0.9999999999992555
  0
VERTEX
  5
AA7
  8
TOPLAYER
 10
338.31600104
 20
533.00799925999991
 30
0.0
  0
SEQEND
  5
AA8
  8
TOPLAYER
  0
POLYLINE
  5
453
  8
TOPLAYER
 66
     1
 10
0.0
 20
0.0
 30
0.0
 70
     1
 40
3.1999986799999989
 41
3.1999986799999989
  0
VERTEX
  5
AA9
  8
TOPLAYER
 10
336.71600169999988
 20
523.00799893999999
 30
0.0
 42
1.0
  0
VERTEX
  5
AAA
  8
TOPLAYER
 10
339.9160003799999
 20
523.00799893999999
 30
0.0
 42
1.0
  0
SEQEND
  5
AAB
  8
TOPLAYER
  0
POLYLINE
  5
457
  8
TOPLAYER
 66
     1
 10
0.0
 20
0.0
 30
0.0
 70
     1
 40
3.1999986799999989
 41
3.1999986799999989
  0
VERTEX
  5
AAC
  8
TOPLAYER
 10
336.71600169999988
 20
533.00799925999991
 30
0.0
 42
1.0
  0
VERTEX
  5
AAD
  8
TOPLAYER
 10
339.9160003799999
 20
533.00799925999991
 30
0.0
 42
1.0
  0
SEQEND
  5
AAE
  8
TOPLAYER
  0
POLYLINE
  5
45B
  8
TOPLAYER
 66
     1
 10
0.0
 20
0.0
 30
0.0
 40
6.3999999000000001
 41
6.3999999000000001
  0
VERTEX
  5
AAF
  8
TOPLAYER
 10
338.31600104
 20
503.00800083999991
 30
0.0
 42
-0.9999999999992555
  0
VERTEX
  5
AB0
  8
TOPLAYER
 10
338.31600104
 20
513.00800115999994
 30
0.0
  0
SEQEND
  5
AB1
  8
TOPLAYER
  0
POLYLINE
  5
45F
  8
TOPLAYER
 66
     1
 10
0.0
 20
0.0
 30
0.0
 70
     1
 40
3.1999986799999989
 41
3.1999986799999989
  0
VERTEX
  5
AB2
  8
TOPLAYER
 10
336.71600169999988
 20
503.00800083999991
 30
0.0
 42
1.0
  0
VERTEX
  5
AB3
  8
TOPLAYER
 10
339.9160003799999
 20
503.00800083999991
 30
0.0
 42
1.0
  0
SEQEND
  5
AB4
  8
TOPLAYER
  0
POLYLINE
  5
463
  8
TOPLAYER
 66
     1
 10
0.0
 20
0.0
 30
0.0
 70
     1
 40
3.1999986799999989
 41
3.1999986799999989
  0
VERTEX
  5
AB5
  8
TOPLAYER
 10
336.71600169999988
 20
513.00800115999994
 30
0.0
 42
1.0
  0
VERTEX
  5
AB6
  8
TOPLAYER
 10
339.9160003799999
 20
513.00800115999994
 30
0.0
 42
1.0
  0
SEQEND
  5
AB7
  8
TOPLAYER
  0
POLYLINE
  5
467
  8
TOPLAYER
 66
     1
 10
0.0
 20
0.0
 30
0.0
 40
6.3999999000000001
 41
6.3999999000000001
  0
VERTEX
  5
AB8
  8
TOPLAYER
 10
338.31600104
 20
483.00800019999991
 30
0.0
 42
-0.9999999999992555
  0
VERTEX
  5
AB9
  8
TOPLAYER
 10
338.31600104
 20
493.00800051999988
 30
0.0
  0
SEQEND
  5
ABA
  8
TOPLAYER
  0
POLYLINE
  5
46B
  8
TOPLAYER
 66
     1
 10
0.0
 20
0.0
 30
0.0
 70
     1
 40
3.1999986799999989
 41
3.1999986799999989
  0
VERTEX
  5
ABB
  8
TOPLAYER
 10
336.71600169999988
 20
483.00800019999991
 30
0.0
 42
1.0
  0
VERTEX
  5
ABC
  8
TOPLAYER
 10
339.9160003799999
 20
483.00800019999991
 30
0.0
 42
1.0
  0
SEQEND
  5
ABD
  8
TOPLAYER
  0
POLYLINE
  5
46F
  8
TOPLAYER
 66
     1
 10
0.0
 20
0.0
 30
0.0
 70
     1
 40
3.1999986799999989
 41
3.1999986799999989
  0
VERTEX
  5
ABE
  8
TOPLAYER
 10
336.71600169999988
 20
493.00800051999988
 30
0.0
 42
1.0
  0
VERTEX
  5
ABF
  8
TOPLAYER
 10
339.9160003799999
 20
493.00800051999988
 30
0.0
 42
1.0
  0
SEQEND
  5
AC0
  8
TOPLAYER
  0
POLYLINE
  5
473
  8
TOPLAYER
 66
     1
 10
0.0
 20
0.0
 30
0.0
 40
6.3999999000000001
 41
6.3999999000000001
  0
VERTEX
  5
AC1
  8
TOPLAYER
 10
338.31600104
 20
456.00800085999992
 30
0.0
 42
-0.9999999999992555
  0
VERTEX
  5
AC2
  8
TOPLAYER
 10
338.31600104
 20
466.00800117999989
 30
0.0
  0
SEQEND
  5
AC3
  8
TOPLAYER
  0
POLYLINE
  5
477
  8
TOPLAYER
 66
     1
 10
0.0
 20
0.0
 30
0.0
 70
     1
 40
3.1999986799999989
 41
3.1999986799999989
  0
VERTEX
  5
AC4
  8
TOPLAYER
 10
336.71600169999988
 20
456.00800085999992
 30
0.0
 42
1.0
  0
VERTEX
  5
AC5
  8
TOPLAYER
 10
339.9160003799999
 20
456.00800085999992
 30
0.0
 42
1.0
  0
SEQEND
  5
AC6
  8
TOPLAYER
  0
POLYLINE
  5
47B
  8
TOPLAYER
 66
     1
 10
0.0
 20
0.0
 30
0.0
 70
     1
 40
3.1999986799999989
 41
3.1999986799999989
  0
VERTEX
  5
AC7
  8
TOPLAYER
 10
336.71600169999988
 20
466.00800117999989
 30
0.0
 42
1.0
  0
VERTEX
  5
AC8
  8
TOPLAYER
 10
339.9160003799999
 20
466.00800117999989
 30
0.0
 42
1.0
  0
SEQEND
  5
AC9
  8
TOPLAYER
  0
POLYLINE
  5
47F
  8
TOPLAYER
 66
     1
 10
0.0
 20
0.0
 30
0.0
 40
6.3999999000000001
 41
6.3999999000000001
  0
VERTEX
  5
ACA
  8
TOPLAYER
 10
338.31600104
 20
436.00800021999999
 30
0.0
 42
-0.9999999999992555
  0
VERTEX
  5
ACB
  8
TOPLAYER
 10
338.31600104
 20
446.00800054000001
 30
0.0
  0
SEQEND
  5
ACC
  8
TOPLAYER
  0
POLYLINE
  5
483
  8
TOPLAYER
 66
     1
 10
0.0
 20
0.0
 30
0.0
 70
     1
 40
3.1999986799999989
 41
3.1999986799999989
  0
VERTEX
  5
ACD
  8
TOPLAYER
 10
336.71600169999988
 20
436.00800021999999
 30
0.0
 42
1.0
  0
VERTEX
  5
ACE
  8
TOPLAYER
 10
339.9160003799999
 20
436.00800021999999
 30
0.0
 42
1.0
  0
SEQEND
  5
ACF
  8
TOPLAYER
  0
POLYLINE
  5
487
  8
TOPLAYER
 66
     1
 10
0.0
 20
0.0
 30
0.0
 70
     1
 40
3.1999986799999989
 41
3.1999986799999989
  0
VERTEX
  5
AD0
  8
TOPLAYER
 10
336.71600169999988
 20
446.00800054000001
 30
0.0
 42
1.0
  0
VERTEX
  5
AD1
  8
TOPLAYER
 10
339.9160003799999
 20
446.00800054000001
 30
0.0
 42
1.0
  0
SEQEND
  5
AD2
  8
TOPLAYER
  0
POLYLINE
  5
48B
  8
TOPLAYER
 66
     1
 10
0.0
 20
0.0
 30
0.0
 40
6.3999999000000001
 41
6.3999999000000001
  0
VERTEX
  5
AD3
  8
TOPLAYER
 10
338.31600104
 20
416.00799957999999
 30
0.0
 42
-0.9999999999992555
  0
VERTEX
  5
AD4
  8
TOPLAYER
 10
338.31600104
 20
426.0079998999999
 30
0.0
  0
SEQEND
  5
AD5
  8
TOPLAYER
  0
POLYLINE
  5
48F
  8
TOPLAYER
 66
     1
 10
0.0
 20
0.0
 30
0.0
 70
     1
 40
3.1999986799999989
 41
3.1999986799999989
  0
VERTEX
  5
AD6
  8
TOPLAYER
 10
336.71600169999988
 20
416.00799957999999
 30
0.0
 42
1.0
  0
VERTEX
  5
AD7
  8
TOPLAYER
 10
339.9160003799999
 20
416.00799957999999
 30
0.0
 42
1.0
  0
SEQEND
  5
AD8
  8
TOPLAYER
  0
POLYLINE
  5
493
  8
TOPLAYER
 66
     1
 10
0.0
 20
0.0
 30
0.0
 70
     1
 40
3.1999986799999989
 41
3.1999986799999989
  0
VERTEX
  5
AD9
  8
TOPLAYER
 10
336.71600169999988
 20
426.0079998999999
 30
0.0
 42
1.0
  0
VERTEX
  5
ADA
  8
TOPLAYER
 10
339.9160003799999
 20
426.0079998999999
 30
0.0
 42
1.0
  0
SEQEND
  5
ADB
  8
TOPLAYER
  0
POLYLINE
  5
497
  8
TOPLAYER
 66
     1
 10
0.0
 20
0.0
 30
0.0
 40
6.3999999000000001
 41
6.3999999000000001
  0
VERTEX
  5
ADC
  8
TOPLAYER
 10
338.31600104
 20
396.00799893999999
 30
0.0
 42
-0.9999999999992555
  0
VERTEX
  5
ADD
  8
TOPLAYER
 10
338.31600104
 20
406.00799925999991
 30
0.0
  0
SEQEND
  5
ADE
  8
TOPLAYER
  0
POLYLINE
  5
49B
  8
TOPLAYER
 66
     1
 10
0.0
 20
0.0
 30
0.0
 70
     1
 40
3.1999986799999989
 41
3.1999986799999989
  0
VERTEX
  5
ADF
  8
TOPLAYER
 10
336.71600169999988
 20
396.00799893999999
 30
0.0
 42
1.0
  0
VERTEX
  5
AE0
  8
TOPLAYER
 10
339.9160003799999
 20
396.00799893999999
 30
0.0
 42
1.0
  0
SEQEND
  5
AE1
  8
TOPLAYER
  0
POLYLINE
  5
49F
  8
TOPLAYER
 66
     1
 10
0.0
 20
0.0
 30
0.0
 70
     1
 40
3.1999986799999989
 41
3.1999986799999989
  0
VERTEX
  5
AE2
  8
TOPLAYER
 10
336.71600169999988
 20
406.00799925999991
 30
0.0
 42
1.0
  0
VERTEX
  5
AE3
  8
TOPLAYER
 10
339.9160003799999
 20
406.00799925999991
 30
0.0
 42
1.0
  0
SEQEND
  5
AE4
  8
TOPLAYER
  0
POLYLINE
  5
4A3
  8
TOPLAYER
 66
     1
 10
0.0
 20
0.0
 30
0.0
 40
6.3999999000000001
 41
6.3999999000000001
  0
VERTEX
  5
AE5
  8
TOPLAYER
 10
338.31600104
 20
376.00800083999991
 30
0.0
 42
-0.9999999999992555
  0
VERTEX
  5
AE6
  8
TOPLAYER
 10
338.31600104
 20
386.00800115999999
 30
0.0
  0
SEQEND
  5
AE7
  8
TOPLAYER
  0
POLYLINE
  5
4A7
  8
TOPLAYER
 66
     1
 10
0.0
 20
0.0
 30
0.0
 70
     1
 40
3.1999986799999989
 41
3.1999986799999989
  0
VERTEX
  5
AE8
  8
TOPLAYER
 10
336.71600169999988
 20
376.00800083999991
 30
0.0
 42
1.0
  0
VERTEX
  5
AE9
  8
TOPLAYER
 10
339.9160003799999
 20
376.00800083999991
 30
0.0
 42
1.0
  0
SEQEND
  5
AEA
  8
TOPLAYER
  0
POLYLINE
  5
4AB
  8
TOPLAYER
 66
     1
 10
0.0
 20
0.0
 30
0.0
 70
     1
 40
3.1999986799999989
 41
3.1999986799999989
  0
VERTEX
  5
AEB
  8
TOPLAYER
 10
336.71600169999988
 20
386.00800115999999
 30
0.0
 42
1.0
  0
VERTEX
  5
AEC
  8
TOPLAYER
 10
339.9160003799999
 20
386.00800115999999
 30
0.0
 42
1.0
  0
SEQEND
  5
AED
  8
TOPLAYER
  0
POLYLINE
  5
4AF
  8
TOPLAYER
 66
     1
 10
0.0
 20
0.0
 30
0.0
 40
6.3999999000000001
 41
6.3999999000000001
  0
VERTEX
  5
AEE
  8
TOPLAYER
 10
338.31600104
 20
356.00800019999991
 30
0.0
 42
-0.9999999999992555
  0
VERTEX
  5
AEF
  8
TOPLAYER
 10
338.31600104
 20
366.00800052
 30
0.0
  0
SEQEND
  5
AF0
  8
TOPLAYER
  0
POLYLINE
  5
4B3
  8
TOPLAYER
 66
     1
 10
0.0
 20
0.0
 30
0.0
 70
     1
 40
3.1999986799999989
 41
3.1999986799999989
  0
VERTEX
  5
AF1
  8
TOPLAYER
 10
336.71600169999988
 20
356.00800019999991
 30
0.0
 42
1.0
  0
VERTEX
  5
AF2
  8
TOPLAYER
 10
339.9160003799999
 20
356.00800019999991
 30
0.0
 42
1.0
  0
SEQEND
  5
AF3
  8
TOPLAYER
  0
POLYLINE
  5
4B7
  8
TOPLAYER
 66
     1
 10
0.0
 20
0.0
 30
0.0
 70
     1
 40
3.1999986799999989
 41
3.1999986799999989
  0
VERTEX
  5
AF4
  8
TOPLAYER
 10
336.71600169999988
 20
366.00800052
 30
0.0
 42
1.0
  0
VERTEX
  5
AF5
  8
TOPLAYER
 10
339.9160003799999
 20
366.00800052
 30
0.0
 42
1.0
  0
SEQEND
  5
AF6
  8
TOPLAYER
  0
POLYLINE
  5
4BB
  8
TOPLAYER
 66
     1
 10
0.0
 20
0.0
 30
0.0
 40
6.3999999000000001
 41
6.3999999000000001
  0
VERTEX
  5
AF7
  8
TOPLAYER
 10
338.31600104
 20
336.00799955999992
 30
0.0
 42
-0.9999999999992555
  0
VERTEX
  5
AF8
  8
TOPLAYER
 10
338.31600104
 20
346.00799987999989
 30
0.0
  0
SEQEND
  5
AF9
  8
TOPLAYER
  0
POLYLINE
  5
4BF
  8
TOPLAYER
 66
     1
 10
0.0
 20
0.0
 30
0.0
 70
     1
 40
3.1999986799999989
 41
3.1999986799999989
  0
VERTEX
  5
AFA
  8
TOPLAYER
 10
336.71600169999988
 20
336.00799955999992
 30
0.0
 42
1.0
  0
VERTEX
  5
AFB
  8
TOPLAYER
 10
339.9160003799999
 20
336.00799955999992
 30
0.0
 42
1.0
  0
SEQEND
  5
AFC
  8
TOPLAYER
  0
POLYLINE
  5
4C3
  8
TOPLAYER
 66
     1
 10
0.0
 20
0.0
 30
0.0
 70
     1
 40
3.1999986799999989
 41
3.1999986799999989
  0
VERTEX
  5
AFD
  8
TOPLAYER
 10
336.71600169999988
 20
346.00799987999989
 30
0.0
 42
1.0
  0
VERTEX
  5
AFE
  8
TOPLAYER
 10
339.9160003799999
 20
346.00799987999989
 30
0.0
 42
1.0
  0
SEQEND
  5
AFF
  8
TOPLAYER
  0
POLYLINE
  5
4C7
  8
TOPLAYER
 66
     1
 10
0.0
 20
0.0
 30
0.0
 40
6.3999999000000001
 41
6.3999999000000001
  0
VERTEX
  5
B00
  8
TOPLAYER
 10
338.31600104
 20
316.00799891999992
 30
0.0
 42
-0.9999999999992555
  0
VERTEX
  5
B01
  8
TOPLAYER
 10
338.31600104
 20
326.00799924
 30
0.0
  0
SEQEND
  5
B02
  8
TOPLAYER
  0
POLYLINE
  5
4CB
  8
TOPLAYER
 66
     1
 10
0.0
 20
0.0
 30
0.0
 70
     1
 40
3.1999986799999989
 41
3.1999986799999989
  0
VERTEX
  5
B03
  8
TOPLAYER
 10
336.71600169999988
 20
316.00799891999992
 30
0.0
 42
1.0
  0
VERTEX
  5
B04
  8
TOPLAYER
 10
339.9160003799999
 20
316.00799891999992
 30
0.0
 42
1.0
  0
SEQEND
  5
B05
  8
TOPLAYER
  0
POLYLINE
  5
4CF
  8
TOPLAYER
 66
     1
 10
0.0
 20
0.0
 30
0.0
 70
     1
 40
3.1999986799999989
 41
3.1999986799999989
  0
VERTEX
  5
B06
  8
TOPLAYER
 10
336.71600169999988
 20
326.00799924
 30
0.0
 42
1.0
  0
VERTEX
  5
B07
  8
TOPLAYER
 10
339.9160003799999
 20
326.00799924
 30
0.0
 42
1.0
  0
SEQEND
  5
B08
  8
TOPLAYER
  0
POLYLINE
  5
4D3
  8
TOPLAYER
 66
     1
 10
0.0
 20
0.0
 30
0.0
 40
6.3999999000000001
 41
6.3999999000000001
  0
VERTEX
  5
B09
  8
TOPLAYER
 10
338.31600104
 20
289.00799957999988
 30
0.0
 42
-0.9999999999992555
  0
VERTEX
  5
B0A
  8
TOPLAYER
 10
338.31600104
 20
299.0079998999999
 30
0.0
  0
SEQEND
  5
B0B
  8
TOPLAYER
  0
POLYLINE
  5
4D7
  8
TOPLAYER
 66
     1
 10
0.0
 20
0.0
 30
0.0
 70
     1
 40
3.1999986799999989
 41
3.1999986799999989
  0
VERTEX
  5
B0C
  8
TOPLAYER
 10
336.71600169999988
 20
289.00799957999988
 30
0.0
 42
1.0
  0
VERTEX
  5
B0D
  8
TOPLAYER
 10
339.9160003799999
 20
289.00799957999988
 30
0.0
 42
1.0
  0
SEQEND
  5
B0E
  8
TOPLAYER
  0
POLYLINE
  5
4DB
  8
TOPLAYER
 66
     1
 10
0.0
 20
0.0
 30
0.0
 70
     1
 40
3.1999986799999989
 41
3.1999986799999989
  0
VERTEX
  5
B0F
  8
TOPLAYER
 10
336.71600169999988
 20
299.0079998999999
 30
0.0
 42
1.0
  0
VERTEX
  5
B10
  8
TOPLAYER
 10
339.9160003799999
 20
299.0079998999999
 30
0.0
 42
1.0
  0
SEQEND
  5
B11
  8
TOPLAYER
  0
POLYLINE
  5
4DF
  8
TOPLAYER
 66
     1
 10
0.0
 20
0.0
 30
0.0
 40
6.3999999000000001
 41
6.3999999000000001
  0
VERTEX
  5
B12
  8
TOPLAYER
 10
338.31600104
 20
269.00799893999999
 30
0.0
 42
-0.9999999999992555
  0
VERTEX
  5
B13
  8
TOPLAYER
 10
338.31600104
 20
279.00799925999991
 30
0.0
  0
SEQEND
  5
B14
  8
TOPLAYER
  0
POLYLINE
  5
4E3
  8
TOPLAYER
 66
     1
 10
0.0
 20
0.0
 30
0.0
 70
     1
 40
3.1999986799999989
 41
3.1999986799999989
  0
VERTEX
  5
B15
  8
TOPLAYER
 10
336.71600169999988
 20
269.00799893999999
 30
0.0
 42
1.0
  0
VERTEX
  5
B16
  8
TOPLAYER
 10
339.9160003799999
 20
269.00799893999999
 30
0.0
 42
1.0
  0
SEQEND
  5
B17
  8
TOPLAYER
  0
POLYLINE
  5
4E7
  8
TOPLAYER
 66
     1
 10
0.0
 20
0.0
 30
0.0
 70
     1
 40
3.1999986799999989
 41
3.1999986799999989
  0
VERTEX
  5
B18
  8
TOPLAYER
 10
336.71600169999988
 20
279.00799925999991
 30
0.0
 42
1.0
  0
VERTEX
  5
B19
  8
TOPLAYER
 10
339.9160003799999
 20
279.00799925999991
 30
0.0
 42
1.0
  0
SEQEND
  5
B1A
  8
TOPLAYER
  0
POLYLINE
  5
4EB
  8
TOPLAYER
 66
     1
 10
0.0
 20
0.0
 30
0.0
 40
6.3999999000000001
 41
6.3999999000000001
  0
VERTEX
  5
B1B
  8
TOPLAYER
 10
338.31600104
 20
249.00800083999999
 30
0.0
 42
-0.9999999999992555
  0
VERTEX
  5
B1C
  8
TOPLAYER
 10
338.31600104
 20
259.00800115999999
 30
0.0
  0
SEQEND
  5
B1D
  8
TOPLAYER
  0
POLYLINE
  5
4EF
  8
TOPLAYER
 66
     1
 10
0.0
 20
0.0
 30
0.0
 70
     1
 40
3.1999986799999989
 41
3.1999986799999989
  0
VERTEX
  5
B1E
  8
TOPLAYER
 10
336.71600169999988
 20
249.00800083999999
 30
0.0
 42
1.0
  0
VERTEX
  5
B1F
  8
TOPLAYER
 10
339.9160003799999
 20
249.00800083999999
 30
0.0
 42
1.0
  0
SEQEND
  5
B20
  8
TOPLAYER
  0
POLYLINE
  5
4F3
  8
TOPLAYER
 66
     1
 10
0.0
 20
0.0
 30
0.0
 70
     1
 40
3.1999986799999989
 41
3.1999986799999989
  0
VERTEX
  5
B21
  8
TOPLAYER
 10
336.71600169999988
 20
259.00800115999999
 30
0.0
 42
1.0
  0
VERTEX
  5
B22
  8
TOPLAYER
 10
339.9160003799999
 20
259.00800115999999
 30
0.0
 42
1.0
  0
SEQEND
  5
B23
  8
TOPLAYER
  0
POLYLINE
  5
4F7
  8
TOPLAYER
 66
     1
 10
0.0
 20
0.0
 30
0.0
 40
6.3999999000000001
 41
6.3999999000000001
  0
VERTEX
  5
B24
  8
TOPLAYER
 10
338.31600104
 20
229.00800019999991
 30
0.0
 42
-0.9999999999992555
  0
VERTEX
  5
B25
  8
TOPLAYER
 10
338.31600104
 20
239.00800052
 30
0.0
  0
SEQEND
  5
B26
  8
TOPLAYER
  0
POLYLINE
  5
4FB
  8
TOPLAYER
 66
     1
 10
0.0
 20
0.0
 30
0.0
 70
     1
 40
3.1999986799999989
 41
3.1999986799999989
  0
VERTEX
  5
B27
  8
TOPLAYER
 10
336.71600169999988
 20
229.00800019999991
 30
0.0
 42
1.0
  0
VERTEX
  5
B28
  8
TOPLAYER
 10
339.9160003799999
 20
229.00800019999991
 30
0.0
 42
1.0
  0
SEQEND
  5
B29
  8
TOPLAYER
  0
POLYLINE
  5
4FF
  8
TOPLAYER
 66
     1
 10
0.0
 20
0.0
 30
0.0
 70
     1
 40
3.1999986799999989
 41
3.1999986799999989
  0
VERTEX
  5
B2A
  8
TOPLAYER
 10
336.71600169999988
 20
239.00800052
 30
0.0
 42
1.0
  0
VERTEX
  5
B2B
  8
TOPLAYER
 10
339.9160003799999
 20
239.00800052
 30
0.0
 42
1.0
  0
SEQEND
  5
B2C
  8
TOPLAYER
  0
POLYLINE
  5
503
  8
TOPLAYER
 66
     1
 10
0.0
 20
0.0
 30
0.0
 40
6.3999999000000001
 41
6.3999999000000001
  0
VERTEX
  5
B2D
  8
TOPLAYER
 10
1720.8159995599999
 20
316.00800146
 30
0.0
 42
-0.9999999999992555
  0
VERTEX
  5
B2E
  8
TOPLAYER
 10
1720.8159995599999
 20
299.0079998999999
 30
0.0
  0
SEQEND
  5
B2F
  8
TOPLAYER
  0
POLYLINE
  5
507
  8
TOPLAYER
 66
     1
 10
0.0
 20
0.0
 30
0.0
 70
     1
 40
3.1999986799999989
 41
3.1999986799999989
  0
VERTEX
  5
B30
  8
TOPLAYER
 10
1719.2160002199989
 20
316.00800146
 30
0.0
 42
1.0
  0
VERTEX
  5
B31
  8
TOPLAYER
 10
1722.4159989
 20
316.00800146
 30
0.0
 42
1.0
  0
SEQEND
  5
B32
  8
TOPLAYER
  0
POLYLINE
  5
50B
  8
TOPLAYER
 66
     1
 10
0.0
 20
0.0
 30
0.0
 70
     1
 40
3.1999986799999989
 41
3.1999986799999989
  0
VERTEX
  5
B33
  8
TOPLAYER
 10
1719.2160002199989
 20
299.0079998999999
 30
0.0
 42
1.0
  0
VERTEX
  5
B34
  8
TOPLAYER
 10
1722.4159989
 20
299.0079998999999
 30
0.0
 42
1.0
  0
SEQEND
  5
B35
  8
TOPLAYER
  0
POLYLINE
  5
50F
  8
TOPLAYER
 66
     1
 10
0.0
 20
0.0
 30
0.0
 40
6.3999999000000001
 41
6.3999999000000001
  0
VERTEX
  5
B36
  8
TOPLAYER
 10
1724.316000179999
 20
289.00799957999988
 30
0.0
 42
-0.9999999999992555
  0
VERTEX
  5
B37
  8
TOPLAYER
 10
1724.316000179999
 20
279.00799925999991
 30
0.0
  0
SEQEND
  5
B38
  8
TOPLAYER
  0
POLYLINE
  5
513
  8
TOPLAYER
 66
     1
 10
0.0
 20
0.0
 30
0.0
 70
     1
 40
3.1999986799999989
 41
3.1999986799999989
  0
VERTEX
  5
B39
  8
TOPLAYER
 10
1722.7160008400001
 20
289.00799957999988
 30
0.0
 42
1.0
  0
VERTEX
  5
B3A
  8
TOPLAYER
 10
1725.91599952
 20
289.00799957999988
 30
0.0
 42
1.0
  0
SEQEND
  5
B3B
  8
TOPLAYER
  0
POLYLINE
  5
517
  8
TOPLAYER
 66
     1
 10
0.0
 20
0.0
 30
0.0
 70
     1
 40
3.1999986799999989
 41
3.1999986799999989
  0
VERTEX
  5
B3C
  8
TOPLAYER
 10
1722.7160008400001
 20
279.00799925999991
 30
0.0
 42
1.0
  0
VERTEX
  5
B3D
  8
TOPLAYER
 10
1725.91599952
 20
279.00799925999991
 30
0.0
 42
1.0
  0
SEQEND
  5
B3E
  8
TOPLAYER
  0
POLYLINE
  5
51B
  8
TOPLAYER
 66
     1
 10
0.0
 20
0.0
 30
0.0
 40
6.3999999000000001
 41
6.3999999000000001
  0
VERTEX
  5
B3F
  8
TOPLAYER
 10
1724.316000179999
 20
269.00799893999999
 30
0.0
 42
-0.9999999999992555
  0
VERTEX
  5
B40
  8
TOPLAYER
 10
1724.316000179999
 20
259.00799861999991
 30
0.0
  0
SEQEND
  5
B41
  8
TOPLAYER
  0
POLYLINE
  5
51F
  8
TOPLAYER
 66
     1
 10
0.0
 20
0.0
 30
0.0
 70
     1
 40
3.1999986799999989
 41
3.1999986799999989
  0
VERTEX
  5
B42
  8
TOPLAYER
 10
1722.7160008400001
 20
269.00799893999999
 30
0.0
 42
1.0
  0
VERTEX
  5
B43
  8
TOPLAYER
 10
1725.91599952
 20
269.00799893999999
 30
0.0
 42
1.0
  0
SEQEND
  5
B44
  8
TOPLAYER
  0
POLYLINE
  5
523
  8
TOPLAYER
 66
     1
 10
0.0
 20
0.0
 30
0.0
 70
     1
 40
3.1999986799999989
 41
3.1999986799999989
  0
VERTEX
  5
B45
  8
TOPLAYER
 10
1722.7160008400001
 20
259.00799861999991
 30
0.0
 42
1.0
  0
VERTEX
  5
B46
  8
TOPLAYER
 10
1725.91599952
 20
259.00799861999991
 30
0.0
 42
1.0
  0
SEQEND
  5
B47
  8
TOPLAYER
  0
POLYLINE
  5
527
  8
TOPLAYER
 66
     1
 10
0.0
 20
0.0
 30
0.0
 40
6.3999999000000001
 41
6.3999999000000001
  0
VERTEX
  5
B48
  8
TOPLAYER
 10
1724.316000179999
 20
249.00800083999999
 30
0.0
 42
-0.9999999999992555
  0
VERTEX
  5
B49
  8
TOPLAYER
 10
1724.316000179999
 20
239.00800052
 30
0.0
  0
SEQEND
  5
B4A
  8
TOPLAYER
  0
POLYLINE
  5
52B
  8
TOPLAYER
 66
     1
 10
0.0
 20
0.0
 30
0.0
 70
     1
 40
3.1999986799999989
 41
3.1999986799999989
  0
VERTEX
  5
B4B
  8
TOPLAYER
 10
1722.7160008400001
 20
249.00800083999999
 30
0.0
 42
1.0
  0
VERTEX
  5
B4C
  8
TOPLAYER
 10
1725.91599952
 20
249.00800083999999
 30
0.0
 42
1.0
  0
SEQEND
  5
B4D
  8
TOPLAYER
  0
POLYLINE
  5
52F
  8
TOPLAYER
 66
     1
 10
0.0
 20
0.0
 30
0.0
 70
     1
 40
3.1999986799999989
 41
3.1999986799999989
  0
VERTEX
  5
B4E
  8
TOPLAYER
 10
1722.7160008400001
 20
239.00800052
 30
0.0
 42
1.0
  0
VERTEX
  5
B4F
  8
TOPLAYER
 10
1725.91599952
 20
239.00800052
 30
0.0
 42
1.0
  0
SEQEND
  5
B50
  8
TOPLAYER
  0
POLYLINE
  5
533
  8
TOPLAYER
 66
     1
 10
0.0
 20
0.0
 30
0.0
 40
6.3999999000000001
 41
6.3999999000000001
  0
VERTEX
  5
B51
  8
TOPLAYER
 10
1724.316000179999
 20
229.00800019999991
 30
0.0
 42
-0.9999999999992555
  0
VERTEX
  5
B52
  8
TOPLAYER
 10
1724.316000179999
 20
219.00799987999989
 30
0.0
  0
SEQEND
  5
B53
  8
TOPLAYER
  0
POLYLINE
  5
537
  8
TOPLAYER
 66
     1
 10
0.0
 20
0.0
 30
0.0
 70
     1
 40
3.1999986799999989
 41
3.1999986799999989
  0
VERTEX
  5
B54
  8
TOPLAYER
 10
1722.7160008400001
 20
229.00800019999991
 30
0.0
 42
1.0
  0
VERTEX
  5
B55
  8
TOPLAYER
 10
1725.91599952
 20
229.00800019999991
 30
0.0
 42
1.0
  0
SEQEND
  5
B56
  8
TOPLAYER
  0
POLYLINE
  5
53B
  8
TOPLAYER
 66
     1
 10
0.0
 20
0.0
 30
0.0
 70
     1
 40
3.1999986799999989
 41
3.1999986799999989
  0
VERTEX
  5
B57
  8
TOPLAYER
 10
1722.7160008400001
 20
219.00799987999989
 30
0.0
 42
1.0
  0
VERTEX
  5
B58
  8
TOPLAYER
 10
1725.91599952
 20
219.00799987999989
 30
0.0
 42
1.0
  0
SEQEND
  5
B59
  8
TOPLAYER
  0
POLYLINE
  5
53F
  8
TOPLAYER
 66
     1
 10
0.0
 20
0.0
 30
0.0
 40
6.3999999000000001
 41
6.3999999000000001
  0
VERTEX
  5
B5A
  8
TOPLAYER
 10
1720.8159995599999
 20
483.00800019999991
 30
0.0
 42
-0.9999999999992555
  0
VERTEX
  5
B5B
  8
TOPLAYER
 10
1720.8159995599999
 20
466.00799863999993
 30
0.0
  0
SEQEND
  5
B5C
  8
TOPLAYER
  0
POLYLINE
  5
543
  8
TOPLAYER
 66
     1
 10
0.0
 20
0.0
 30
0.0
 70
     1
 40
3.1999986799999989
 41
3.1999986799999989
  0
VERTEX
  5
B5D
  8
TOPLAYER
 10
1719.2160002199989
 20
483.00800019999991
 30
0.0
 42
1.0
  0
VERTEX
  5
B5E
  8
TOPLAYER
 10
1722.4159989
 20
483.00800019999991
 30
0.0
 42
1.0
  0
SEQEND
  5
B5F
  8
TOPLAYER
  0
POLYLINE
  5
547
  8
TOPLAYER
 66
     1
 10
0.0
 20
0.0
 30
0.0
 70
     1
 40
3.1999986799999989
 41
3.1999986799999989
  0
VERTEX
  5
B60
  8
TOPLAYER
 10
1719.2160002199989
 20
466.00799863999993
 30
0.0
 42
1.0
  0
VERTEX
  5
B61
  8
TOPLAYER
 10
1722.4159989
 20
466.00799863999993
 30
0.0
 42
1.0
  0
SEQEND
  5
B62
  8
TOPLAYER
  0
POLYLINE
  5
54B
  8
TOPLAYER
 66
     1
 10
0.0
 20
0.0
 30
0.0
 40
6.3999999000000001
 41
6.3999999000000001
  0
VERTEX
  5
B63
  8
TOPLAYER
 10
1724.316000179999
 20
336.00799955999992
 30
0.0
 42
-0.9999999999992555
  0
VERTEX
  5
B64
  8
TOPLAYER
 10
1724.316000179999
 20
326.00799924
 30
0.0
  0
SEQEND
  5
B65
  8
TOPLAYER
  0
POLYLINE
  5
54F
  8
TOPLAYER
 66
     1
 10
0.0
 20
0.0
 30
0.0
 70
     1
 40
3.1999986799999989
 41
3.1999986799999989
  0
VERTEX
  5
B66
  8
TOPLAYER
 10
1722.7160008400001
 20
336.00799955999992
 30
0.0
 42
1.0
  0
VERTEX
  5
B67
  8
TOPLAYER
 10
1725.91599952
 20
336.00799955999992
 30
0.0
 42
1.0
  0
SEQEND
  5
B68
  8
TOPLAYER
  0
POLYLINE
  5
553
  8
TOPLAYER
 66
     1
 10
0.0
 20
0.0
 30
0.0
 70
     1
 40
3.1999986799999989
 41
3.1999986799999989
  0
VERTEX
  5
B69
  8
TOPLAYER
 10
1722.7160008400001
 20
326.00799924
 30
0.0
 42
1.0
  0
VERTEX
  5
B6A
  8
TOPLAYER
 10
1725.91599952
 20
326.00799924
 30
0.0
 42
1.0
  0
SEQEND
  5
B6B
  8
TOPLAYER
  0
POLYLINE
  5
557
  8
TOPLAYER
 66
     1
 10
0.0
 20
0.0
 30
0.0
 40
6.3999999000000001
 41
6.3999999000000001
  0
VERTEX
  5
B6C
  8
TOPLAYER
 10
1724.316000179999
 20
356.00800019999991
 30
0.0
 42
-0.9999999999992555
  0
VERTEX
  5
B6D
  8
TOPLAYER
 10
1724.316000179999
 20
346.00799987999989
 30
0.0
  0
SEQEND
  5
B6E
  8
TOPLAYER
  0
POLYLINE
  5
55B
  8
TOPLAYER
 66
     1
 10
0.0
 20
0.0
 30
0.0
 70
     1
 40
3.1999986799999989
 41
3.1999986799999989
  0
VERTEX
  5
B6F
  8
TOPLAYER
 10
1722.7160008400001
 20
356.00800019999991
 30
0.0
 42
1.0
  0
VERTEX
  5
B70
  8
TOPLAYER
 10
1725.91599952
 20
356.00800019999991
 30
0.0
 42
1.0
  0
SEQEND
  5
B71
  8
TOPLAYER
  0
POLYLINE
  5
55F
  8
TOPLAYER
 66
     1
 10
0.0
 20
0.0
 30
0.0
 70
     1
 40
3.1999986799999989
 41
3.1999986799999989
  0
VERTEX
  5
B72
  8
TOPLAYER
 10
1722.7160008400001
 20
346.00799987999989
 30
0.0
 42
1.0
  0
VERTEX
  5
B73
  8
TOPLAYER
 10
1725.91599952
 20
346.00799987999989
 30
0.0
 42
1.0
  0
SEQEND
  5
B74
  8
TOPLAYER
  0
POLYLINE
  5
563
  8
TOPLAYER
 66
     1
 10
0.0
 20
0.0
 30
0.0
 40
6.3999999000000001
 41
6.3999999000000001
  0
VERTEX
  5
B75
  8
TOPLAYER
 10
1724.316000179999
 20
376.00800083999991
 30
0.0
 42
-0.9999999999992555
  0
VERTEX
  5
B76
  8
TOPLAYER
 10
1724.316000179999
 20
366.00800052
 30
0.0
  0
SEQEND
  5
B77
  8
TOPLAYER
  0
POLYLINE
  5
567
  8
TOPLAYER
 66
     1
 10
0.0
 20
0.0
 30
0.0
 70
     1
 40
3.1999986799999989
 41
3.1999986799999989
  0
VERTEX
  5
B78
  8
TOPLAYER
 10
1722.7160008400001
 20
376.00800083999991
 30
0.0
 42
1.0
  0
VERTEX
  5
B79
  8
TOPLAYER
 10
1725.91599952
 20
376.00800083999991
 30
0.0
 42
1.0
  0
SEQEND
  5
B7A
  8
TOPLAYER
  0
POLYLINE
  5
56B
  8
TOPLAYER
 66
     1
 10
0.0
 20
0.0
 30
0.0
 70
     1
 40
3.1999986799999989
 41
3.1999986799999989
  0
VERTEX
  5
B7B
  8
TOPLAYER
 10
1722.7160008400001
 20
366.00800052
 30
0.0
 42
1.0
  0
VERTEX
  5
B7C
  8
TOPLAYER
 10
1725.91599952
 20
366.00800052
 30
0.0
 42
1.0
  0
SEQEND
  5
B7D
  8
TOPLAYER
  0
POLYLINE
  5
56F
  8
TOPLAYER
 66
     1
 10
0.0
 20
0.0
 30
0.0
 40
6.3999999000000001
 41
6.3999999000000001
  0
VERTEX
  5
B7E
  8
TOPLAYER
 10
1724.316000179999
 20
396.00799893999999
 30
0.0
 42
-0.9999999999992555
  0
VERTEX
  5
B7F
  8
TOPLAYER
 10
1724.316000179999
 20
386.00799861999991
 30
0.0
  0
SEQEND
  5
B80
  8
TOPLAYER
  0
POLYLINE
  5
573
  8
TOPLAYER
 66
     1
 10
0.0
 20
0.0
 30
0.0
 70
     1
 40
3.1999986799999989
 41
3.1999986799999989
  0
VERTEX
  5
B81
  8
TOPLAYER
 10
1722.7160008400001
 20
396.00799893999999
 30
0.0
 42
1.0
  0
VERTEX
  5
B82
  8
TOPLAYER
 10
1725.91599952
 20
396.00799893999999
 30
0.0
 42
1.0
  0
SEQEND
  5
B83
  8
TOPLAYER
  0
POLYLINE
  5
577
  8
TOPLAYER
 66
     1
 10
0.0
 20
0.0
 30
0.0
 70
     1
 40
3.1999986799999989
 41
3.1999986799999989
  0
VERTEX
  5
B84
  8
TOPLAYER
 10
1722.7160008400001
 20
386.00799861999991
 30
0.0
 42
1.0
  0
VERTEX
  5
B85
  8
TOPLAYER
 10
1725.91599952
 20
386.00799861999991
 30
0.0
 42
1.0
  0
SEQEND
  5
B86
  8
TOPLAYER
  0
POLYLINE
  5
57B
  8
TOPLAYER
 66
     1
 10
0.0
 20
0.0
 30
0.0
 40
6.3999999000000001
 41
6.3999999000000001
  0
VERTEX
  5
B87
  8
TOPLAYER
 10
1724.316000179999
 20
416.00799957999999
 30
0.0
 42
-0.9999999999992555
  0
VERTEX
  5
B88
  8
TOPLAYER
 10
1724.316000179999
 20
406.00799925999991
 30
0.0
  0
SEQEND
  5
B89
  8
TOPLAYER
  0
POLYLINE
  5
57F
  8
TOPLAYER
 66
     1
 10
0.0
 20
0.0
 30
0.0
 70
     1
 40
3.1999986799999989
 41
3.1999986799999989
  0
VERTEX
  5
B8A
  8
TOPLAYER
 10
1722.7160008400001
 20
416.00799957999999
 30
0.0
 42
1.0
  0
VERTEX
  5
B8B
  8
TOPLAYER
 10
1725.91599952
 20
416.00799957999999
 30
0.0
 42
1.0
  0
SEQEND
  5
B8C
  8
TOPLAYER
  0
POLYLINE
  5
583
  8
TOPLAYER
 66
     1
 10
0.0
 20
0.0
 30
0.0
 70
     1
 40
3.1999986799999989
 41
3.1999986799999989
  0
VERTEX
  5
B8D
  8
TOPLAYER
 10
1722.7160008400001
 20
406.00799925999991
 30
0.0
 42
1.0
  0
VERTEX
  5
B8E
  8
TOPLAYER
 10
1725.91599952
 20
406.00799925999991
 30
0.0
 42
1.0
  0
SEQEND
  5
B8F
  8
TOPLAYER
  0
POLYLINE
  5
587
  8
TOPLAYER
 66
     1
 10
0.0
 20
0.0
 30
0.0
 40
6.3999999000000001
 41
6.3999999000000001
  0
VERTEX
  5
B90
  8
TOPLAYER
 10
1724.316000179999
 20
436.0079976799999
 30
0.0
 42
-0.9999999999992555
  0
VERTEX
  5
B91
  8
TOPLAYER
 10
1724.316000179999
 20
426.00799735999988
 30
0.0
  0
SEQEND
  5
B92
  8
TOPLAYER
  0
POLYLINE
  5
58B
  8
TOPLAYER
 66
     1
 10
0.0
 20
0.0
 30
0.0
 70
     1
 40
3.1999986799999989
 41
3.1999986799999989
  0
VERTEX
  5
B93
  8
TOPLAYER
 10
1722.7160008400001
 20
436.0079976799999
 30
0.0
 42
1.0
  0
VERTEX
  5
B94
  8
TOPLAYER
 10
1725.91599952
 20
436.0079976799999
 30
0.0
 42
1.0
  0
SEQEND
  5
B95
  8
TOPLAYER
  0
POLYLINE
  5
58F
  8
TOPLAYER
 66
     1
 10
0.0
 20
0.0
 30
0.0
 70
     1
 40
3.1999986799999989
 41
3.1999986799999989
  0
VERTEX
  5
B96
  8
TOPLAYER
 10
1722.7160008400001
 20
426.00799735999988
 30
0.0
 42
1.0
  0
VERTEX
  5
B97
  8
TOPLAYER
 10
1725.91599952
 20
426.00799735999988
 30
0.0
 42
1.0
  0
SEQEND
  5
B98
  8
TOPLAYER
  0
POLYLINE
  5
593
  8
TOPLAYER
 66
     1
 10
0.0
 20
0.0
 30
0.0
 40
6.3999999000000001
 41
6.3999999000000001
  0
VERTEX
  5
B99
  8
TOPLAYER
 10
1724.316000179999
 20
456.0079983199999
 30
0.0
 42
-0.9999999999992555
  0
VERTEX
  5
B9A
  8
TOPLAYER
 10
1724.316000179999
 20
446.00799799999987
 30
0.0
  0
SEQEND
  5
B9B
  8
TOPLAYER
  0
POLYLINE
  5
597
  8
TOPLAYER
 66
     1
 10
0.0
 20
0.0
 30
0.0
 70
     1
 40
3.1999986799999989
 41
3.1999986799999989
  0
VERTEX
  5
B9C
  8
TOPLAYER
 10
1722.7160008400001
 20
456.0079983199999
 30
0.0
 42
1.0
  0
VERTEX
  5
B9D
  8
TOPLAYER
 10
1725.91599952
 20
456.0079983199999
 30
0.0
 42
1.0
  0
SEQEND
  5
B9E
  8
TOPLAYER
  0
POLYLINE
  5
59B
  8
TOPLAYER
 66
     1
 10
0.0
 20
0.0
 30
0.0
 70
     1
 40
3.1999986799999989
 41
3.1999986799999989
  0
VERTEX
  5
B9F
  8
TOPLAYER
 10
1722.7160008400001
 20
446.00799799999987
 30
0.0
 42
1.0
  0
VERTEX
  5
BA0
  8
TOPLAYER
 10
1725.91599952
 20
446.00799799999987
 30
0.0
 42
1.0
  0
SEQEND
  5
BA1
  8
TOPLAYER
  0
POLYLINE
  5
59F
  8
TOPLAYER
 66
     1
 10
0.0
 20
0.0
 30
0.0
 40
6.3999999000000001
 41
6.3999999000000001
  0
VERTEX
  5
BA2
  8
TOPLAYER
 10
1724.316000179999
 20
503.00800083999991
 30
0.0
 42
-0.9999999999992555
  0
VERTEX
  5
BA3
  8
TOPLAYER
 10
1724.316000179999
 20
493.00800051999988
 30
0.0
  0
SEQEND
  5
BA4
  8
TOPLAYER
  0
POLYLINE
  5
5A3
  8
TOPLAYER
 66
     1
 10
0.0
 20
0.0
 30
0.0
 70
     1
 40
3.1999986799999989
 41
3.1999986799999989
  0
VERTEX
  5
BA5
  8
TOPLAYER
 10
1722.7160008400001
 20
503.00800083999991
 30
0.0
 42
1.0
  0
VERTEX
  5
BA6
  8
TOPLAYER
 10
1725.91599952
 20
503.00800083999991
 30
0.0
 42
1.0
  0
SEQEND
  5
BA7
  8
TOPLAYER
  0
POLYLINE
  5
5A7
  8
TOPLAYER
 66
     1
 10
0.0
 20
0.0
 30
0.0
 70
     1
 40
3.1999986799999989
 41
3.1999986799999989
  0
VERTEX
  5
BA8
  8
TOPLAYER
 10
1722.7160008400001
 20
493.00800051999988
 30
0.0
 42
1.0
  0
VERTEX
  5
BA9
  8
TOPLAYER
 10
1725.91599952
 20
493.00800051999988
 30
0.0
 42
1.0
  0
SEQEND
  5
BAA
  8
TOPLAYER
  0
POLYLINE
  5
5AB
  8
TOPLAYER
 66
     1
 10
0.0
 20
0.0
 30
0.0
 40
6.3999999000000001
 41
6.3999999000000001
  0
VERTEX
  5
BAB
  8
TOPLAYER
 10
1724.316000179999
 20
523.00800147999985
 30
0.0
 42
-0.9999999999992555
  0
VERTEX
  5
BAC
  8
TOPLAYER
 10
1724.316000179999
 20
513.00800115999994
 30
0.0
  0
SEQEND
  5
BAD
  8
TOPLAYER
  0
POLYLINE
  5
5AF
  8
TOPLAYER
 66
     1
 10
0.0
 20
0.0
 30
0.0
 70
     1
 40
3.1999986799999989
 41
3.1999986799999989
  0
VERTEX
  5
BAE
  8
TOPLAYER
 10
1722.7160008400001
 20
523.00800147999985
 30
0.0
 42
1.0
  0
VERTEX
  5
BAF
  8
TOPLAYER
 10
1725.91599952
 20
523.00800147999985
 30
0.0
 42
1.0
  0
SEQEND
  5
BB0
  8
TOPLAYER
  0
POLYLINE
  5
5B3
  8
TOPLAYER
 66
     1
 10
0.0
 20
0.0
 30
0.0
 70
     1
 40
3.1999986799999989
 41
3.1999986799999989
  0
VERTEX
  5
BB1
  8
TOPLAYER
 10
1722.7160008400001
 20
513.00800115999994
 30
0.0
 42
1.0
  0
VERTEX
  5
BB2
  8
TOPLAYER
 10
1725.91599952
 20
513.00800115999994
 30
0.0
 42
1.0
  0
SEQEND
  5
BB3
  8
TOPLAYER
  0
POLYLINE
  5
5B7
  8
TOPLAYER
 66
     1
 10
0.0
 20
0.0
 30
0.0
 40
6.3999999000000001
 41
6.3999999000000001
  0
VERTEX
  5
BB4
  8
TOPLAYER
 10
1724.316000179999
 20
543.00799957999993
 30
0.0
 42
-0.9999999999992555
  0
VERTEX
  5
BB5
  8
TOPLAYER
 10
1724.316000179999
 20
533.00799925999991
 30
0.0
  0
SEQEND
  5
BB6
  8
TOPLAYER
  0
POLYLINE
  5
5BB
  8
TOPLAYER
 66
     1
 10
0.0
 20
0.0
 30
0.0
 70
     1
 40
3.1999986799999989
 41
3.1999986799999989
  0
VERTEX
  5
BB7
  8
TOPLAYER
 10
1722.7160008400001
 20
543.00799957999993
 30
0.0
 42
1.0
  0
VERTEX
  5
BB8
  8
TOPLAYER
 10
1725.91599952
 20
543.00799957999993
 30
0.0
 42
1.0
  0
SEQEND
  5
BB9
  8
TOPLAYER
  0
POLYLINE
  5
5BF
  8
TOPLAYER
 66
     1
 10
0.0
 20
0.0
 30
0.0
 70
     1
 40
3.1999986799999989
 41
3.1999986799999989
  0
VERTEX
  5
BBA
  8
TOPLAYER
 10
1722.7160008400001
 20
533.00799925999991
 30
0.0
 42
1.0
  0
VERTEX
  5
BBB
  8
TOPLAYER
 10
1725.91599952
 20
533.00799925999991
 30
0.0
 42
1.0
  0
SEQEND
  5
BBC
  8
TOPLAYER
  0
POLYLINE
  5
5C3
  8
TOPLAYER
 66
     1
 10
0.0
 20
0.0
 30
0.0
 40
6.3999999000000001
 41
6.3999999000000001
  0
VERTEX
  5
BBD
  8
TOPLAYER
 10
1724.316000179999
 20
563.00800021999987
 30
0.0
 42
-0.9999999999992555
  0
VERTEX
  5
BBE
  8
TOPLAYER
 10
1724.316000179999
 20
553.00799989999985
 30
0.0
  0
SEQEND
  5
BBF
  8
TOPLAYER
  0
POLYLINE
  5
5C7
  8
TOPLAYER
 66
     1
 10
0.0
 20
0.0
 30
0.0
 70
     1
 40
3.1999986799999989
 41
3.1999986799999989
  0
VERTEX
  5
BC0
  8
TOPLAYER
 10
1722.7160008400001
 20
563.00800021999987
 30
0.0
 42
1.0
  0
VERTEX
  5
BC1
  8
TOPLAYER
 10
1725.91599952
 20
563.00800021999987
 30
0.0
 42
1.0
  0
SEQEND
  5
BC2
  8
TOPLAYER
  0
POLYLINE
  5
5CB
  8
TOPLAYER
 66
     1
 10
0.0
 20
0.0
 30
0.0
 70
     1
 40
3.1999986799999989
 41
3.1999986799999989
  0
VERTEX
  5
BC3
  8
TOPLAYER
 10
1722.7160008400001
 20
553.00799989999985
 30
0.0
 42
1.0
  0
VERTEX
  5
BC4
  8
TOPLAYER
 10
1725.91599952
 20
553.00799989999985
 30
0.0
 42
1.0
  0
SEQEND
  5
BC5
  8
TOPLAYER
  0
POLYLINE
  5
5CF
  8
TOPLAYER
 66
     1
 10
0.0
 20
0.0
 30
0.0
 40
6.3999999000000001
 41
6.3999999000000001
  0
VERTEX
  5
BC6
  8
TOPLAYER
 10
1724.316000179999
 20
583.00800085999992
 30
0.0
 42
-0.9999999999992555
  0
VERTEX
  5
BC7
  8
TOPLAYER
 10
1724.316000179999
 20
573.00800054000001
 30
0.0
  0
SEQEND
  5
BC8
  8
TOPLAYER
  0
POLYLINE
  5
5D3
  8
TOPLAYER
 66
     1
 10
0.0
 20
0.0
 30
0.0
 70
     1
 40
3.1999986799999989
 41
3.1999986799999989
  0
VERTEX
  5
BC9
  8
TOPLAYER
 10
1722.7160008400001
 20
583.00800085999992
 30
0.0
 42
1.0
  0
VERTEX
  5
BCA
  8
TOPLAYER
 10
1725.91599952
 20
583.00800085999992
 30
0.0
 42
1.0
  0
SEQEND
  5
BCB
  8
TOPLAYER
  0
POLYLINE
  5
5D7
  8
TOPLAYER
 66
     1
 10
0.0
 20
0.0
 30
0.0
 70
     1
 40
3.1999986799999989
 41
3.1999986799999989
  0
VERTEX
  5
BCC
  8
TOPLAYER
 10
1722.7160008400001
 20
573.00800054000001
 30
0.0
 42
1.0
  0
VERTEX
  5
BCD
  8
TOPLAYER
 10
1725.91599952
 20
573.00800054000001
 30
0.0
 42
1.0
  0
SEQEND
  5
BCE
  8
TOPLAYER
  0
POLYLINE
  5
5DB
  8
TOPLAYER
 66
     1
 10
0.0
 20
0.0
 30
0.0
 40
6.3999999000000001
 41
6.3999999000000001
  0
VERTEX
  5
BCF
  8
TOPLAYER
 10
1724.316000179999
 20
209.00799956
 30
0.0
 42
-0.9999999999992555
  0
VERTEX
  5
BD0
  8
TOPLAYER
 10
1724.316000179999
 20
199.00799923999989
 30
0.0
  0
SEQEND
  5
BD1
  8
TOPLAYER
  0
POLYLINE
  5
5DF
  8
TOPLAYER
 66
     1
 10
0.0
 20
0.0
 30
0.0
 70
     1
 40
3.1999986799999989
 41
3.1999986799999989
  0
VERTEX
  5
BD2
  8
TOPLAYER
 10
1722.7160008400001
 20
209.00799956
 30
0.0
 42
1.0
  0
VERTEX
  5
BD3
  8
TOPLAYER
 10
1725.91599952
 20
209.00799956
 30
0.0
 42
1.0
  0
SEQEND
  5
BD4
  8
TOPLAYER
  0
POLYLINE
  5
5E3
  8
TOPLAYER
 66
     1
 10
0.0
 20
0.0
 30
0.0
 70
     1
 40
3.1999986799999989
 41
3.1999986799999989
  0
VERTEX
  5
BD5
  8
TOPLAYER
 10
1722.7160008400001
 20
199.00799923999989
 30
0.0
 42
1.0
  0
VERTEX
  5
BD6
  8
TOPLAYER
 10
1725.91599952
 20
199.00799923999989
 30
0.0
 42
1.0
  0
SEQEND
  5
BD7
  8
TOPLAYER
  0
POLYLINE
  5
5E7
  8
TOPLAYER
 66
     1
 10
0.0
 20
0.0
 30
0.0
 40
6.3999999000000001
 41
6.3999999000000001
  0
VERTEX
  5
BD8
  8
TOPLAYER
 10
338.31600104
 20
209.00799956
 30
0.0
 42
-0.9999999999992555
  0
VERTEX
  5
BD9
  8
TOPLAYER
 10
338.31600104
 20
219.00799987999989
 30
0.0
  0
SEQEND
  5
BDA
  8
TOPLAYER
  0
POLYLINE
  5
5EB
  8
TOPLAYER
 66
     1
 10
0.0
 20
0.0
 30
0.0
 70
     1
 40
3.1999986799999989
 41
3.1999986799999989
  0
VERTEX
  5
BDB
  8
TOPLAYER
 10
336.71600169999988
 20
209.00799956
 30
0.0
 42
1.0
  0
VERTEX
  5
BDC
  8
TOPLAYER
 10
339.9160003799999
 20
209.00799956
 30
0.0
 42
1.0
  0
SEQEND
  5
BDD
  8
TOPLAYER
  0
POLYLINE
  5
5EF
  8
TOPLAYER
 66
     1
 10
0.0
 20
0.0
 30
0.0
 70
     1
 40
3.1999986799999989
 41
3.1999986799999989
  0
VERTEX
  5
BDE
  8
TOPLAYER
 10
336.71600169999988
 20
219.00799987999989
 30
0.0
 42
1.0
  0
VERTEX
  5
BDF
  8
TOPLAYER
 10
339.9160003799999
 20
219.00799987999989
 30
0.0
 42
1.0
  0
SEQEND
  5
BE0
  8
TOPLAYER
  0
POLYLINE
  5
5F3
  8
TOPLAYER
 66
     1
 10
0.0
 20
0.0
 30
0.0
 70
     1
 40
0.0999998
 41
0.0999998
  0
VERTEX
  5
BE1
  8
TOPLAYER
 10
295.31599813999992
 20
468.00799971999999
 30
0.0
 42
1.0
  0
VERTEX
  5
BE2
  8
TOPLAYER
 10
285.31599782000001
 20
468.00799971999999
 30
0.0
 42
1.0
  0
SEQEND
  5
BE3
  8
TOPLAYER
  0
POLYLINE
  5
5F7
  8
TOPLAYER
 66
     1
 10
0.0
 20
0.0
 30
0.0
 70
     1
 40
0.0499999
 41
0.0499999
  0
VERTEX
  5
BE4
  8
TOPLAYER
 10
295.29099945999991
 20
468.00799971999999
 30
0.0
 42
1.0
  0
VERTEX
  5
BE5
  8
TOPLAYER
 10
295.34099681999987
 20
468.00799971999999
 30
0.0
 42
1.0
  0
SEQEND
  5
BE6
  8
TOPLAYER
  0
POLYLINE
  5
5FB
  8
TOPLAYER
 66
     1
 10
0.0
 20
0.0
 30
0.0
 70
     1
 40
0.0499999
 41
0.0499999
  0
VERTEX
  5
BE7
  8
TOPLAYER
 10
285.29099914
 20
468.00799971999999
 30
0.0
 42
1.0
  0
VERTEX
  5
BE8
  8
TOPLAYER
 10
285.3409964999999
 20
468.00799971999999
 30
0.0
 42
1.0
  0
SEQEND
  5
BE9
  8
TOPLAYER
  0
POLYLINE
  5
5FF
  8
TOPLAYER
 66
     1
 10
0.0
 20
0.0
 30
0.0
 70
     1
 40
0.0999998
 41
0.0999998
  0
VERTEX
  5
BEA
  8
TOPLAYER
 10
1765.3159994600001
 20
478.0080000399999
 30
0.0
 42
1.0
  0
VERTEX
  5
BEB
  8
TOPLAYER
 10
1755.3159991399989
 20
478.0080000399999
 30
0.0
 42
1.0
  0
SEQEND
  5
BEC
  8
TOPLAYER
  0
POLYLINE
  5
603
  8
TOPLAYER
 66
     1
 10
0.0
 20
0.0
 30
0.0
 70
     1
 40
0.0499999
 41
0.0499999
  0
VERTEX
  5
BED
  8
TOPLAYER
 10
1765.2910007800001
 20
478.0080000399999
 30
0.0
 42
1.0
  0
VERTEX
  5
BEE
  8
TOPLAYER
 10
1765.34099814
 20
478.0080000399999
 30
0.0
 42
1.0
  0
SEQEND
  5
BEF
  8
TOPLAYER
  0
POLYLINE
  5
607
  8
TOPLAYER
 66
     1
 10
0.0
 20
0.0
 30
0.0
 70
     1
 40
0.0499999
 41
0.0499999
  0
VERTEX
  5
BF0
  8
TOPLAYER
 10
1755.2910004599989
 20
478.0080000399999
 30
0.0
 42
1.0
  0
VERTEX
  5
BF1
  8
TOPLAYER
 10
1755.34099782
 20
478.0080000399999
 30
0.0
 42
1.0
  0
SEQEND
  5
BF2
  8
TOPLAYER
  0
POLYLINE
  5
60B
  8
TOPLAYER
 66
     1
 10
0.0
 20
0.0
 30
0.0
 40
2.9999990799999989
 41
2.9999990799999989
  0
VERTEX
  5
BF3
  8
TOPLAYER
 10
320.3160014799999
 20
473.75800091999997
 30
0.0
 42
-0.4142135623728771
  0
VERTEX
  5
BF4
  8
TOPLAYER
 10
323.31600055999991
 20
476.75799999999992
 30
0.0
  0
SEQEND
  5
BF5
  8
TOPLAYER
  0
POLYLINE
  5
60F
  8
TOPLAYER
 66
     1
 10
0.0
 20
0.0
 30
0.0
 70
     1
 40
1.499999539999999
 41
1.499999539999999
  0
VERTEX
  5
BF6
  8
TOPLAYER
 10
319.56600297999989
 20
473.75800091999997
 30
0.0
 42
1.0
  0
VERTEX
  5
BF7
  8
TOPLAYER
 10
321.0659999799999
 20
473.75800091999997
 30
0.0
 42
1.0
  0
SEQEND
  5
BF8
  8
TOPLAYER
  0
POLYLINE
  5
613
  8
TOPLAYER
 66
     1
 10
0.0
 20
0.0
 30
0.0
 70
     1
 40
1.499999539999999
 41
1.499999539999999
  0
VERTEX
  5
BF9
  8
TOPLAYER
 10
322.5660020599999
 20
476.75799999999992
 30
0.0
 42
1.0
  0
VERTEX
  5
BFA
  8
TOPLAYER
 10
324.06599905999991
 20
476.75799999999992
 30
0.0
 42
1.0
  0
SEQEND
  5
BFB
  8
TOPLAYER
  0
POLYLINE
  5
617
  8
TOPLAYER
 66
     1
 10
0.0
 20
0.0
 30
0.0
 40
2.9999990799999989
 41
2.9999990799999989
  0
VERTEX
  5
BFC
  8
TOPLAYER
 10
324.8160001
 20
469.2579997599999
 30
0.0
 42
-0.4142135623728771
  0
VERTEX
  5
BFD
  8
TOPLAYER
 10
327.81599917999989
 20
472.25799883999991
 30
0.0
  0
SEQEND
  5
BFE
  8
TOPLAYER
  0
POLYLINE
  5
61B
  8
TOPLAYER
 66
     1
 10
0.0
 20
0.0
 30
0.0
 70
     1
 40
1.499999539999999
 41
1.499999539999999
  0
VERTEX
  5
BFF
  8
TOPLAYER
 10
324.06600159999999
 20
469.2579997599999
 30
0.0
 42
1.0
  0
VERTEX
  5
C00
  8
TOPLAYER
 10
325.56599859999989
 20
469.2579997599999
 30
0.0
 42
1.0
  0
SEQEND
  5
C01
  8
TOPLAYER
  0
POLYLINE
  5
61F
  8
TOPLAYER
 66
     1
 10
0.0
 20
0.0
 30
0.0
 70
     1
 40
1.499999539999999
 41
1.499999539999999
  0
VERTEX
  5
C02
  8
TOPLAYER
 10
327.06600068
 20
472.25799883999991
 30
0.0
 42
1.0
  0
VERTEX
  5
C03
  8
TOPLAYER
 10
328.56599768000001
 20
472.25799883999991
 30
0.0
 42
1.0
  0
SEQEND
  5
C04
  8
TOPLAYER
  0
POLYLINE
  5
623
  8
TOPLAYER
 66
     1
 10
0.0
 20
0.0
 30
0.0
 40
2.9999990799999989
 41
2.9999990799999989
  0
VERTEX
  5
C05
  8
TOPLAYER
 10
323.31600055999991
 20
305.25800009999989
 30
0.0
 42
-0.4142135623728771
  0
VERTEX
  5
C06
  8
TOPLAYER
 10
320.3160014799999
 20
308.2579991799999
 30
0.0
  0
SEQEND
  5
C07
  8
TOPLAYER
  0
POLYLINE
  5
627
  8
TOPLAYER
 66
     1
 10
0.0
 20
0.0
 30
0.0
 70
     1
 40
1.499999539999999
 41
1.499999539999999
  0
VERTEX
  5
C08
  8
TOPLAYER
 10
322.5660020599999
 20
305.25800009999989
 30
0.0
 42
1.0
  0
VERTEX
  5
C09
  8
TOPLAYER
 10
324.06599905999991
 20
305.25800009999989
 30
0.0
 42
1.0
  0
SEQEND
  5
C0A
  8
TOPLAYER
  0
POLYLINE
  5
62B
  8
TOPLAYER
 66
     1
 10
0.0
 20
0.0
 30
0.0
 70
     1
 40
1.499999539999999
 41
1.499999539999999
  0
VERTEX
  5
C0B
  8
TOPLAYER
 10
319.56600297999989
 20
308.2579991799999
 30
0.0
 42
1.0
  0
VERTEX
  5
C0C
  8
TOPLAYER
 10
321.0659999799999
 20
308.2579991799999
 30
0.0
 42
1.0
  0
SEQEND
  5
C0D
  8
TOPLAYER
  0
POLYLINE
  5
62F
  8
TOPLAYER
 66
     1
 10
0.0
 20
0.0
 30
0.0
 40
2.9999990799999989
 41
2.9999990799999989
  0
VERTEX
  5
C0E
  8
TOPLAYER
 10
324.8160001
 20
418.00800065999988
 30
0.0
 42
-0.4142135623728771
  0
VERTEX
  5
C0F
  8
TOPLAYER
 10
321.81600101999999
 20
415.00800157999993
 30
0.0
  0
SEQEND
  5
C10
  8
TOPLAYER
  0
POLYLINE
  5
633
  8
TOPLAYER
 66
     1
 10
0.0
 20
0.0
 30
0.0
 70
     1
 40
1.499999539999999
 41
1.499999539999999
  0
VERTEX
  5
C11
  8
TOPLAYER
 10
324.06600159999999
 20
418.00800065999988
 30
0.0
 42
1.0
  0
VERTEX
  5
C12
  8
TOPLAYER
 10
325.56599859999989
 20
418.00800065999988
 30
0.0
 42
1.0
  0
SEQEND
  5
C13
  8
TOPLAYER
  0
POLYLINE
  5
637
  8
TOPLAYER
 66
     1
 10
0.0
 20
0.0
 30
0.0
 70
     1
 40
1.499999539999999
 41
1.499999539999999
  0
VERTEX
  5
C14
  8
TOPLAYER
 10
321.06600251999993
 20
415.00800157999993
 30
0.0
 42
1.0
  0
VERTEX
  5
C15
  8
TOPLAYER
 10
322.56599951999999
 20
415.00800157999993
 30
0.0
 42
1.0
  0
SEQEND
  5
C16
  8
TOPLAYER
  0
POLYLINE
  5
63B
  8
TOPLAYER
 66
     1
 10
0.0
 20
0.0
 30
0.0
 40
2.9999990799999989
 41
2.9999990799999989
  0
VERTEX
  5
C17
  8
TOPLAYER
 10
320.31599893999999
 20
423.00800081999989
 30
0.0
 42
-0.4142135623728771
  0
VERTEX
  5
C18
  8
TOPLAYER
 10
317.31599985999992
 20
420.00800174
 30
0.0
  0
SEQEND
  5
C19
  8
TOPLAYER
  0
POLYLINE
  5
63F
  8
TOPLAYER
 66
     1
 10
0.0
 20
0.0
 30
0.0
 70
     1
 40
1.499999539999999
 41
1.499999539999999
  0
VERTEX
  5
C1A
  8
TOPLAYER
 10
319.56600043999998
 20
423.00800081999989
 30
0.0
 42
1.0
  0
VERTEX
  5
C1B
  8
TOPLAYER
 10
321.06599743999988
 20
423.00800081999989
 30
0.0
 42
1.0
  0
SEQEND
  5
C1C
  8
TOPLAYER
  0
POLYLINE
  5
643
  8
TOPLAYER
 66
     1
 10
0.0
 20
0.0
 30
0.0
 70
     1
 40
1.499999539999999
 41
1.499999539999999
  0
VERTEX
  5
C1D
  8
TOPLAYER
 10
316.56600135999992
 20
420.00800174
 30
0.0
 42
1.0
  0
VERTEX
  5
C1E
  8
TOPLAYER
 10
318.06599835999998
 20
420.00800174
 30
0.0
 42
1.0
  0
SEQEND
  5
C1F
  8
TOPLAYER
  0
POLYLINE
  5
647
  8
TOPLAYER
 66
     1
 10
0.0
 20
0.0
 30
0.0
 40
2.9999990799999989
 41
2.9999990799999989
  0
VERTEX
  5
C20
  8
TOPLAYER
 10
321.81600101999999
 20
410.00799888
 30
0.0
 42
-0.4142135623728771
  0
VERTEX
  5
C21
  8
TOPLAYER
 10
324.8160001
 20
407.00799979999988
 30
0.0
  0
SEQEND
  5
C22
  8
TOPLAYER
  0
POLYLINE
  5
64B
  8
TOPLAYER
 66
     1
 10
0.0
 20
0.0
 30
0.0
 70
     1
 40
1.499999539999999
 41
1.499999539999999
  0
VERTEX
  5
C23
  8
TOPLAYER
 10
321.06600251999993
 20
410.00799888
 30
0.0
 42
1.0
  0
VERTEX
  5
C24
  8
TOPLAYER
 10
322.56599951999999
 20
410.00799888
 30
0.0
 42
1.0
  0
SEQEND
  5
C25
  8
TOPLAYER
  0
POLYLINE
  5
64F
  8
TOPLAYER
 66
     1
 10
0.0
 20
0.0
 30
0.0
 70
     1
 40
1.499999539999999
 41
1.499999539999999
  0
VERTEX
  5
C26
  8
TOPLAYER
 10
324.06600159999999
 20
407.00799979999988
 30
0.0
 42
1.0
  0
VERTEX
  5
C27
  8
TOPLAYER
 10
325.56599859999989
 20
407.00799979999988
 30
0.0
 42
1.0
  0
SEQEND
  5
C28
  8
TOPLAYER
  0
POLYLINE
  5
653
  8
TOPLAYER
 66
     1
 10
0.0
 20
0.0
 30
0.0
 40
2.9999990799999989
 41
2.9999990799999989
  0
VERTEX
  5
C29
  8
TOPLAYER
 10
317.31599985999992
 20
405.00799871999999
 30
0.0
 42
-0.4142135623728771
  0
VERTEX
  5
C2A
  8
TOPLAYER
 10
320.31599893999999
 20
402.00799963999992
 30
0.0
  0
SEQEND
  5
C2B
  8
TOPLAYER
  0
POLYLINE
  5
657
  8
TOPLAYER
 66
     1
 10
0.0
 20
0.0
 30
0.0
 70
     1
 40
1.499999539999999
 41
1.499999539999999
  0
VERTEX
  5
C2C
  8
TOPLAYER
 10
316.56600135999992
 20
405.00799871999999
 30
0.0
 42
1.0
  0
VERTEX
  5
C2D
  8
TOPLAYER
 10
318.06599835999998
 20
405.00799871999999
 30
0.0
 42
1.0
  0
SEQEND
  5
C2E
  8
TOPLAYER
  0
POLYLINE
  5
65B
  8
TOPLAYER
 66
     1
 10
0.0
 20
0.0
 30
0.0
 70
     1
 40
1.499999539999999
 41
1.499999539999999
  0
VERTEX
  5
C2F
  8
TOPLAYER
 10
319.56600043999998
 20
402.00799963999992
 30
0.0
 42
1.0
  0
VERTEX
  5
C30
  8
TOPLAYER
 10
321.06599743999988
 20
402.00799963999992
 30
0.0
 42
1.0
  0
SEQEND
  5
C31
  8
TOPLAYER
  0
POLYLINE
  5
65F
  8
MECHANICAL1
 66
     1
 10
0.0
 20
0.0
 30
0.0
 40
0.0999998
 41
0.0999998
  0
VERTEX
  5
C32
  8
MECHANICAL1
 10
315.31600131999988
 20
543.00799957999993
 30
0.0
 42
-0.4142135623728771
  0
VERTEX
  5
C33
  8
MECHANICAL1
 10
300.3160008399999
 20
528.00799910000001
 30
0.0
  0
SEQEND
  5
C34
  8
MECHANICAL1
  0
POLYLINE
  5
663
  8
MECHANICAL1
 66
     1
 10
0.0
 20
0.0
 30
0.0
 70
     1
 40
0.0499999
 41
0.0499999
  0
VERTEX
  5
C35
  8
MECHANICAL1
 10
315.29100263999987
 20
543.00799957999993
 30
0.0
 42
1.0
  0
VERTEX
  5
C36
  8
MECHANICAL1
 10
315.34100000000001
 20
543.00799957999993
 30
0.0
 42
1.0
  0
SEQEND
  5
C37
  8
MECHANICAL1
  0
POLYLINE
  5
667
  8
MECHANICAL1
 66
     1
 10
0.0
 20
0.0
 30
0.0
 70
     1
 40
0.0499999
 41
0.0499999
  0
VERTEX
  5
C38
  8
MECHANICAL1
 10
300.29100215999989
 20
528.00799910000001
 30
0.0
 42
1.0
  0
VERTEX
  5
C39
  8
MECHANICAL1
 10
300.34099951999991
 20
528.00799910000001
 30
0.0
 42
1.0
  0
SEQEND
  5
C3A
  8
MECHANICAL1
  0
POLYLINE
  5
66B
  8
MECHANICAL1
 66
     1
 10
0.0
 20
0.0
 30
0.0
 40
0.0999998
 41
0.0999998
  0
VERTEX
  5
C3B
  8
MECHANICAL1
 10
300.3160008399999
 20
503.00800083999991
 30
0.0
 42
-0.4142135623728771
  0
VERTEX
  5
C3C
  8
MECHANICAL1
 10
315.31600131999988
 20
488.00800035999993
 30
0.0
  0
SEQEND
  5
C3D
  8
MECHANICAL1
  0
POLYLINE
  5
66F
  8
MECHANICAL1
 66
     1
 10
0.0
 20
0.0
 30
0.0
 70
     1
 40
0.0499999
 41
0.0499999
  0
VERTEX
  5
C3E
  8
MECHANICAL1
 10
300.29100215999989
 20
503.00800083999991
 30
0.0
 42
1.0
  0
VERTEX
  5
C3F
  8
MECHANICAL1
 10
300.34099951999991
 20
503.00800083999991
 30
0.0
 42
1.0
  0
SEQEND
  5
C40
  8
MECHANICAL1
  0
POLYLINE
  5
673
  8
MECHANICAL1
 66
     1
 10
0.0
 20
0.0
 30
0.0
 70
     1
 40
0.0499999
 41
0.0499999
  0
VERTEX
  5
C41
  8
MECHANICAL1
 10
315.29100263999987
 20
488.00800035999993
 30
0.0
 42
1.0
  0
VERTEX
  5
C42
  8
MECHANICAL1
 10
315.34100000000001
 20
488.00800035999993
 30
0.0
 42
1.0
  0
SEQEND
  5
C43
  8
MECHANICAL1
  0
POLYLINE
  5
677
  8
MECHANICAL1
 66
     1
 10
0.0
 20
0.0
 30
0.0
 40
0.0999998
 41
0.0999998
  0
VERTEX
  5
C44
  8
MECHANICAL1
 10
315.31600131999988
 20
323.00800015999999
 30
0.0
 42
-0.4142135623728771
  0
VERTEX
  5
C45
  8
MECHANICAL1
 10
300.3160008399999
 20
308.0079996799999
 30
0.0
  0
SEQEND
  5
C46
  8
MECHANICAL1
  0
POLYLINE
  5
67B
  8
MECHANICAL1
 66
     1
 10
0.0
 20
0.0
 30
0.0
 70
     1
 40
0.0499999
 41
0.0499999
  0
VERTEX
  5
C47
  8
MECHANICAL1
 10
315.29100263999987
 20
323.00800015999999
 30
0.0
 42
1.0
  0
VERTEX
  5
C48
  8
MECHANICAL1
 10
315.34100000000001
 20
323.00800015999999
 30
0.0
 42
1.0
  0
SEQEND
  5
C49
  8
MECHANICAL1
  0
POLYLINE
  5
67F
  8
MECHANICAL1
 66
     1
 10
0.0
 20
0.0
 30
0.0
 70
     1
 40
0.0499999
 41
0.0499999
  0
VERTEX
  5
C4A
  8
MECHANICAL1
 10
300.29100215999989
 20
308.0079996799999
 30
0.0
 42
1.0
  0
VERTEX
  5
C4B
  8
MECHANICAL1
 10
300.34099951999991
 20
308.0079996799999
 30
0.0
 42
1.0
  0
SEQEND
  5
C4C
  8
MECHANICAL1
  0
POLYLINE
  5
683
  8
MECHANICAL1
 66
     1
 10
0.0
 20
0.0
 30
0.0
 40
0.0999998
 41
0.0999998
  0
VERTEX
  5
C4D
  8
MECHANICAL1
 10
300.3160008399999
 20
283.00800141999991
 30
0.0
 42
-0.4142135623728771
  0
VERTEX
  5
C4E
  8
MECHANICAL1
 10
315.31600131999988
 20
268.00800093999999
 30
0.0
  0
SEQEND
  5
C4F
  8
MECHANICAL1
  0
POLYLINE
  5
687
  8
MECHANICAL1
 66
     1
 10
0.0
 20
0.0
 30
0.0
 70
     1
 40
0.0499999
 41
0.0499999
  0
VERTEX
  5
C50
  8
MECHANICAL1
 10
300.29100215999989
 20
283.00800141999991
 30
0.0
 42
1.0
  0
VERTEX
  5
C51
  8
MECHANICAL1
 10
300.34099951999991
 20
283.00800141999991
 30
0.0
 42
1.0
  0
SEQEND
  5
C52
  8
MECHANICAL1
  0
POLYLINE
  5
68B
  8
MECHANICAL1
 66
     1
 10
0.0
 20
0.0
 30
0.0
 70
     1
 40
0.0499999
 41
0.0499999
  0
VERTEX
  5
C53
  8
MECHANICAL1
 10
315.29100263999987
 20
268.00800093999999
 30
0.0
 42
1.0
  0
VERTEX
  5
C54
  8
MECHANICAL1
 10
315.34100000000001
 20
268.00800093999999
 30
0.0
 42
1.0
  0
SEQEND
  5
C55
  8
MECHANICAL1
  0
POLYLINE
  5
68F
  8
MECHANICAL1
 66
     1
 10
0.0
 20
0.0
 30
0.0
 40
0.0999998
 41
0.0999998
  0
VERTEX
  5
C56
  8
MECHANICAL1
 10
315.31600131999988
 20
440.00799983999991
 30
0.0
 42
-0.4142135623728771
  0
VERTEX
  5
C57
  8
MECHANICAL1
 10
300.3160008399999
 20
425.00799935999993
 30
0.0
  0
SEQEND
  5
C58
  8
MECHANICAL1
  0
POLYLINE
  5
693
  8
MECHANICAL1
 66
     1
 10
0.0
 20
0.0
 30
0.0
 70
     1
 40
0.0499999
 41
0.0499999
  0
VERTEX
  5
C59
  8
MECHANICAL1
 10
315.29100263999987
 20
440.00799983999991
 30
0.0
 42
1.0
  0
VERTEX
  5
C5A
  8
MECHANICAL1
 10
315.34100000000001
 20
440.00799983999991
 30
0.0
 42
1.0
  0
SEQEND
  5
C5B
  8
MECHANICAL1
  0
POLYLINE
  5
697
  8
MECHANICAL1
 66
     1
 10
0.0
 20
0.0
 30
0.0
 70
     1
 40
0.0499999
 41
0.0499999
  0
VERTEX
  5
C5C
  8
MECHANICAL1
 10
300.29100215999989
 20
425.00799935999993
 30
0.0
 42
1.0
  0
VERTEX
  5
C5D
  8
MECHANICAL1
 10
300.34099951999991
 20
425.00799935999993
 30
0.0
 42
1.0
  0
SEQEND
  5
C5E
  8
MECHANICAL1
  0
POLYLINE
  5
69B
  8
MECHANICAL1
 66
     1
 10
0.0
 20
0.0
 30
0.0
 40
0.0999998
 41
0.0999998
  0
VERTEX
  5
C5F
  8
MECHANICAL1
 10
300.3160008399999
 20
400.00800109999989
 30
0.0
 42
-0.4142135623728771
  0
VERTEX
  5
C60
  8
MECHANICAL1
 10
315.31600131999988
 20
385.0080006199999
 30
0.0
  0
SEQEND
  5
C61
  8
MECHANICAL1
  0
POLYLINE
  5
69F
  8
MECHANICAL1
 66
     1
 10
0.0
 20
0.0
 30
0.0
 70
     1
 40
0.0499999
 41
0.0499999
  0
VERTEX
  5
C62
  8
MECHANICAL1
 10
300.29100215999989
 20
400.00800109999989
 30
0.0
 42
1.0
  0
VERTEX
  5
C63
  8
MECHANICAL1
 10
300.34099951999991
 20
400.00800109999989
 30
0.0
 42
1.0
  0
SEQEND
  5
C64
  8
MECHANICAL1
  0
POLYLINE
  5
6A3
  8
MECHANICAL1
 66
     1
 10
0.0
 20
0.0
 30
0.0
 70
     1
 40
0.0499999
 41
0.0499999
  0
VERTEX
  5
C65
  8
MECHANICAL1
 10
315.29100263999987
 20
385.0080006199999
 30
0.0
 42
1.0
  0
VERTEX
  5
C66
  8
MECHANICAL1
 10
315.34100000000001
 20
385.0080006199999
 30
0.0
 42
1.0
  0
SEQEND
  5
C67
  8
MECHANICAL1
  0
SOLID
  5
6EF
  8
TOPSOLDER
 10
274.41759949999988
 20
406.6096007999999
 30
0.0
 11
270.21440241999989
 21
406.6096007999999
 31
0.0
 12
274.41759949999988
 22
403.40640171999991
 32
0.0
 13
270.21440241999989
 23
403.40640171999991
 33
0.0
  0
SOLID
  5
6F0
  8
TOPPASTE
 10
274.31599949999998
 20
406.50800079999999
 30
0.0
 11
270.31600242000002
 21
406.50800079999999
 31
0.0
 12
274.31599949999998
 22
403.50800171999998
 32
0.0
 13
270.31600242000002
 23
403.50800171999998
 33
0.0
  0
SOLID
  5
6F1
  8
TOPLAYER
 10
274.31599949999998
 20
406.50800079999999
 30
0.0
 11
270.31600242000002
 21
406.50800079999999
 31
0.0
 12
274.31599949999998
 22
403.50800171999998
 32
0.0
 13
270.31600242000002
 23
403.50800171999998
 33
0.0
  0
SOLID
  5
6F2
  8
TOPSOLDER
 10
274.41759949999988
 20
411.60959841999988
 30
0.0
 11
270.21440241999989
 21
411.60959841999988
 31
0.0
 12
274.41759949999988
 22
408.40639933999989
 32
0.0
 13
270.21440241999989
 23
408.40639933999989
 33
0.0
  0
SOLID
  5
6F3
  8
TOPPASTE
 10
274.31599949999998
 20
411.50799841999992
 30
0.0
 11
270.31600242000002
 21
411.50799841999992
 31
0.0
 12
274.31599949999998
 22
408.50799933999991
 32
0.0
 13
270.31600242000002
 23
408.50799933999991
 33
0.0
  0
SOLID
  5
6F4
  8
TOPLAYER
 10
274.31599949999998
 20
411.50799841999992
 30
0.0
 11
270.31600242000002
 21
411.50799841999992
 31
0.0
 12
274.31599949999998
 22
408.50799933999991
 32
0.0
 13
270.31600242000002
 23
408.50799933999991
 33
0.0
  0
SOLID
  5
6F5
  8
TOPSOLDER
 10
274.41759949999988
 20
416.6095985799999
 30
0.0
 11
270.21440241999989
 21
416.6095985799999
 31
0.0
 12
274.41759949999988
 22
413.40639949999991
 32
0.0
 13
270.21440241999989
 23
413.40639949999991
 33
0.0
  0
SOLID
  5
6F6
  8
TOPPASTE
 10
274.31599949999998
 20
416.50799857999988
 30
0.0
 11
270.31600242000002
 21
416.50799857999988
 31
0.0
 12
274.31599949999998
 22
413.50799949999993
 32
0.0
 13
270.31600242000002
 23
413.50799949999993
 33
0.0
  0
SOLID
  5
6F7
  8
TOPLAYER
 10
274.31599949999998
 20
416.50799857999988
 30
0.0
 11
270.31600242000002
 21
416.50799857999988
 31
0.0
 12
274.31599949999998
 22
413.50799949999993
 32
0.0
 13
270.31600242000002
 23
413.50799949999993
 33
0.0
  0
SOLID
  5
6F8
  8
TOPSOLDER
 10
274.41759949999988
 20
421.60959874000002
 30
0.0
 11
270.21440241999989
 21
421.60959874000002
 31
0.0
 12
274.41759949999988
 22
418.40639965999992
 32
0.0
 13
270.21440241999989
 23
418.40639965999992
 33
0.0
  0
SOLID
  5
6F9
  8
TOPPASTE
 10
274.31599949999998
 20
421.50799873999989
 30
0.0
 11
270.31600242000002
 21
421.50799873999989
 31
0.0
 12
274.31599949999998
 22
418.50799965999988
 32
0.0
 13
270.31600242000002
 23
418.50799965999988
 33
0.0
  0
SOLID
  5
6FA
  8
TOPLAYER
 10
274.31599949999998
 20
421.50799873999989
 30
0.0
 11
270.31600242000002
 21
421.50799873999989
 31
0.0
 12
274.31599949999998
 22
418.50799965999988
 32
0.0
 13
270.31600242000002
 23
418.50799965999988
 33
0.0
  0
SOLID
  5
6FB
  8
TOPSOLDER
 10
285.41760035999999
 20
303.1095995199999
 30
0.0
 11
270.21439987999997
 21
303.1095995199999
 31
0.0
 12
285.41760035999999
 22
287.90639904
 32
0.0
 13
270.21439987999997
 23
287.90639904
 33
0.0
  0
SOLID
  5
6FC
  8
TOPPASTE
 10
285.31600035999998
 20
303.00799951999988
 30
0.0
 11
270.31599987999999
 21
303.00799951999988
 31
0.0
 12
285.31600035999998
 22
288.0079990399999
 32
0.0
 13
270.31599987999999
 23
288.0079990399999
 33
0.0
  0
SOLID
  5
6FD
  8
TOPLAYER
 10
285.31600035999998
 20
303.00799951999988
 30
0.0
 11
270.31599987999999
 21
303.00799951999988
 31
0.0
 12
285.31600035999998
 22
288.0079990399999
 32
0.0
 13
270.31599987999999
 23
288.0079990399999
 33
0.0
  0
POLYLINE
  5
6FE
  8
TOPSOLDER
 66
     1
 10
0.0
 20
0.0
 30
0.0
 40
1.7031995399999991
 41
1.7031995399999991
  0
VERTEX
  5
C68
  8
TOPSOLDER
 10
784.81599703999996
 20
308.75800071999993
 30
0.0
  0
VERTEX
  5
C69
  8
TOPSOLDER
 10
785.81599503999996
 20
308.75800071999993
 30
0.0
  0
SEQEND
  5
C6A
  8
TOPSOLDER
  0
POLYLINE
  5
702
  8
TOPSOLDER
 66
     1
 10
0.0
 20
0.0
 30
0.0
 70
     1
 40
0.8515984999999998
 41
0.8515984999999998
  0
VERTEX
  5
C6B
  8
TOPSOLDER
 10
784.39019651999979
 20
308.75800071999993
 30
0.0
 42
1.0
  0
VERTEX
  5
C6C
  8
TOPSOLDER
 10
785.2417975599999
 20
308.75800071999993
 30
0.0
 42
1.0
  0
SEQEND
  5
C6D
  8
TOPSOLDER
  0
POLYLINE
  5
706
  8
TOPSOLDER
 66
     1
 10
0.0
 20
0.0
 30
0.0
 70
     1
 40
0.8515984999999998
 41
0.8515984999999998
  0
VERTEX
  5
C6E
  8
TOPSOLDER
 10
785.39019451999991
 20
308.75800071999993
 30
0.0
 42
1.0
  0
VERTEX
  5
C6F
  8
TOPSOLDER
 10
786.24179555999979
 20
308.75800071999993
 30
0.0
 42
1.0
  0
SEQEND
  5
C70
  8
TOPSOLDER
  0
POLYLINE
  5
70A
  8
TOPPASTE
 66
     1
 10
0.0
 20
0.0
 30
0.0
 40
1.499999539999999
 41
1.499999539999999
  0
VERTEX
  5
C71
  8
TOPPASTE
 10
784.81599703999996
 20
308.75800071999993
 30
0.0
  0
VERTEX
  5
C72
  8
TOPPASTE
 10
785.81599503999996
 20
308.75800071999993
 30
0.0
  0
SEQEND
  5
C73
  8
TOPPASTE
  0
POLYLINE
  5
70E
  8
TOPPASTE
 66
     1
 10
0.0
 20
0.0
 30
0.0
 70
     1
 40
0.7499985000000001
 41
0.7499985000000001
  0
VERTEX
  5
C74
  8
TOPPASTE
 10
784.44099652
 20
308.75800071999993
 30
0.0
 42
1.0
  0
VERTEX
  5
C75
  8
TOPPASTE
 10
785.19099755999991
 20
308.75800071999993
 30
0.0
 42
1.0
  0
SEQEND
  5
C76
  8
TOPPASTE
  0
POLYLINE
  5
712
  8
TOPPASTE
 66
     1
 10
0.0
 20
0.0
 30
0.0
 70
     1
 40
0.7499985000000001
 41
0.7499985000000001
  0
VERTEX
  5
C77
  8
TOPPASTE
 10
785.44099452
 20
308.75800071999993
 30
0.0
 42
1.0
  0
VERTEX
  5
C78
  8
TOPPASTE
 10
786.19099555999981
 20
308.75800071999993
 30
0.0
 42
1.0
  0
SEQEND
  5
C79
  8
TOPPASTE
  0
POLYLINE
  5
716
  8
TOPLAYER
 66
     1
 10
0.0
 20
0.0
 30
0.0
 40
1.499999539999999
 41
1.499999539999999
  0
VERTEX
  5
C7A
  8
TOPLAYER
 10
784.81599703999996
 20
308.75800071999993
 30
0.0
  0
VERTEX
  5
C7B
  8
TOPLAYER
 10
785.81599503999996
 20
308.75800071999993
 30
0.0
  0
SEQEND
  5
C7C
  8
TOPLAYER
  0
POLYLINE
  5
71A
  8
TOPLAYER
 66
     1
 10
0.0
 20
0.0
 30
0.0
 70
     1
 40
0.7499985000000001
 41
0.7499985000000001
  0
VERTEX
  5
C7D
  8
TOPLAYER
 10
784.44099652
 20
308.75800071999993
 30
0.0
 42
1.0
  0
VERTEX
  5
C7E
  8
TOPLAYER
 10
785.19099755999991
 20
308.75800071999993
 30
0.0
 42
1.0
  0
SEQEND
  5
C7F
  8
TOPLAYER
  0
POLYLINE
  5
71E
  8
TOPLAYER
 66
     1
 10
0.0
 20
0.0
 30
0.0
 70
     1
 40
0.7499985000000001
 41
0.7499985000000001
  0
VERTEX
  5
C80
  8
TOPLAYER
 10
785.44099452
 20
308.75800071999993
 30
0.0
 42
1.0
  0
VERTEX
  5
C81
  8
TOPLAYER
 10
786.19099555999981
 20
308.75800071999993
 30
0.0
 42
1.0
  0
SEQEND
  5
C82
  8
TOPLAYER
  0
POLYLINE
  5
722
  8
TOPSOLDER
 66
     1
 10
0.0
 20
0.0
 30
0.0
 40
1.7031995399999991
 41
1.7031995399999991
  0
VERTEX
  5
C83
  8
TOPSOLDER
 10
1267.06600028
 20
473.25799937999989
 30
0.0
  0
VERTEX
  5
C84
  8
TOPSOLDER
 10
1268.0659982799989
 20
473.25799937999989
 30
0.0
  0
SEQEND
  5
C85
  8
TOPSOLDER
  0
POLYLINE
  5
726
  8
TOPSOLDER
 66
     1
 10
0.0
 20
0.0
 30
0.0
 70
     1
 40
0.8515984999999998
 41
0.8515984999999998
  0
VERTEX
  5
C86
  8
TOPSOLDER
 10
1266.6401997600001
 20
473.25799937999989
 30
0.0
 42
1.0
  0
VERTEX
  5
C87
  8
TOPSOLDER
 10
1267.4918008
 20
473.25799937999989
 30
0.0
 42
1.0
  0
SEQEND
  5
C88
  8
TOPSOLDER
  0
POLYLINE
  5
72A
  8
TOPSOLDER
 66
     1
 10
0.0
 20
0.0
 30
0.0
 70
     1
 40
0.8515984999999998
 41
0.8515984999999998
  0
VERTEX
  5
C89
  8
TOPSOLDER
 10
1267.6401977600001
 20
473.25799937999989
 30
0.0
 42
1.0
  0
VERTEX
  5
C8A
  8
TOPSOLDER
 10
1268.4917988
 20
473.25799937999989
 30
0.0
 42
1.0
  0
SEQEND
  5
C8B
  8
TOPSOLDER
  0
POLYLINE
  5
72E
  8
TOPPASTE
 66
     1
 10
0.0
 20
0.0
 30
0.0
 40
1.499999539999999
 41
1.499999539999999
  0
VERTEX
  5
C8C
  8
TOPPASTE
 10
1267.06600028
 20
473.25799937999989
 30
0.0
  0
VERTEX
  5
C8D
  8
TOPPASTE
 10
1268.0659982799989
 20
473.25799937999989
 30
0.0
  0
SEQEND
  5
C8E
  8
TOPPASTE
  0
POLYLINE
  5
732
  8
TOPPASTE
 66
     1
 10
0.0
 20
0.0
 30
0.0
 70
     1
 40
0.7499985000000001
 41
0.7499985000000001
  0
VERTEX
  5
C8F
  8
TOPPASTE
 10
1266.6909997599989
 20
473.25799937999989
 30
0.0
 42
1.0
  0
VERTEX
  5
C90
  8
TOPPASTE
 10
1267.4410008
 20
473.25799937999989
 30
0.0
 42
1.0
  0
SEQEND
  5
C91
  8
TOPPASTE
  0
POLYLINE
  5
736
  8
TOPPASTE
 66
     1
 10
0.0
 20
0.0
 30
0.0
 70
     1
 40
0.7499985000000001
 41
0.7499985000000001
  0
VERTEX
  5
C92
  8
TOPPASTE
 10
1267.6909977599989
 20
473.25799937999989
 30
0.0
 42
1.0
  0
VERTEX
  5
C93
  8
TOPPASTE
 10
1268.4409988
 20
473.25799937999989
 30
0.0
 42
1.0
  0
SEQEND
  5
C94
  8
TOPPASTE
  0
POLYLINE
  5
73A
  8
TOPLAYER
 66
     1
 10
0.0
 20
0.0
 30
0.0
 40
1.499999539999999
 41
1.499999539999999
  0
VERTEX
  5
C95
  8
TOPLAYER
 10
1267.06600028
 20
473.25799937999989
 30
0.0
  0
VERTEX
  5
C96
  8
TOPLAYER
 10
1268.0659982799989
 20
473.25799937999989
 30
0.0
  0
SEQEND
  5
C97
  8
TOPLAYER
  0
POLYLINE
  5
73E
  8
TOPLAYER
 66
     1
 10
0.0
 20
0.0
 30
0.0
 70
     1
 40
0.7499985000000001
 41
0.7499985000000001
  0
VERTEX
  5
C98
  8
TOPLAYER
 10
1266.6909997599989
 20
473.25799937999989
 30
0.0
 42
1.0
  0
VERTEX
  5
C99
  8
TOPLAYER
 10
1267.4410008
 20
473.25799937999989
 30
0.0
 42
1.0
  0
SEQEND
  5
C9A
  8
TOPLAYER
  0
POLYLINE
  5
742
  8
TOPLAYER
 66
     1
 10
0.0
 20
0.0
 30
0.0
 70
     1
 40
0.7499985000000001
 41
0.7499985000000001
  0
VERTEX
  5
C9B
  8
TOPLAYER
 10
1267.6909977599989
 20
473.25799937999989
 30
0.0
 42
1.0
  0
VERTEX
  5
C9C
  8
TOPLAYER
 10
1268.4409988
 20
473.25799937999989
 30
0.0
 42
1.0
  0
SEQEND
  5
C9D
  8
TOPLAYER
  0
POLYLINE
  5
746
  8
TOPSOLDER
 66
     1
 10
0.0
 20
0.0
 30
0.0
 40
1.7031995399999991
 41
1.7031995399999991
  0
VERTEX
  5
C9E
  8
TOPSOLDER
 10
1267.06600028
 20
475.75799945999989
 30
0.0
  0
VERTEX
  5
C9F
  8
TOPSOLDER
 10
1268.0659982799989
 20
475.75799945999989
 30
0.0
  0
SEQEND
  5
CA0
  8
TOPSOLDER
  0
POLYLINE
  5
74A
  8
TOPSOLDER
 66
     1
 10
0.0
 20
0.0
 30
0.0
 70
     1
 40
0.8515984999999998
 41
0.8515984999999998
  0
VERTEX
  5
CA1
  8
TOPSOLDER
 10
1266.6401997600001
 20
475.75799945999989
 30
0.0
 42
1.0
  0
VERTEX
  5
CA2
  8
TOPSOLDER
 10
1267.4918008
 20
475.75799945999989
 30
0.0
 42
1.0
  0
SEQEND
  5
CA3
  8
TOPSOLDER
  0
POLYLINE
  5
74E
  8
TOPSOLDER
 66
     1
 10
0.0
 20
0.0
 30
0.0
 70
     1
 40
0.8515984999999998
 41
0.8515984999999998
  0
VERTEX
  5
CA4
  8
TOPSOLDER
 10
1267.6401977600001
 20
475.75799945999989
 30
0.0
 42
1.0
  0
VERTEX
  5
CA5
  8
TOPSOLDER
 10
1268.4917988
 20
475.75799945999989
 30
0.0
 42
1.0
  0
SEQEND
  5
CA6
  8
TOPSOLDER
  0
POLYLINE
  5
752
  8
TOPPASTE
 66
     1
 10
0.0
 20
0.0
 30
0.0
 40
1.499999539999999
 41
1.499999539999999
  0
VERTEX
  5
CA7
  8
TOPPASTE
 10
1267.06600028
 20
475.75799945999989
 30
0.0
  0
VERTEX
  5
CA8
  8
TOPPASTE
 10
1268.0659982799989
 20
475.75799945999989
 30
0.0
  0
SEQEND
  5
CA9
  8
TOPPASTE
  0
POLYLINE
  5
756
  8
TOPPASTE
 66
     1
 10
0.0
 20
0.0
 30
0.0
 70
     1
 40
0.7499985000000001
 41
0.7499985000000001
  0
VERTEX
  5
CAA
  8
TOPPASTE
 10
1266.6909997599989
 20
475.75799945999989
 30
0.0
 42
1.0
  0
VERTEX
  5
CAB
  8
TOPPASTE
 10
1267.4410008
 20
475.75799945999989
 30
0.0
 42
1.0
  0
SEQEND
  5
CAC
  8
TOPPASTE
  0
POLYLINE
  5
75A
  8
TOPPASTE
 66
     1
 10
0.0
 20
0.0
 30
0.0
 70
     1
 40
0.7499985000000001
 41
0.7499985000000001
  0
VERTEX
  5
CAD
  8
TOPPASTE
 10
1267.6909977599989
 20
475.75799945999989
 30
0.0
 42
1.0
  0
VERTEX
  5
CAE
  8
TOPPASTE
 10
1268.4409988
 20
475.75799945999989
 30
0.0
 42
1.0
  0
SEQEND
  5
CAF
  8
TOPPASTE
  0
POLYLINE
  5
75E
  8
TOPLAYER
 66
     1
 10
0.0
 20
0.0
 30
0.0
 40
1.499999539999999
 41
1.499999539999999
  0
VERTEX
  5
CB0
  8
TOPLAYER
 10
1267.06600028
 20
475.75799945999989
 30
0.0
  0
VERTEX
  5
CB1
  8
TOPLAYER
 10
1268.0659982799989
 20
475.75799945999989
 30
0.0
  0
SEQEND
  5
CB2
  8
TOPLAYER
  0
POLYLINE
  5
762
  8
TOPLAYER
 66
     1
 10
0.0
 20
0.0
 30
0.0
 70
     1
 40
0.7499985000000001
 41
0.7499985000000001
  0
VERTEX
  5
CB3
  8
TOPLAYER
 10
1266.6909997599989
 20
475.75799945999989
 30
0.0
 42
1.0
  0
VERTEX
  5
CB4
  8
TOPLAYER
 10
1267.4410008
 20
475.75799945999989
 30
0.0
 42
1.0
  0
SEQEND
  5
CB5
  8
TOPLAYER
  0
POLYLINE
  5
766
  8
TOPLAYER
 66
     1
 10
0.0
 20
0.0
 30
0.0
 70
     1
 40
0.7499985000000001
 41
0.7499985000000001
  0
VERTEX
  5
CB6
  8
TOPLAYER
 10
1267.6909977599989
 20
475.75799945999989
 30
0.0
 42
1.0
  0
VERTEX
  5
CB7
  8
TOPLAYER
 10
1268.4409988
 20
475.75799945999989
 30
0.0
 42
1.0
  0
SEQEND
  5
CB8
  8
TOPLAYER
  0
POLYLINE
  5
76A
  8
TOPSOLDER
 66
     1
 10
0.0
 20
0.0
 30
0.0
 40
1.7031995399999991
 41
1.7031995399999991
  0
VERTEX
  5
CB9
  8
TOPSOLDER
 10
784.81599703999996
 20
306.25800063999992
 30
0.0
  0
VERTEX
  5
CBA
  8
TOPSOLDER
 10
785.81599503999996
 20
306.25800063999992
 30
0.0
  0
SEQEND
  5
CBB
  8
TOPSOLDER
  0
POLYLINE
  5
76E
  8
TOPSOLDER
 66
     1
 10
0.0
 20
0.0
 30
0.0
 70
     1
 40
0.8515984999999998
 41
0.8515984999999998
  0
VERTEX
  5
CBC
  8
TOPSOLDER
 10
784.39019651999979
 20
306.25800063999992
 30
0.0
 42
1.0
  0
VERTEX
  5
CBD
  8
TOPSOLDER
 10
785.2417975599999
 20
306.25800063999992
 30
0.0
 42
1.0
  0
SEQEND
  5
CBE
  8
TOPSOLDER
  0
POLYLINE
  5
772
  8
TOPSOLDER
 66
     1
 10
0.0
 20
0.0
 30
0.0
 70
     1
 40
0.8515984999999998
 41
0.8515984999999998
  0
VERTEX
  5
CBF
  8
TOPSOLDER
 10
785.39019451999991
 20
306.25800063999992
 30
0.0
 42
1.0
  0
VERTEX
  5
CC0
  8
TOPSOLDER
 10
786.24179555999979
 20
306.25800063999992
 30
0.0
 42
1.0
  0
SEQEND
  5
CC1
  8
TOPSOLDER
  0
POLYLINE
  5
776
  8
TOPPASTE
 66
     1
 10
0.0
 20
0.0
 30
0.0
 40
1.499999539999999
 41
1.499999539999999
  0
VERTEX
  5
CC2
  8
TOPPASTE
 10
784.81599703999996
 20
306.25800063999992
 30
0.0
  0
VERTEX
  5
CC3
  8
TOPPASTE
 10
785.81599503999996
 20
306.25800063999992
 30
0.0
  0
SEQEND
  5
CC4
  8
TOPPASTE
  0
POLYLINE
  5
77A
  8
TOPPASTE
 66
     1
 10
0.0
 20
0.0
 30
0.0
 70
     1
 40
0.7499985000000001
 41
0.7499985000000001
  0
VERTEX
  5
CC5
  8
TOPPASTE
 10
784.44099652
 20
306.25800063999992
 30
0.0
 42
1.0
  0
VERTEX
  5
CC6
  8
TOPPASTE
 10
785.19099755999991
 20
306.25800063999992
 30
0.0
 42
1.0
  0
SEQEND
  5
CC7
  8
TOPPASTE
  0
POLYLINE
  5
77E
  8
TOPPASTE
 66
     1
 10
0.0
 20
0.0
 30
0.0
 70
     1
 40
0.7499985000000001
 41
0.7499985000000001
  0
VERTEX
  5
CC8
  8
TOPPASTE
 10
785.44099452
 20
306.25800063999992
 30
0.0
 42
1.0
  0
VERTEX
  5
CC9
  8
TOPPASTE
 10
786.19099555999981
 20
306.25800063999992
 30
0.0
 42
1.0
  0
SEQEND
  5
CCA
  8
TOPPASTE
  0
POLYLINE
  5
782
  8
TOPLAYER
 66
     1
 10
0.0
 20
0.0
 30
0.0
 40
1.499999539999999
 41
1.499999539999999
  0
VERTEX
  5
CCB
  8
TOPLAYER
 10
784.81599703999996
 20
306.25800063999992
 30
0.0
  0
VERTEX
  5
CCC
  8
TOPLAYER
 10
785.81599503999996
 20
306.25800063999992
 30
0.0
  0
SEQEND
  5
CCD
  8
TOPLAYER
  0
POLYLINE
  5
786
  8
TOPLAYER
 66
     1
 10
0.0
 20
0.0
 30
0.0
 70
     1
 40
0.7499985000000001
 41
0.7499985000000001
  0
VERTEX
  5
CCE
  8
TOPLAYER
 10
784.44099652
 20
306.25800063999992
 30
0.0
 42
1.0
  0
VERTEX
  5
CCF
  8
TOPLAYER
 10
785.19099755999991
 20
306.25800063999992
 30
0.0
 42
1.0
  0
SEQEND
  5
CD0
  8
TOPLAYER
  0
POLYLINE
  5
78A
  8
TOPLAYER
 66
     1
 10
0.0
 20
0.0
 30
0.0
 70
     1
 40
0.7499985000000001
 41
0.7499985000000001
  0
VERTEX
  5
CD1
  8
TOPLAYER
 10
785.44099452
 20
306.25800063999992
 30
0.0
 42
1.0
  0
VERTEX
  5
CD2
  8
TOPLAYER
 10
786.19099555999981
 20
306.25800063999992
 30
0.0
 42
1.0
  0
SEQEND
  5
CD3
  8
TOPLAYER
  0
SOLID
  5
78E
  8
TOPSOLDER
 10
285.41760035999999
 20
523.10960147999981
 30
0.0
 11
270.21439987999997
 21
523.10960147999981
 31
0.0
 12
285.41760035999999
 22
507.90640099999979
 32
0.0
 13
270.21439987999997
 23
507.90640099999979
 33
0.0
  0
SOLID
  5
78F
  8
TOPPASTE
 10
285.31600035999998
 20
523.00800147999985
 30
0.0
 11
270.31599987999999
 21
523.00800148000008
 31
0.0
 12
285.31600035999998
 22
508.00800099999998
 32
0.0
 13
270.31599987999999
 23
508.00800099999998
 33
0.0
  0
SOLID
  5
790
  8
TOPLAYER
 10
285.31600035999998
 20
523.00800147999985
 30
0.0
 11
270.31599987999999
 21
523.00800148000008
 31
0.0
 12
285.31600035999998
 22
508.00800099999998
 32
0.0
 13
270.31599987999999
 23
508.00800099999998
 33
0.0
  0
ENDSEC
  0
EOF
