  0
SECTION
  2
HEADER
  9
$ACADVER
  1
AC1015
  9
$ACADMAINTVER
 70
     6
  9
$DWGCODEPAGE
  3
ANSI_1250
  9
$INSBASE
 10
0.0
 20
0.0
 30
0.0
  9
$EXTMIN
 10
49.93650000000002
 20
49.87300000000004
 30
0.0
  9
$EXTMAX
 10
945.3039317594358
 20
308.858213812763
 30
0.0
  9
$LIMMIN
 10
0.0
 20
0.0
  9
$LIMMAX
 10
841.0
 20
594.0
  9
$ORTHOMODE
 70
     1
  9
$REGENMODE
 70
     1
  9
$FILLMODE
 70
     1
  9
$QTEXTMODE
 70
     0
  9
$MIRRTEXT
 70
     1
  9
$LTSCALE
 40
46.255
  9
$ATTMODE
 70
     1
  9
$TEXTSIZE
 40
20.0
  9
$TRACEWID
 40
0.05
  9
$TEXTSTYLE
  7
STANDARD
  9
$CLAYER
  8
mechanical
  9
$CELTYPE
  6
BYLAYER
  9
$CECOLOR
 62
   256
  9
$CELTSCALE
 40
1.0
  9
$DISPSILH
 70
     0
  9
$DIMSCALE
 40
1.0
  9
$DIMASZ
 40
5.0
  9
$DIMEXO
 40
5.256249999999999
  9
$DIMDLI
 40
31.958
  9
$DIMRND
 40
0.0
  9
$DIMDLE
 40
0.0
  9
$DIMEXE
 40
15.13799999999999
  9
$DIMTP
 40
0.01
  9
$DIMTM
 40
0.01
  9
$DIMTXT
 40
5.0
  9
$DIMCEN
 40
7.568999999999999
  9
$DIMTSZ
 40
0.0
  9
$DIMTOL
 70
     1
  9
$DIMLIM
 70
     0
  9
$DIMTIH
 70
     1
  9
$DIMTOH
 70
     1
  9
$DIMSE1
 70
     0
  9
$DIMSE2
 70
     0
  9
$DIMTAD
 70
     0
  9
$DIMZIN
 70
     0
  9
$DIMBLK
  1

  9
$DIMASO
 70
     1
  9
$DIMSHO
 70
     1
  9
$DIMPOST
  1

  9
$DIMAPOST
  1

  9
$DIMALT
 70
     0
  9
$DIMALTD
 70
     2
  9
$DIMALTF
 40
25.4
  9
$DIMLFAC
 40
1.0
  9
$DIMTOFL
 70
     0
  9
$DIMTVP
 40
0.0
  9
$DIMTIX
 70
     0
  9
$DIMSOXD
 70
     0
  9
$DIMSAH
 70
     0
  9
$DIMBLK1
  1

  9
$DIMBLK2
  1

  9
$DIMSTYLE
  2
STANDARD
  9
$DIMCLRD
 70
     0
  9
$DIMCLRE
 70
     0
  9
$DIMCLRT
 70
     0
  9
$DIMTFAC
 40
1.0
  9
$DIMGAP
 40
0.09
  9
$DIMJUST
 70
     0
  9
$DIMSD1
 70
     0
  9
$DIMSD2
 70
     0
  9
$DIMTOLJ
 70
     1
  9
$DIMTZIN
 70
     0
  9
$DIMALTZ
 70
     0
  9
$DIMALTTZ
 70
     0
  9
$DIMUPT
 70
     0
  9
$DIMDEC
 70
     4
  9
$DIMTDEC
 70
     4
  9
$DIMALTU
 70
     2
  9
$DIMALTTD
 70
     2
  9
$DIMTXSTY
  7
STANDARD
  9
$DIMAUNIT
 70
     0
  9
$DIMADEC
 70
     0
  9
$DIMALTRND
 40
0.0
  9
$DIMAZIN
 70
     0
  9
$DIMDSEP
 70
    46
  9
$DIMATFIT
 70
     3
  9
$DIMFRAC
 70
     0
  9
$DIMLDRBLK
  1

  9
$DIMLUNIT
 70
     2
  9
$DIMLWD
 70
    -2
  9
$DIMLWE
 70
    -2
  9
$DIMTMOVE
 70
     0
  9
$LUNITS
 70
     2
  9
$LUPREC
 70
     4
  9
$SKETCHINC
 40
0.1
  9
$FILLETRAD
 40
0.0
  9
$AUNITS
 70
     0
  9
$AUPREC
 70
     0
  9
$MENU
  1
acad
  9
$ELEVATION
 40
0.0
  9
$PELEVATION
 40
0.0
  9
$THICKNESS
 40
0.0
  9
$LIMCHECK
 70
     0
  9
$CHAMFERA
 40
0.0
  9
$CHAMFERB
 40
0.0
  9
$CHAMFERC
 40
0.0
  9
$CHAMFERD
 40
0.0
  9
$SKPOLY
 70
     0
  9
$TDCREATE
 40
2444972.083333333
  9
$TDUCREATE
 40
2444972.000000000
  9
$TDUPDATE
 40
2453643.375103796
  9
$TDUUPDATE
 40
2453643.291770462
  9
$TDINDWG
 40
0.5228256713
  9
$TDUSRTIMER
 40
0.5228256713
  9
$USRTIMER
 70
     1
  9
$ANGBASE
 50
0.0
  9
$ANGDIR
 70
     0
  9
$PDMODE
 70
     0
  9
$PDSIZE
 40
0.0
  9
$PLINEWID
 40
0.5
  9
$SPLFRAME
 70
     0
  9
$SPLINETYPE
 70
     6
  9
$SPLINESEGS
 70
     8
  9
$HANDSEED
  5
BB
  9
$SURFTAB1
 70
     6
  9
$SURFTAB2
 70
     6
  9
$SURFTYPE
 70
     6
  9
$SURFU
 70
     6
  9
$SURFV
 70
     6
  9
$UCSBASE
  2

  9
$UCSNAME
  2

  9
$UCSORG
 10
0.0
 20
0.0
 30
0.0
  9
$UCSXDIR
 10
1.0
 20
0.0
 30
0.0
  9
$UCSYDIR
 10
0.0
 20
1.0
 30
0.0
  9
$UCSORTHOREF
  2

  9
$UCSORTHOVIEW
 70
     1
  9
$UCSORGTOP
 10
0.0
 20
0.0
 30
0.0
  9
$UCSORGBOTTOM
 10
0.0
 20
0.0
 30
0.0
  9
$UCSORGLEFT
 10
0.0
 20
0.0
 30
0.0
  9
$UCSORGRIGHT
 10
0.0
 20
0.0
 30
0.0
  9
$UCSORGFRONT
 10
0.0
 20
0.0
 30
0.0
  9
$UCSORGBACK
 10
0.0
 20
0.0
 30
0.0
  9
$PUCSBASE
  2

  9
$PUCSNAME
  2

  9
$PUCSORG
 10
0.0
 20
0.0
 30
0.0
  9
$PUCSXDIR
 10
1.0
 20
0.0
 30
0.0
  9
$PUCSYDIR
 10
0.0
 20
1.0
 30
0.0
  9
$PUCSORTHOREF
  2

  9
$PUCSORTHOVIEW
 70
     0
  9
$PUCSORGTOP
 10
0.0
 20
0.0
 30
0.0
  9
$PUCSORGBOTTOM
 10
0.0
 20
0.0
 30
0.0
  9
$PUCSORGLEFT
 10
0.0
 20
0.0
 30
0.0
  9
$PUCSORGRIGHT
 10
0.0
 20
0.0
 30
0.0
  9
$PUCSORGFRONT
 10
0.0
 20
0.0
 30
0.0
  9
$PUCSORGBACK
 10
0.0
 20
0.0
 30
0.0
  9
$USERI1
 70
     0
  9
$USERI2
 70
     0
  9
$USERI3
 70
     0
  9
$USERI4
 70
     0
  9
$USERI5
 70
     0
  9
$USERR1
 40
0.0
  9
$USERR2
 40
0.0
  9
$USERR3
 40
0.0
  9
$USERR4
 40
0.0
  9
$USERR5
 40
0.0
  9
$WORLDVIEW
 70
     1
  9
$SHADEDGE
 70
     3
  9
$SHADEDIF
 70
    70
  9
$TILEMODE
 70
     1
  9
$MAXACTVP
 70
    16
  9
$PINSBASE
 10
0.0
 20
0.0
 30
0.0
  9
$PLIMCHECK
 70
     0
  9
$PEXTMIN
 10
1.000000000000000E+20
 20
1.000000000000000E+20
 30
1.000000000000000E+20
  9
$PEXTMAX
 10
-1.000000000000000E+20
 20
-1.000000000000000E+20
 30
-1.000000000000000E+20
  9
$PLIMMIN
 10
0.0
 20
0.0
  9
$PLIMMAX
 10
12.0
 20
9.0
  9
$UNITMODE
 70
     0
  9
$VISRETAIN
 70
     0
  9
$PLINEGEN
 70
     1
  9
$PSLTSCALE
 70
     0
  9
$TREEDEPTH
 70
  3020
  9
$CMLSTYLE
  2
STANDARD
  9
$CMLJUST
 70
     0
  9
$CMLSCALE
 40
1.0
  9
$PROXYGRAPHICS
 70
     1
  9
$MEASUREMENT
 70
     0
  9
$CELWEIGHT
370
    -1
  9
$ENDCAPS
280
     0
  9
$JOINSTYLE
280
     0
  9
$LWDISPLAY
290
     0
  9
$INSUNITS
 70
     0
  9
$HYPERLINKBASE
  1

  9
$STYLESHEET
  1

  9
$XEDIT
290
     1
  9
$CEPSNTYPE
380
     0
  9
$PSTYLEMODE
290
     1
  9
$FINGERPRINTGUID
  2
{5BE857EB-6A11-4C00-B26E-FE8A5B8F80EC}
  9
$VERSIONGUID
  2
{18B2C0B5-63DA-4E92-B0FB-5B5A3194B95F}
  9
$EXTNAMES
290
     1
  9
$PSVPSCALE
 40
0.0
  9
$OLESTARTUP
290
     0
  0
ENDSEC
  0
SECTION
  2
CLASSES
  0
CLASS
  1
LWPOLYLINE
  2
AcDbPolyline
  3
AutoCAD 2000
 90
    32768
280
     0
281
     1
  0
CLASS
  1
IMAGE
  2
AcDbRasterImage
  3
ISM
 90
    32895
280
     0
281
     1
  0
CLASS
  1
OLE2FRAME
  2
AcDbOle2Frame
  3
AutoCAD 2000
 90
    32768
280
     0
281
     1
  0
CLASS
  1
HATCH
  2
AcDbHatch
  3
AutoCAD 2000
 90
    32768
280
     0
281
     1
  0
CLASS
  1
DICTIONARYVAR
  2
AcDbDictionaryVar
  3
AutoCAD 2000
 90
        0
280
     0
281
     0
  0
CLASS
  1
RASTERVARIABLES
  2
AcDbRasterVariables
  3
ISM
 90
    32768
280
     0
281
     0
  0
CLASS
  1
IMAGEDEF
  2
AcDbRasterImageDef
  3
ISM
 90
    32768
280
     0
281
     0
  0
CLASS
  1
IMAGEDEF_REACTOR
  2
AcDbRasterImageDefReactor
  3
ISM
 90
    32769
280
     0
281
     0
  0
CLASS
  1
IDBUFFER
  2
AcDbIdBuffer
  3
AutoCAD 2000
 90
    32768
280
     0
281
     0
  0
CLASS
  1
SPATIAL_FILTER
  2
AcDbSpatialFilter
  3
AutoCAD 2000
 90
    32768
280
     0
281
     0
  0
CLASS
  1
XRECORD
  2
AcDbXrecord
  3
AutoCAD 2000
 90
    32768
280
     0
281
     0
  0
CLASS
  1
SORTENTSTABLE
  2
AcDbSortentsTable
  3
AutoCAD 2000
 90
    32768
280
     0
281
     0
  0
CLASS
  1
LAYER_INDEX
  2
AcDbLayerIndex
  3
AutoCAD 2000
 90
    32768
280
     0
281
     0
  0
CLASS
  1
SPATIAL_INDEX
  2
AcDbSpatialIndex
  3
AutoCAD 2000
 90
    32768
280
     0
281
     0
  0
CLASS
  1
OBJECT_PTR
  2
CAseDLPNTableRecord
  3
ASE-LPNTableRecord
 90
    32769
280
     0
281
     0
  0
CLASS
  1
LAYOUT
  2
AcDbLayout
  3
AutoCAD 2000
 90
        0
280
     0
281
     0
  0
CLASS
  1
PLOTSETTINGS
  2
AcDbPlotSettings
  3
AutoCAD 2000
 90
    32768
280
     0
281
     0
  0
CLASS
  1
ACDBDICTIONARYWDFLT
  2
AcDbDictionaryWithDefault
  3
AutoCAD 2000
 90
        0
280
     0
281
     0
  0
CLASS
  1
ACDBPLACEHOLDER
  2
AcDbPlaceHolder
  3
AutoCAD 2000
 90
        0
280
     0
281
     0
  0
CLASS
  1
VBA_PROJECT
  2
AcDbVbaProject
  3
acad
 90
    32768
280
     0
281
     0
  0
CLASS
  1
WIPEOUT
  2
AcDbWipeout
  3
WipeOut|AutoCAD Express Tool|expresstools@autodesk.com
 90
    32895
280
     0
281
     1
  0
CLASS
  1
WIPEOUTVARIABLES
  2
AcDbWipeoutVariables
  3
WipeOut|AutoCAD Express Tool|expresstools@autodesk.com
 90
    32768
280
     0
281
     0
  0
CLASS
  1
RTEXT
  2
RText
  3
RText|AutoCAD Express Tool|expresstools@autodesk.com
 90
    32768
280
     0
281
     1
  0
CLASS
  1
ARCALIGNEDTEXT
  2
AcDbArcAlignedText
  3
ATEXT|AutoCAD Express Tool|expresstools@autodesk.com
 90
    32768
280
     0
281
     1
  0
ENDSEC
  0
SECTION
  2
TABLES
  0
TABLE
  2
VPORT
  5
8E
330
0
100
AcDbSymbolTable
 70
     4
  0
VPORT
  5
BA
330
8E
100
AcDbSymbolTableRecord
100
AcDbViewportTableRecord
  2
*Active
 70
     0
 10
0.0
 20
0.0
 11
1.0
 21
1.0
 12
497.6202158797178
 22
179.3656069063815
 13
0.0
 23
0.0
 14
1.0
 24
1.0
 15
0.0
 25
0.0
 16
0.0
 26
0.0
 36
1.0
 17
0.0
 27
0.0
 37
0.0
 40
601.0238177986345
 41
1.497422680412371
 42
50.0
 43
0.0
 44
0.0
 50
0.0
 51
0.0
 71
     0
 72
   100
 73
     1
 74
     1
 75
     0
 76
     0
 77
     0
 78
     0
281
     0
 65
     1
110
0.0
120
0.0
130
0.0
111
1.0
121
0.0
131
0.0
112
0.0
122
1.0
132
0.0
 79
     1
146
0.0
  0
ENDTAB
  0
TABLE
  2
LTYPE
  5
89
330
0
100
AcDbSymbolTable
 70
     1
  0
LTYPE
  5
8A
330
89
100
AcDbSymbolTableRecord
100
AcDbLinetypeTableRecord
  2
BYBLOCK
 70
     0
  3

 72
    65
 73
     0
 40
0.0
  0
LTYPE
  5
8B
330
89
100
AcDbSymbolTableRecord
100
AcDbLinetypeTableRecord
  2
BYLAYER
 70
     0
  3

 72
    65
 73
     0
 40
0.0
  0
LTYPE
  5
8
330
89
100
AcDbSymbolTableRecord
100
AcDbLinetypeTableRecord
  2
CONTINUOUS
 70
     0
  3
Solid line
 72
    65
 73
     0
 40
0.0
  0
ENDTAB
  0
TABLE
  2
LAYER
  5
86
330
0
100
AcDbSymbolTable
 70
     3
  0
LAYER
  5
4
330
86
100
AcDbSymbolTableRecord
100
AcDbLayerTableRecord
  2
0
 70
     0
 62
     7
  6
CONTINUOUS
370
    -3
390
5
  0
LAYER
  5
14
330
86
100
AcDbSymbolTableRecord
100
AcDbLayerTableRecord
  2
mechanical
 70
     0
 62
     6
  6
CONTINUOUS
370
    -3
390
5
  0
LAYER
  5
AC
330
86
100
AcDbSymbolTableRecord
100
AcDbLayerTableRecord
  2
copper
 70
     0
 62
     1
  6
CONTINUOUS
370
    -3
390
5
  0
ENDTAB
  0
TABLE
  2
STYLE
  5
87
330
0
100
AcDbSymbolTable
 70
     2
  0
STYLE
  5
A
330
87
100
AcDbSymbolTableRecord
100
AcDbTextStyleTableRecord
  2
STANDARD
 70
     0
 40
0.0
 41
0.8
 50
0.0
 71
     0
 42
20.0
  3
txt
  4

  0
STYLE
  5
C
330
87
100
AcDbSymbolTableRecord
100
AcDbTextStyleTableRecord
  2
TEXTSTYLE_1
 70
     0
 40
0.0
 41
0.8
 50
0.0
 71
     0
 42
0.2
  3
txt
  4

  0
ENDTAB
  0
TABLE
  2
VIEW
  5
8C
330
0
100
AcDbSymbolTable
 70
     0
  0
ENDTAB
  0
TABLE
  2
UCS
  5
8D
330
0
100
AcDbSymbolTable
 70
     0
  0
ENDTAB
  0
TABLE
  2
APPID
  5
90
330
0
100
AcDbSymbolTable
 70
     2
  0
APPID
  5
91
330
90
100
AcDbSymbolTableRecord
100
AcDbRegAppTableRecord
  2
ACAD
 70
     0
  0
APPID
  5
B6
330
90
100
AcDbSymbolTableRecord
100
AcDbRegAppTableRecord
  2
DCO15
 70
     0
  0
ENDTAB
  0
TABLE
  2
DIMSTYLE
  5
92
330
0
100
AcDbSymbolTable
 70
     1
100
AcDbDimStyleTable
 71
     1
340
93
  0
DIMSTYLE
105
93
330
92
100
AcDbSymbolTableRecord
100
AcDbDimStyleTableRecord
  2
STANDARD
 70
     0
 41
5.0
 47
0.01
 48
0.01
 71
     1
 73
     0
 74
     0
 77
     1
 78
     8
140
5.0
271
     2
272
     2
284
     8
340
A
  0
ENDTAB
  0
TABLE
  2
BLOCK_RECORD
  5
1
330
0
100
AcDbSymbolTable
 70
     0
  0
BLOCK_RECORD
  5
2
330
1
100
AcDbSymbolTableRecord
100
AcDbBlockTableRecord
  2
*MODEL_SPACE
340
80
  0
BLOCK_RECORD
  5
82
330
1
100
AcDbSymbolTableRecord
100
AcDbBlockTableRecord
  2
*PAPER_SPACE
340
85
  0
ENDTAB
  0
ENDSEC
  0
SECTION
  2
BLOCKS
  0
BLOCK
  5
3
330
2
100
AcDbEntity
  8
0
100
AcDbBlockBegin
  2
*MODEL_SPACE
 70
     0
 10
0.0
 20
0.0
 30
0.0
  3
*MODEL_SPACE
  1

  0
ENDBLK
  5
7F
330
2
100
AcDbEntity
  8
0
100
AcDbBlockEnd
  0
BLOCK
  5
83
330
82
100
AcDbEntity
 67
     1
  8
0
100
AcDbBlockBegin
  2
*PAPER_SPACE
 70
     0
 10
0.0
 20
0.0
 30
0.0
  3
*PAPER_SPACE
  1

  0
ENDBLK
  5
84
330
82
100
AcDbEntity
 67
     1
  8
0
100
AcDbBlockEnd
  0
ENDSEC
  0
SECTION
  2
ENTITIES
  0
TEXT
  5
9
330
2
100
AcDbEntity
  8
0
 62
     7
100
AcDbText
 10
674.2095037847
 20
67.4831791421
 30
0.0
 40
4.0
  1
 
 41
0.8
100
AcDbText
  0
TEXT
  5
B
330
2
100
AcDbEntity
  8
0
 62
     7
100
AcDbText
 10
802.4170328451001
 20
67.3667104524
 30
0.0
 40
5.0
  1
 
 41
0.7
  7
TEXTSTYLE_1
 72
     1
 11
804.1670328451001
 21
67.3667104524
 31
0.0
100
AcDbText
  0
TEXT
  5
D
330
2
100
AcDbEntity
  8
0
 62
     7
100
AcDbText
 10
731.0095037846999
 20
58.48317914209999
 30
0.0
 40
4.0
  1
 
 41
0.8
100
AcDbText
  0
TEXT
  5
E
330
2
100
AcDbEntity
  8
0
 62
     7
100
AcDbText
 10
644.7095037847
 20
21.9831791421
 30
0.0
 40
5.0
  1
 
  7
TEXTSTYLE_1
100
AcDbText
  0
TEXT
  5
F
330
2
100
AcDbEntity
  8
0
 62
     7
100
AcDbText
 10
778.5928371179999
 20
21.9831791421
 30
0.0
 40
3.0
  1
 
 41
0.8
 72
     1
 11
779.792837118
 21
21.9831791421
 31
0.0
100
AcDbText
  0
TEXT
  5
10
330
2
100
AcDbEntity
  8
0
 62
     7
100
AcDbText
 10
798.4595037847
 20
21.9831791421
 30
0.0
 40
4.0
  1
     
 41
0.8
 72
     1
 11
806.4595037847
 21
21.9831791421
 31
0.0
100
AcDbText
  0
TEXT
  5
11
330
2
100
AcDbEntity
  8
0
 62
     7
100
AcDbText
 10
27.4831791421
 20
36.38317914209999
 30
0.0
 40
5.0
  1
 
 50
90.00000000000019
  7
TEXTSTYLE_1
100
AcDbText
  0
TEXT
  5
12
330
2
100
AcDbEntity
  8
0
 62
     7
100
AcDbText
 10
43.3772918419
 20
559.5227081581
 30
0.0
 40
5.0
  1
 
  7
TEXTSTYLE_1
100
AcDbText
  0
LWPOLYLINE
  5
13
330
2
100
AcDbEntity
  8
mechanical
100
AcDbPolyline
 90
        4
 70
   129
 43
0.254
 10
50.06349999999997
 20
159.8131363542809
 42
-0.3327356560067831
 10
945.1769317594358
 20
159.8131363542871
 10
862.4267981046269
 20
50.00000000064142
 42
0.3323164101725568
 10
132.8136336539586
 20
50.0
  0
LWPOLYLINE
  5
15
330
2
100
AcDbEntity
  8
mechanical
100
AcDbPolyline
 90
        2
 70
   129
 43
0.254
 10
111.0210107231096
 20
186.6284636373905
 42
0.33312026295774
 10
103.8326637560546
 20
189.6459870430741
 42
3.001918859936982
  0
LWPOLYLINE
  5
16
330
2
100
AcDbEntity
  8
mechanical
100
AcDbPolyline
 90
        2
 70
   129
 43
0.254
 10
233.8492782789095
 20
248.8754271517905
 42
0.33312026295774
 10
226.6609313118546
 20
251.8929505574742
 42
3.001918859936982
  0
LWPOLYLINE
  5
17
330
2
100
AcDbEntity
  8
mechanical
100
AcDbPolyline
 90
        2
 70
   129
 43
0.254
 10
366.1325134547094
 20
287.1195570131906
 42
0.33312026295774
 10
358.9441664876545
 20
290.1370804188743
 42
3.001918859936982
  0
LWPOLYLINE
  5
18
330
2
100
AcDbEntity
  8
mechanical
100
AcDbPolyline
 90
        2
 70
   129
 43
0.254
 10
477.5765498449096
 20
299.5707725439907
 42
0.33312026295774
 10
470.3882028778545
 20
302.5882959496743
 42
3.001918859936982
  0
LWPOLYLINE
  5
19
330
2
100
AcDbEntity
  8
mechanical
100
AcDbPolyline
 90
        2
 70
   129
 43
0.254
 10
528.8788099975095
 20
299.5707725439907
 42
0.33312026295774
 10
521.6904630304545
 20
302.5882959496743
 42
3.001918859936982
  0
LWPOLYLINE
  5
1A
330
2
100
AcDbEntity
  8
mechanical
100
AcDbPolyline
 90
        2
 70
   129
 43
0.254
 10
640.3228463875096
 20
287.1195570131906
 42
0.33312026295774
 10
633.1344994204546
 20
290.1370804188743
 42
3.001918859936982
  0
LWPOLYLINE
  5
1B
330
2
100
AcDbEntity
  8
mechanical
100
AcDbPolyline
 90
        2
 70
   129
 43
0.254
 10
772.6060815635096
 20
248.8754271517905
 42
0.33312026295774
 10
765.4177345964547
 20
251.8929505574742
 42
3.001918859936982
  0
LWPOLYLINE
  5
1C
330
2
100
AcDbEntity
  8
mechanical
100
AcDbPolyline
 90
        2
 70
   129
 43
0.254
 10
895.4343491191096
 20
186.6284636373905
 42
0.33312026295774
 10
888.2460021520547
 20
189.6459870430741
 42
3.001918859936982
  0
LWPOLYLINE
  5
1D
330
2
100
AcDbEntity
  8
mechanical
100
AcDbPolyline
 90
        2
 70
   129
 43
0.127
 10
945.1134317594357
 20
159.8131363542871
 42
1.0
 10
945.2404317594357
 20
159.8131363542871
 42
1.0
  0
LWPOLYLINE
  5
1E
330
2
100
AcDbEntity
  8
mechanical
100
AcDbPolyline
 90
        2
 70
   129
 43
0.127
 10
862.3632981046268
 20
50.00000000064142
 42
1.0
 10
862.4902981046268
 20
50.00000000064142
 42
1.0
  0
LWPOLYLINE
  5
1F
330
2
100
AcDbEntity
  8
mechanical
100
AcDbPolyline
 90
        2
 70
   129
 43
0.127
 10
132.7501336539586
 20
50.0
 42
1.0
 10
132.8771336539585
 20
50.0
 42
1.0
  0
LWPOLYLINE
  5
20
330
2
100
AcDbEntity
  8
mechanical
100
AcDbPolyline
 90
        2
 70
   129
 43
0.127
 10
50.0
 20
159.8131363542809
 42
1.0
 10
50.12699999999995
 20
159.8131363542809
 42
1.0
  0
LWPOLYLINE
  5
21
330
2
100
AcDbEntity
  8
mechanical
100
AcDbPolyline
 90
       12
 70
   129
 43
0.254
 10
56.65595523912219
 20
158.2901360813628
 10
58.2702185497223
 20
159.5065707369629
 10
58.64635293912233
 20
159.0074235431628
 10
54.65317538892231
 20
155.9983484273628
 10
54.27704099952229
 20
156.4974956211629
 10
56.14618795312225
 20
157.9059988783629
 10
54.39089401592235
 20
160.2353526079628
 10
52.52174706232216
 20
158.8268493507628
 10
52.14561267292214
 20
159.325996544563
 10
56.13879022312215
 20
162.3350716603629
 10
56.51492461252217
 20
161.8359244665628
 10
54.90066130212216
 20
160.6194898109629
  0
LWPOLYLINE
  5
22
330
2
100
AcDbEntity
  8
mechanical
100
AcDbPolyline
 90
       12
 70
   129
 43
0.254
 10
57.66225014592231
 20
152.0051713531627
 10
57.28611575652229
 20
152.5043185469629
 10
59.15526271012225
 20
153.9128218041629
 10
57.39996913172234
 20
156.2421750577628
 10
55.53082217812215
 20
154.8336718005628
 10
55.15468778872236
 20
155.3328189943629
 10
59.14786533892215
 20
158.3418941101629
 10
59.52399972832217
 20
157.8427469163628
 10
57.90973641772229
 20
156.6263122607629
 10
59.6650299961222
 20
154.2969590071628
 10
61.2792933067223
 20
155.5133936627628
 10
61.65542769612233
 20
155.014246468963
  0
LWPOLYLINE
  5
23
330
2
100
AcDbEntity
  8
mechanical
100
AcDbPolyline
 90
        2
 70
   129
 43
0.254
 10
713.0193799097169
 20
206.738639348835
 42
2.168001204936439
 10
714.6938281009222
 20
204.1981347799735
 42
0.4612543561890264
  0
LWPOLYLINE
  5
24
330
2
100
AcDbEntity
  8
copper
100
AcDbPolyline
 90
        2
 70
   129
 43
2.6
 10
80.90699506758705
 20
139.589419581825
 42
1.0
 10
83.50699506758706
 20
139.589419581825
 42
1.0
  0
LWPOLYLINE
  5
26
330
2
100
AcDbEntity
  8
copper
100
AcDbPolyline
 90
        2
 70
   129
 43
2.6
 10
82.11062511391594
 20
137.9921485616535
 42
1.0
 10
84.71062511391597
 20
137.9921485616535
 42
1.0
  0
LWPOLYLINE
  5
27
330
2
100
AcDbEntity
  8
copper
100
AcDbPolyline
 90
        2
 70
   128
 43
5.2
 10
82.20699506758705
 20
139.589419581825
 10
83.41062511391596
 20
137.9921485616536
  0
LWPOLYLINE
  5
28
330
2
100
AcDbEntity
  8
copper
100
AcDbPolyline
 90
        2
 70
   129
 43
2.6
 10
75.72154103351602
 20
133.1776283764534
 42
1.0
 10
78.32154103351604
 20
133.1776283764534
 42
1.0
  0
LWPOLYLINE
  5
2A
330
2
100
AcDbEntity
  8
copper
100
AcDbPolyline
 90
        2
 70
   129
 43
2.6
 10
74.51791098722328
 20
134.7748993965771
 42
1.0
 10
77.11791098722329
 20
134.7748993965771
 42
1.0
  0
LWPOLYLINE
  5
2B
330
2
100
AcDbEntity
  8
copper
100
AcDbPolyline
 90
        2
 70
   128
 43
5.2
 10
75.81791098722328
 20
134.7748993965771
 10
77.02154103351602
 20
133.1776283764533
  0
LWPOLYLINE
  5
2C
330
2
100
AcDbEntity
  8
copper
100
AcDbPolyline
 90
        2
 70
   129
 43
2.6
 10
87.29607914786885
 20
144.4039397670114
 42
1.0
 10
89.89607914786887
 20
144.4039397670114
 42
1.0
  0
LWPOLYLINE
  5
2D
330
2
100
AcDbEntity
  8
copper
100
AcDbPolyline
 90
        2
 70
   129
 43
2.6
 10
88.49970919427056
 20
142.806668746819
 42
1.0
 10
91.09970919427059
 20
142.806668746819
 42
1.0
  0
LWPOLYLINE
  5
2E
330
2
100
AcDbEntity
  8
copper
100
AcDbPolyline
 90
        2
 70
   129
 43
2.6
 10
93.68516322826883
 20
149.2184599522113
 42
1.0
 10
96.28516322826886
 20
149.2184599522113
 42
1.0
  0
LWPOLYLINE
  5
2F
330
2
100
AcDbEntity
  8
copper
100
AcDbPolyline
 90
        2
 70
   129
 43
2.6
 10
94.88879327463422
 20
147.6211889320672
 42
1.0
 10
97.48879327463425
 20
147.6211889320672
 42
1.0
  0
LWPOLYLINE
  5
30
330
2
100
AcDbEntity
  8
copper
100
AcDbPolyline
 90
        2
 70
   128
 43
5.2
 10
94.98516322826885
 20
149.2184599522115
 10
96.18879327463424
 20
147.6211889320672
  0
LWPOLYLINE
  5
31
330
2
100
AcDbEntity
  8
copper
100
AcDbPolyline
 90
        2
 70
   128
 43
5.2
 10
88.59607914786886
 20
144.4039397670114
 10
89.79970919427058
 20
142.806668746819
  0
LWPOLYLINE
  5
33
330
2
100
AcDbEntity
  8
copper
100
AcDbPolyline
 90
        2
 70
   128
 43
1.199999999999999
 10
84.16746571257693
 20
145.0263407958926
 42
0.2134217652833923
 10
87.30543880408413
 20
145.9317642016226
  0
LWPOLYLINE
  5
34
330
2
100
AcDbEntity
  8
copper
100
AcDbPolyline
 90
        2
 70
   128
 43
1.199999999999999
 10
84.16746571257709
 20
145.0263407958926
 10
88.59607914786886
 20
144.4039397670114
  0
LWPOLYLINE
  5
35
330
2
100
AcDbEntity
  8
copper
100
AcDbPolyline
 90
        2
 70
   128
 43
1.199999999999999
 10
86.9343105347923
 20
143.2910493516542
 42
0.2134217652833867
 10
84.16746571257698
 20
145.0263407958926
  0
LWPOLYLINE
  5
36
330
2
100
AcDbEntity
  8
copper
100
AcDbPolyline
 90
        2
 70
   128
 43
1.199999999999999
 10
90.55654979297685
 20
149.8408609810924
 10
94.98516322826862
 20
149.2184599522112
  0
LWPOLYLINE
  5
37
330
2
100
AcDbEntity
  8
copper
100
AcDbPolyline
 90
        2
 70
   128
 43
1.199999999999999
 10
90.55654979297669
 20
149.8408609810924
 42
0.2134217652833923
 10
93.69452288448389
 20
150.7462843868225
  0
LWPOLYLINE
  5
38
330
2
100
AcDbEntity
  8
copper
100
AcDbPolyline
 90
        2
 70
   128
 43
1.199999999999999
 10
93.32339461519206
 20
148.1055695368541
 42
0.2134217652833867
 10
90.55654979297674
 20
149.8408609810924
  0
LWPOLYLINE
  5
39
330
2
100
AcDbEntity
  8
copper
100
AcDbPolyline
 90
        2
 70
   129
 43
0.6
 10
90.25654979297684
 20
149.8408609810924
 42
1.0
 10
90.85654979297686
 20
149.8408609810924
 42
1.0
  0
LWPOLYLINE
  5
3A
330
2
100
AcDbEntity
  8
copper
100
AcDbPolyline
 90
        2
 70
   129
 43
0.6
 10
83.86746571257692
 20
145.0263407958927
 42
1.0
 10
84.46746571257694
 20
145.0263407958927
 42
1.0
  0
LWPOLYLINE
  5
3B
330
2
100
AcDbEntity
  8
copper
100
AcDbPolyline
 90
        2
 70
   129
 43
0.6
 10
82.70553287854784
 20
133.2751566175434
 42
-1.0
 10
82.87091529203308
 20
133.8519136351079
 42
-1.0
  0
LWPOLYLINE
  5
3C
330
2
100
AcDbEntity
  8
copper
100
AcDbPolyline
 90
        2
 70
   128
 43
1.199999999999999
 10
82.78822408529038
 20
133.5635351263255
 42
-0.2134217652833923
 10
84.52351552936898
 20
136.3303799486412
  0
LWPOLYLINE
  5
3D
330
2
100
AcDbEntity
  8
copper
100
AcDbPolyline
 90
        2
 70
   128
 43
1.199999999999999
 10
81.88280067937915
 20
136.7015082177804
 42
-0.2134217652833867
 10
82.78822408529043
 20
133.5635351263255
  0
LWPOLYLINE
  5
3E
330
2
100
AcDbEntity
  8
copper
100
AcDbPolyline
 90
        2
 70
   128
 43
1.199999999999999
 10
82.78822408529043
 20
133.5635351263256
 10
83.41062511391596
 20
137.9921485616534
  0
LWPOLYLINE
  5
41
330
2
100
AcDbEntity
  8
copper
100
AcDbPolyline
 90
        2
 70
   128
 43
1.199999999999999
 10
79.42880112611868
 20
129.9830863362599
 10
77.02154103351602
 20
133.1776283764533
  0
LWPOLYLINE
  5
42
330
2
100
AcDbEntity
  8
copper
100
AcDbPolyline
 90
        2
 70
   128
 43
1.199999999999999
 10
78.94280768261513
 20
132.6219895881568
 42
0.2360679774997971
 10
79.42880112611863
 20
129.9830863362599
  0
LWPOLYLINE
  5
43
330
2
100
AcDbEntity
  8
copper
100
AcDbPolyline
 90
        2
 70
   128
 43
1.199999999999999
 10
79.42880112611874
 20
129.9830863362599
 42
0.2360679774997926
 10
77.0260824584991
 20
131.1776335325952
  0
LWPOLYLINE
  5
44
330
2
100
AcDbEntity
  8
copper
100
AcDbPolyline
 90
        2
 70
   129
 43
0.6
 10
79.12880112611873
 20
129.9830863362599
 42
1.0
 10
79.72880112611875
 20
129.9830863362599
 42
1.0
  0
LWPOLYLINE
  5
45
330
2
100
AcDbEntity
  8
copper
100
AcDbPolyline
 90
        2
 70
   129
 43
0.6
 10
904.9838819664671
 20
149.8408609810924
 42
-1.0
 10
904.3838819664669
 20
149.8408609810924
 42
-1.0
  0
LWPOLYLINE
  5
46
330
2
100
AcDbEntity
  8
copper
100
AcDbPolyline
 90
        2
 70
   128
 43
1.199999999999999
 10
901.917037144252
 20
148.1055695368541
 42
-0.2134217652833867
 10
904.6838819664671
 20
149.8408609810924
  0
LWPOLYLINE
  5
47
330
2
100
AcDbEntity
  8
copper
100
AcDbPolyline
 90
        2
 70
   128
 43
1.199999999999999
 10
904.6838819664671
 20
149.8408609810924
 42
-0.2134217652833923
 10
901.5459088749601
 20
150.7462843868225
  0
LWPOLYLINE
  5
48
330
2
100
AcDbEntity
  8
copper
100
AcDbPolyline
 90
        2
 70
   128
 43
5.2
 10
906.6443526115751
 20
144.4039397670114
 10
905.4407225651733
 20
142.806668746819
  0
LWPOLYLINE
  5
49
330
2
100
AcDbEntity
  8
copper
100
AcDbPolyline
 90
        2
 70
   129
 43
2.6
 10
907.9443526115751
 20
144.4039397670114
 42
-1.0
 10
905.3443526115749
 20
144.4039397670114
 42
-1.0
  0
LWPOLYLINE
  5
4A
330
2
100
AcDbEntity
  8
copper
100
AcDbPolyline
 90
        2
 70
   129
 43
2.6
 10
906.7407225651734
 20
142.806668746819
 42
-1.0
 10
904.1407225651733
 20
142.806668746819
 42
-1.0
  0
LWPOLYLINE
  5
4B
330
2
100
AcDbEntity
  8
copper
100
AcDbPolyline
 90
        2
 70
   128
 43
1.199999999999999
 10
908.3061212246516
 20
143.2910493516542
 42
-0.2134217652833867
 10
911.0729660468669
 20
145.0263407958926
  0
LWPOLYLINE
  5
4C
330
2
100
AcDbEntity
  8
copper
100
AcDbPolyline
 90
        2
 70
   128
 43
5.2
 10
919.4225207722206
 20
134.7748993965771
 10
918.2188907259279
 20
133.1776283764533
  0
LWPOLYLINE
  5
4D
330
2
100
AcDbEntity
  8
copper
100
AcDbPolyline
 90
        2
 70
   129
 43
2.6
 10
920.7225207722206
 20
134.7748993965771
 42
-1.0
 10
918.1225207722206
 20
134.7748993965771
 42
-1.0
  0
LWPOLYLINE
  5
4E
330
2
100
AcDbEntity
  8
copper
100
AcDbPolyline
 90
        2
 70
   129
 43
2.6
 10
919.5188907259279
 20
133.1776283764534
 42
-1.0
 10
916.9188907259279
 20
133.1776283764534
 42
-1.0
  0
LWPOLYLINE
  5
4F
330
2
100
AcDbEntity
  8
copper
100
AcDbPolyline
 90
        2
 70
   128
 43
5.2
 10
913.0334366918569
 20
139.589419581825
 10
911.8298066455279
 20
137.9921485616536
  0
LWPOLYLINE
  5
50
330
2
100
AcDbEntity
  8
copper
100
AcDbPolyline
 90
        2
 70
   129
 43
2.6
 10
913.1298066455279
 20
137.9921485616535
 42
-1.0
 10
910.5298066455279
 20
137.9921485616535
 42
-1.0
  0
LWPOLYLINE
  5
51
330
2
100
AcDbEntity
  8
copper
100
AcDbPolyline
 90
        2
 70
   129
 43
2.6
 10
914.3334366918567
 20
139.589419581825
 42
-1.0
 10
911.7334366918569
 20
139.589419581825
 42
-1.0
  0
LWPOLYLINE
  5
52
330
2
100
AcDbEntity
  8
copper
100
AcDbPolyline
 90
        2
 70
   129
 43
0.6
 10
911.3729660468671
 20
145.0263407958927
 42
-1.0
 10
910.7729660468669
 20
145.0263407958927
 42
-1.0
  0
LWPOLYLINE
  5
53
330
2
100
AcDbEntity
  8
copper
100
AcDbPolyline
 90
        2
 70
   128
 43
1.199999999999999
 10
911.0729660468669
 20
145.0263407958926
 10
906.6443526115751
 20
144.4039397670114
  0
LWPOLYLINE
  5
54
330
2
100
AcDbEntity
  8
copper
100
AcDbPolyline
 90
        2
 70
   128
 43
1.199999999999999
 10
911.072966046867
 20
145.0263407958926
 42
-0.2134217652833923
 10
907.9349929553599
 20
145.9317642016226
  0
LWPOLYLINE
  5
56
330
2
100
AcDbEntity
  8
copper
100
AcDbPolyline
 90
        2
 70
   128
 43
1.199999999999999
 10
904.6838819664671
 20
149.8408609810924
 10
900.2552685311753
 20
149.2184599522112
  0
LWPOLYLINE
  5
57
330
2
100
AcDbEntity
  8
copper
100
AcDbPolyline
 90
        2
 70
   128
 43
5.2
 10
900.255268531175
 20
149.2184599522115
 10
899.0516384848097
 20
147.6211889320672
  0
LWPOLYLINE
  5
58
330
2
100
AcDbEntity
  8
copper
100
AcDbPolyline
 90
        2
 70
   129
 43
2.6
 10
900.3516384848095
 20
147.6211889320672
 42
-1.0
 10
897.7516384848097
 20
147.6211889320672
 42
-1.0
  0
LWPOLYLINE
  5
59
330
2
100
AcDbEntity
  8
copper
100
AcDbPolyline
 90
        2
 70
   129
 43
2.6
 10
901.5552685311751
 20
149.2184599522113
 42
-1.0
 10
898.955268531175
 20
149.2184599522113
 42
-1.0
  0
LWPOLYLINE
  5
5A
330
2
100
AcDbEntity
  8
copper
100
AcDbPolyline
 90
        2
 70
   129
 43
2.6
 10
888.7771003704934
 20
158.8475003225978
 42
-1.0
 10
886.1771003704932
 20
158.8475003225978
 42
-1.0
  0
LWPOLYLINE
  5
5C
330
2
100
AcDbEntity
  8
copper
100
AcDbPolyline
 90
        2
 70
   129
 43
2.6
 10
887.7304817229807
 20
157.4585904662328
 42
-1.0
 10
885.1304817229809
 20
157.4585904662328
 42
-1.0
  0
LWPOLYLINE
  5
5D
330
2
100
AcDbEntity
  8
copper
100
AcDbPolyline
 90
        2
 70
   129
 43
2.6
 10
895.1661844508933
 20
154.0329801373978
 42
-1.0
 10
892.5661844508933
 20
154.0329801373978
 42
-1.0
  0
LWPOLYLINE
  5
5E
330
2
100
AcDbEntity
  8
copper
100
AcDbPolyline
 90
        2
 70
   129
 43
0.6
 10
721.1412187454299
 20
202.5826543451533
 42
1.0
 10
721.7412187454299
 20
202.5826543451533
 42
1.0
  0
LWPOLYLINE
  5
5F
330
2
100
AcDbEntity
  8
copper
100
AcDbPolyline
 90
        2
 70
   129
 43
0.6
 10
717.5502283667191
 20
203.8255493930181
 42
1.0
 10
718.1502283667192
 20
203.8255493930181
 42
1.0
  0
LWPOLYLINE
  5
60
330
2
100
AcDbEntity
  8
copper
100
AcDbPolyline
 90
        2
 70
   128
 43
1.199999999999999
 10
721.4412187454298
 20
202.5826543451533
 10
717.8502283667191
 20
203.8255493930181
  0
LWPOLYLINE
  5
61
330
2
100
AcDbEntity
  8
copper
100
AcDbPolyline
 90
        2
 70
   128
 43
1.199999999999999
 10
720.9466322369337
 20
201.1665384651443
 10
717.3556418582229
 20
202.4094335130091
  0
LWPOLYLINE
  5
62
330
2
100
AcDbEntity
  8
copper
100
AcDbPolyline
 90
        2
 70
   129
 43
0.6
 10
720.6466322369337
 20
201.1665384651443
 42
1.0
 10
721.2466322369337
 20
201.1665384651443
 42
1.0
  0
LWPOLYLINE
  5
63
330
2
100
AcDbEntity
  8
copper
100
AcDbPolyline
 90
        2
 70
   129
 43
0.6
 10
717.0556418582228
 20
202.4094335130091
 42
1.0
 10
717.6556418582229
 20
202.4094335130091
 42
1.0
  0
LWPOLYLINE
  5
64
330
2
100
AcDbEntity
  8
copper
100
AcDbPolyline
 90
        2
 70
   128
 43
1.199999999999999
 10
918.2188907259277
 20
133.1776283764533
 42
0.1181674497751735
 10
913.1682321866943
 20
130.998750367202
  0
LWPOLYLINE
  5
65
330
2
100
AcDbEntity
  8
copper
100
AcDbPolyline
 90
        2
 70
   128
 43
1.199999999999999
 10
914.5709052535451
 20
131.9013644024137
 42
0.1738642011918293
 10
916.3624317074438
 20
133.9216444466354
  0
LWPOLYLINE
  5
66
330
2
100
AcDbEntity
  8
copper
100
AcDbPolyline
 90
        2
 70
   128
 43
1.199999999999999
 10
917.334298434269
 20
131.3838902468656
 42
0.2823332983079044
 10
913.1682321866943
 20
130.998750367202
  0
LWPOLYLINE
  5
67
330
2
100
AcDbEntity
  8
copper
100
AcDbPolyline
 90
        2
 70
   128
 43
1.199999999999999
 10
912.8165024970376
 20
136.2524844283757
 42
0.1828424162509504
 10
911.0076508245541
 20
134.0749376521098
  0
LWPOLYLINE
  5
68
330
2
100
AcDbEntity
  8
copper
100
AcDbPolyline
 90
        2
 70
   128
 43
1.199999999999999
 10
910.5878809357989
 20
132.9853943555229
 42
0.0806064522072168
 10
911.8298066455277
 20
137.9921485616534
  0
LWPOLYLINE
  5
69
330
2
100
AcDbEntity
  8
copper
100
AcDbPolyline
 90
        2
 70
   128
 43
1.199999999999999
 10
910.5878809357989
 20
132.9853943555229
 42
0.2589195081964696
 10
910.1898408337058
 20
136.8473725416154
  0
LWPOLYLINE
  5
6A
330
2
100
AcDbEntity
  8
copper
100
AcDbPolyline
 90
        2
 70
   129
 43
0.6
 10
910.2878809357989
 20
132.9853943555229
 42
1.0
 10
910.8878809357989
 20
132.9853943555229
 42
1.0
  0
LWPOLYLINE
  5
6B
330
2
100
AcDbEntity
  8
copper
100
AcDbPolyline
 90
        2
 70
   129
 43
0.6
 10
912.8682321866941
 20
130.9987503672021
 42
1.0
 10
913.4682321866941
 20
130.9987503672021
 42
1.0
  0
LWPOLYLINE
  5
6C
330
2
100
AcDbEntity
  8
copper
100
AcDbPolyline
 90
        2
 70
   129
 43
2.6
 10
893.5170096476246
 20
151.8444512548168
 42
-1.0
 10
890.9170096476245
 20
151.8444512548168
 42
-1.0
  0
LWPOLYLINE
  5
6D
330
2
100
AcDbEntity
  8
copper
100
AcDbPolyline
 90
        2
 70
   128
 43
0.5
 10
886.5020190406484
 20
152.81518168582
 42
0.3779055798539479
 10
890.4309616694703
 20
153.3717143689303
  0
LWPOLYLINE
  5
6E
330
2
100
AcDbEntity
  8
copper
100
AcDbPolyline
 90
        2
 70
   128
 43
5.2
 10
892.2170096476246
 20
151.8444512548168
 10
893.8661844508933
 20
154.0329801373977
  0
LWPOLYLINE
  5
6F
330
2
100
AcDbEntity
  8
copper
100
AcDbPolyline
 90
        6
 70
   128
 43
0.5
 10
890.9107428583736
 20
149.8909500197777
 42
0.0601844141102618
 10
739.5335272875882
 20
226.627644597236
 42
0.4167101426240614
 10
735.6799683504848
 20
224.8101255267534
 10
727.5999304151739
 20
201.9994611579231
 42
-0.414213562373094
 10
723.7704176115993
 20
200.1733090045526
 42
0.0011048719868202
 10
720.9466322369337
 20
201.1665384651443
  0
LWPOLYLINE
  5
70
330
2
100
AcDbEntity
  8
copper
100
AcDbPolyline
 90
        2
 70
   128
 43
5.2
 10
886.4304817229808
 20
157.4585904662328
 10
887.4771003704934
 20
158.8475003225978
  0
LWPOLYLINE
  5
71
330
2
100
AcDbEntity
  8
copper
100
AcDbPolyline
 90
        2
 70
   128
 43
0.5
 10
880.7084850333282
 20
158.3697597039457
 42
0.3776188781566901
 10
884.6290566997165
 20
158.967685521409
  0
LWPOLYLINE
  5
72
330
2
100
AcDbEntity
  8
copper
100
AcDbPolyline
 90
        2
 70
   128
 43
0.5
 10
882.1487348602563
 20
157.8763806474476
 10
884.3445177337475
 20
156.4352187999638
  0
LWPOLYLINE
  5
73
330
2
100
AcDbEntity
  8
copper
100
AcDbPolyline
 90
        2
 70
   128
 43
0.5
 10
882.7707166418989
 20
157.9611551093973
 10
884.2408544509222
 20
156.9815414783704
  0
LWPOLYLINE
  5
74
330
2
100
AcDbEntity
  8
copper
100
AcDbPolyline
 90
        2
 70
   128
 43
0.5
 10
883.3361532985895
 20
158.0647681923114
 10
884.0994958079219
 20
157.5372841348691
  0
LWPOLYLINE
  5
75
330
2
100
AcDbEntity
  8
copper
100
AcDbPolyline
 90
        2
 70
   128
 43
0.5
 10
883.9958325250966
 20
158.2343157809905
 10
883.7413857168822
 20
157.8669606693554
  0
LWPOLYLINE
  5
76
330
2
100
AcDbEntity
  8
copper
100
AcDbPolyline
 90
        2
 70
   128
 43
0.5
 10
888.0323860300174
 20
152.2562962069198
 10
890.0491149003338
 20
150.8904888432934
  0
LWPOLYLINE
  5
77
330
2
100
AcDbEntity
  8
copper
100
AcDbPolyline
 90
        2
 70
   128
 43
0.5
 10
888.6455266424032
 20
152.3599853973818
 10
889.9366104482515
 20
151.4934048273611
  0
LWPOLYLINE
  5
78
330
2
100
AcDbEntity
  8
copper
100
AcDbPolyline
 90
        2
 70
   128
 43
0.5
 10
889.1826928213076
 20
152.5389529641533
 10
889.9460332459502
 20
152.0208888848033
  0
LWPOLYLINE
  5
79
330
2
100
AcDbEntity
  8
copper
100
AcDbPolyline
 90
        2
 70
   128
 43
0.5
 10
889.8235222830376
 20
152.6519846899394
 10
889.5502277947358
 20
152.2469523363756
  0
LWPOLYLINE
  5
7A
330
2
100
AcDbEntity
  8
copper
100
AcDbPolyline
 90
        6
 70
   128
 43
0.5
 10
885.2817874834922
 20
155.408468142037
 42
0.0579811354083169
 10
738.6181506119138
 20
228.5551574898544
 42
0.4160815934830863
 10
734.7706346834172
 20
226.7354470831104
 10
726.1860141759375
 20
202.500301320474
 42
-0.4142135623731021
 10
724.2712577741504
 20
201.5872252437888
 42
0.0011048719868202
 10
721.4412187454298
 20
202.5826543451533
  0
LWPOLYLINE
  5
7B
330
2
100
AcDbEntity
  8
copper
100
AcDbPolyline
 90
      167
 70
   128
 43
1.0
 10
910.5878809357989
 20
132.9853943555229
 42
-0.056096870292826
 10
908.8103921461229
 20
129.8525578907386
 42
-0.9979301323402115
 10
906.9230067793425
 20
131.2102685630472
 42
1.003320726122518
 10
901.2390090846428
 20
135.2528247476197
 42
-0.9966902645888012
 10
899.3354502606727
 20
136.5877514843503
 42
1.003320726134143
 10
893.5983460673785
 20
140.5545796598652
 42
-0.9966902646126849
 10
891.6772528350522
 20
141.8641469095563
 42
1.003320726132264
 10
885.8880510027189
 20
145.7545495163929
 42
-0.9966902646004099
 10
883.9497611828374
 20
147.0385269939589
 42
1.003320726132175
 10
878.1094797322678
 20
150.8518199117539
 42
-0.9966902646082639
 10
876.1543341696436
 20
152.1099818320585
 42
1.003320726136905
 10
870.2640001038975
 20
155.8454945000444
 42
-0.9966902646239475
 10
868.2923426073896
 20
157.0776196175619
 42
1.003320726133258
 10
862.352991731216
 20
160.7346951525309
 42
-0.9966902646025829
 10
860.3651690132638
 20
161.9405668002392
 42
1.003320726128662
 10
854.3778457509018
 20
165.5185621119677
 42
-0.9966902646061644
 10
852.3742073665957
 20
166.6979682395121
 42
1.003320726132573
 10
846.3399645781585
 20
170.1962541439181
 42
-0.9966902646048309
 10
844.3208628637233
 20
171.3489873548208
 42
1.003320726132308
 10
838.2407616600305
 20
174.7669486845651
 42
-0.9966902646012988
 10
836.2065516709062
 20
175.8928062727616
 42
1.003320726131247
 10
830.0816612269077
 20
179.2298419854551
 42
-0.9966902645996935
 10
828.0327006752809
 20
180.3286259708817
 42
1.003320726127998
 10
821.8640980420202
 20
183.5841492547342
 42
-0.9966902646001875
 10
819.8007472339609
 20
184.655666418215
 42
1.003320726132794
 10
813.5895171492128
 20
187.8291047952901
 42
-0.9966902645983843
 10
811.5121389212603
 20
188.8731667124109
 42
1.003320726128242
 10
805.2593736187416
 20
191.9639621392213
 42
-0.9966902645971739
 10
803.1683332741602
 20
192.9803852135784
 42
1.003320726129391
 10
796.8751322914895
 20
195.9879941792666
 42
-0.9966902646027314
 10
794.770797535989
 20
196.976599674672
 42
1.003320726133126
 10
788.4382675213211
 20
199.9004932965576
 42
-0.9966902645991748
 10
786.3210083984165
 20
200.8611073685084
 42
1.0033207261297
 10
779.9502629158618
 20
203.7007714851401
 42
-0.9966902645983349
 10
777.8204517417828
 20
204.6332252113488
 42
1.003320726128396
 10
771.4126110755623
 20
207.3881604728579
 42
-0.996690264600879
 10
769.2706223738082
 20
208.2922898830147
 42
1.003320726158696
 10
762.8268133312126
 20
210.9620118388239
 42
-0.9966902647475656
 10
760.6730237667744
 20
211.8376579436376
 42
1.003320726487488
 10
754.1943794796988
 20
214.4216971268162
 42
-0.9966902663709028
 10
752.0291677936081
 20
215.2687059480412
 42
1.003320730279182
 10
745.5168275152646
 20
217.7666079470208
 42
-0.9979301471669369
 10
743.3415860801119
 20
218.5875382068872
 42
1.002489506848846
 10
736.7966792827642
 20
220.998869632661
 10
735.2440319504039
 20
216.6156012753571
 42
0.4134806381736513
 10
737.3134586241339
 20
212.145489492248
 42
-0.0693138254347375
 10
905.9410095313921
 20
121.8791497160125
 42
-1.0
 10
904.571447955686
 20
120.0003399623786
 42
0.069270829313107
 10
736.6204457382419
 20
209.9230161580066
 42
1.0
 10
734.2074376999367
 20
203.3787043372669
 42
-0.0692164914094992
 10
900.3432113640666
 20
114.4510384374253
 42
-1.0
 10
898.974056234107
 20
112.5719324717848
 42
0.0691723163548895
 10
733.5155534107499
 20
201.1557928141674
 42
1.0
 10
731.1013945386512
 20
194.6119054419503
 42
-0.0691164781766648
 10
894.7453877906218
 20
107.0229049834053
 42
-0.41900077976411
 10
894.9894328761764
 20
105.3835898846696
 10
861.4032797198706
 20
60.81325926028239
 42
-0.4090121831914443
 10
859.7918834371514
 20
60.57215611669227
 42
0.1560216911537701
 10
503.0973870428703
 20
178.1568809422645
 42
-1.0
 10
503.1180447165735
 20
180.4817891685214
 42
-0.15414217522398
 10
857.4720334429814
 20
65.10897456647359
 42
1.0
 10
861.5283809481388
 20
70.78318551755774
 42
0.1541759110739403
 10
503.0975402670965
 20
187.4572412541318
 42
-1.0
 10
503.1178914923473
 20
189.782152183099
 42
-0.1542706534270826
 10
863.0696051609955
 20
72.53934755668189
 42
1.0
 10
867.1280527830738
 20
78.21205660076708
 42
0.1543034042176913
 10
503.0976890117337
 20
196.7575910508185
 42
-1.0
 10
503.1177427477103
 20
199.0825045648387
 42
-0.1543953994925073
 10
868.6671570470906
 20
79.96963199047815
 42
1.0
 10
872.7276432830464
 20
85.64088198740234
 42
0.1544272077487962
 10
503.097833470396
 20
206.0579307860166
 42
-1.0
 10
503.1175982890479
 20
208.3828467741644
 42
-0.1545165737302274
 10
874.2646899419348
 20
87.39983165426981
 42
1.0
 10
878.3271559512654
 20
93.06966365557565
 42
0.1545474795641292
 10
503.0979738256989
 20
215.358260887688
 42
-1.0
 10
503.117457933745
 20
217.6831792452943
 42
-0.1546343273976322
 10
879.8622046393345
 20
94.82995012161728
 42
1.0
 10
883.9265940925885
 20
100.4984034708366
 42
0.1546643686767568
 10
503.0981102500281
 20
224.6585817598624
 42
-1.0
 10
503.1173215094157
 20
226.9835023880802
 42
-0.1547488033296838
 10
885.4597018894546
 20
102.2599907679843
 42
1.0
 10
889.5259608273642
 20
107.9271031940676
 42
0.1547780158321243
 10
503.0982429062473
 20
233.9588937842868
 42
-1.0
 10
503.1171888531966
 20
236.2838165896924
 42
-0.0727331304701646
 10
696.0490024630924
 20
206.4617368067129
 42
1.0
 10
698.1007250831405
 20
213.1281495819903
 42
0.0727610292347636
 10
503.0983719483453
 20
243.2591973219426
 42
-1.0
 10
503.1170598110986
 20
245.5841222161673
 42
-0.081710916414249
 10
721.9127148148532
 20
207.779114936538
 42
1.0
 10
724.2003261181945
 20
214.3683075672648
 42
0.0817381027391219
 10
503.0984975220333
 20
252.5594927144364
 42
-1.0
 10
503.1169342374106
 20
254.8844196138305
 42
-0.0817591814912294
 10
725.0177081876784
 20
216.5456616657818
 42
1.0
 10
727.3058713627033
 20
223.1346626738603
 42
0.0817856469720742
 10
503.0986197652937
 20
261.8597802852842
 42
-1.0
 10
503.1168119941503
 20
264.1847091106051
 42
-0.081806170509215
 10
728.122707249644
 20
225.3122014075402
 42
1.0
 10
730.4114077404873
 20
231.9010157973382
 42
0.081831943441025
 10
503.0987388088852
 20
271.1600603410921
 42
-1.0
 10
503.1166929505586
 20
273.4849910172191
 42
-0.1405267037858498
 10
879.4202345883688
 20
162.4411241181263
 42
1.0
 10
883.1616628915444
 20
168.3277478747627
 42
0.1405521364581921
 10
503.0988547768101
 20
280.4603331726482
 42
-1.0
 10
503.1165769826337
 20
282.7852656283169
 42
-0.0008179698306133
 10
505.4757446699317
 20
282.7634227274737
 42
1.0
 10
505.5517316523006
 20
289.7380088068414
 42
0.0008422737562414
 10
503.098967786745
 20
289.7605990559288
 42
-1.0
 10
503.116463972699
 20
292.0855332234867
 42
-0.000862606430699
 10
505.6364589601914
 20
292.0622212825783
 42
1.0
 10
505.7130131898492
 20
299.0368011588092
 42
0.0008862982281164
 10
503.0990779504385
 20
299.0608582530301
 42
-1.0
 10
503.1163538090054
 20
301.385794068211
 42
-0.0024703978336255
 10
510.4249159500191
 20
301.2953728152868
 42
-0.4142135623730893
 10
511.5671174182432
 20
300.1129226869573
 10
511.3253671525005
 20
286.1500941168941
 42
0.4123351054316959
 10
514.7295945447734
 20
282.6032029944045
 42
-0.0349844846406808
 10
615.0701793525588
 20
273.1766872717132
 42
1.0
 10
616.2062796128965
 20
280.0585403069398
 42
0.0282083817012297
 10
534.5944148999396
 20
288.8417357465431
 42
-1.0
 10
534.7124905990289
 20
291.1637355590506
 42
-0.0282287305515432
 10
616.6435878949356
 20
282.3428134551283
 42
1.0
 10
617.7802478570182
 20
289.2245740678347
 42
0.0279564233789847
 10
535.8681692337724
 20
298.0885432148862
 42
-1.0
 10
535.9887720567849
 20
300.4104131421393
 42
-0.0295418277955096
 10
622.7808927545733
 20
290.7400687584555
 42
-0.4142135623730797
 10
623.7299224054433
 20
289.3976250085094
 10
621.3669129847683
 20
275.634078541637
 42
0.4123351054317037
 10
624.1919552241699
 20
271.6106052760749
 42
-0.0437150218348565
 10
745.6844947592753
 20
238.7934481523898
 42
1.0
 10
748.084034814311
 20
245.3427101355662
 42
0.0369346694298
 10
644.774605802693
 20
274.7546271915935
 42
-1.0
 10
645.2445377532058
 20
277.031640358417
 42
-0.0369550298419756
 10
748.9396567797728
 20
247.5053597607469
 42
1.0
 10
751.3397294825322
 20
254.0544265661377
 42
0.0366825685478054
 10
647.4401912235677
 20
283.7000479655746
 42
-1.0
 10
647.9126011275134
 20
285.9765483241634
 42
-0.0382688884408584
 10
756.5352697401098
 20
254.610785245976
 42
-0.4142135623730866
 10
757.2173040817847
 20
253.1149103659223
 10
752.3290378411151
 20
240.033477798031
 42
0.4123351054317025
 10
754.3542003653924
 20
235.553754868724
 42
-0.0437343817738668
 10
867.6433640238913
 20
180.6270252887163
 42
1.0
 10
871.2226192446459
 20
186.6136401138659
 42
0.0369443441114082
 10
775.1881096186113
 20
234.7935191496147
 42
-1.0
 10
776.0745121362171
 20
236.9429180369275
 42
-0.0369647045381207
 10
872.4666874638636
 20
188.5786939591858
 42
1.0
 10
876.0464295679872
 20
194.5650176614227
 42
0.036692243050081
 10
779.4754510620825
 20
243.0847555958059
 42
-1.0
 10
780.3641923949625
 20
245.2331884765893
 42
-0.0382785640920057
 10
881.2545480951186
 20
194.1423180563927
 42
-0.4142135623730829
 10
881.6455346736605
 20
192.5454642761736
 10
874.4084568839598
 20
180.6153319283945
 42
0.4132837589592129
 10
875.5564380387372
 20
175.8267826008563
 42
-0.0181263203526528
 10
919.0449901734147
 20
146.8383110492524
 42
1.0
 10
923.1214562840117
 20
152.4980856957517
 42
0.0113554981573022
 10
895.8592011562329
 20
171.2084595782922
 42
-1.0
 10
897.1309622176546
 20
173.1548019948912
 42
-0.0114236272225099
 10
924.6417492299384
 20
154.2683440250653
 42
1.0
 10
928.7197573697536
 20
159.9270077022593
 42
0.0111515001163032
 10
901.6178163480327
 20
178.5544958926854
 42
-1.0
 10
902.8916949960139
 20
180.4994530105208
 42
-0.0127596482995018
 10
933.92965291681
 20
159.0194028617178
 42
-0.4185780977910046
 10
934.1723469952698
 20
157.3810731625982
 10
922.9773164633474
 20
142.5247658672744
 42
-0.4097502057645091
 10
921.3635439088866
 20
142.2853925512925
 42
0.0042597108020153
 10
911.4106019300731
 20
149.4208248425158
 42
0.1905307351670936
 10
907.8361946091487
 20
150.283889631217
 10
904.6838819664671
 20
149.8408609810924
  0
LWPOLYLINE
  5
7C
330
2
100
AcDbEntity
  8
copper
100
AcDbPolyline
 90
      123
 70
   128
 43
1.0
 10
90.55654979297685
 20
149.8408609810924
 10
87.40423715029555
 20
150.2838896312169
 42
0.1905307351670998
 10
83.82982982937091
 20
149.4208248425157
 42
0.0042597108020153
 10
73.87688785055735
 20
142.2853925512925
 42
-0.4097502057645094
 10
72.26311529609637
 20
142.5247658672744
 10
66.66559192326946
 20
149.9529302731105
 42
-0.414213562373061
 10
66.89439573928797
 20
151.5809540179543
 42
0.414107209993482
 10
67.58049147726461
 20
156.4654442139114
 10
64.81792718671556
 20
160.1314908500913
 42
-0.4144441042786167
 10
65.08061614129309
 20
161.755046908683
 42
-0.0111851355953674
 10
92.34873676343005
 20
180.4994530105207
 42
-1.0
 10
93.62261541141128
 20
178.5544958926853
 42
0.0095679193161445
 10
70.31805389497356
 20
162.6454213858244
 42
1.0
 10
74.36014052933126
 20
156.9610427354926
 42
-0.0098400373774823
 10
98.10946954178934
 20
173.1548019948912
 42
-1.0
 10
99.38123060321073
 20
171.2084595782922
 42
0.0113554981573021
 10
72.11897547543236
 20
152.4980856957518
 42
1.0
 10
76.19544158602912
 20
146.8383110492523
 42
-0.0181263203526528
 10
119.6839937207066
 20
175.8267826008563
 42
0.4113871005815966
 10
120.8437034590359
 20
180.5959976669575
 10
113.5948970857835
 20
192.5454642761736
 42
-0.4142135623730782
 10
113.9858836643251
 20
194.1423180563927
 42
-0.0382785640920058
 10
214.8762393644815
 20
245.2331884765893
 42
-1.0
 10
215.7649806973614
 20
243.084755595806
 42
0.0366922430500811
 10
119.1940021914566
 20
194.5650176614227
 42
1.0
 10
122.7737442955804
 20
188.5786939591858
 42
-0.0369647045381207
 10
219.1659196232268
 20
236.9429180369275
 42
-1.0
 10
220.0523221408326
 20
234.7935191496147
 42
0.0369443441114082
 10
124.017812514798
 20
186.6136401138659
 42
1.0
 10
127.5970677355525
 20
180.6270252887164
 42
-0.0437343817738668
 10
240.8862313940514
 20
235.553754868724
 42
0.4123351054317025
 10
242.9113939183288
 20
240.033477798031
 10
238.0231276776592
 20
253.1149103659223
 42
-0.4142135623730784
 10
238.705162019334
 20
254.610785245976
 42
-0.0382688884408584
 10
347.3278306319304
 20
285.9765483241632
 42
-1.0
 10
347.8002405358762
 20
283.7000479655749
 42
0.0366825685478054
 10
243.9007022769117
 20
254.0544265661374
 42
1.0
 10
246.300774979671
 20
247.5053597607469
 42
-0.0369550298419756
 10
349.995894006238
 20
277.0316403584171
 42
-1.0
 10
350.4658259567509
 20
274.7546271915938
 42
0.0369346694298
 10
247.1563969451328
 20
245.3427101355662
 42
1.0
 10
249.5559370001685
 20
238.7934481523901
 42
-0.0437150218348564
 10
371.0484765352739
 20
271.6106052760747
 42
0.4123351054317036
 10
373.8735187746756
 20
275.6340785416368
 10
371.5105093540005
 20
289.3976250085096
 42
-0.4142135623730887
 10
372.4595390048706
 20
290.7400687584557
 42
-0.0295418277955096
 10
459.251659702659
 20
300.4104131421391
 42
-1.0
 10
459.3722625256714
 20
298.0885432148861
 42
0.0279564233789847
 10
377.4601839024256
 20
289.224574067835
 42
1.0
 10
378.5968438645082
 20
282.3428134551286
 42
-0.0282287305515432
 10
460.527941160415
 20
291.1637355590506
 42
-1.0
 10
460.6460168595043
 20
288.8417357465428
 42
0.0282083817012297
 10
379.0341521465473
 20
280.05854030694
 42
1.0
 10
380.170252406885
 20
273.1766872717133
 42
-0.0349844846406808
 10
480.5108372146706
 20
282.6032029944045
 42
0.412335105431697
 10
483.9150646069433
 20
286.1500941168941
 10
483.6733143412007
 20
300.1129226869575
 42
-0.4142135623730899
 10
484.8155158094248
 20
301.295372815287
 42
-0.0024703978336255
 10
492.1240779504384
 20
301.385794068211
 42
-1.0
 10
492.1413538090055
 20
299.0608582530299
 42
0.0008862982281164
 10
489.5274185695946
 20
299.0368011588089
 42
1.0
 10
489.603972799252
 20
292.0622212825783
 42
-0.0008626064306992
 10
492.123967786745
 20
292.0855332234862
 42
-1.0
 10
492.1414639726989
 20
289.7605990559289
 42
0.0008422737562414
 10
489.688700107143
 20
289.7380088068413
 42
1.0
 10
489.7646870895118
 20
282.7634227274738
 42
-0.0008179698306135
 10
492.1238547768101
 20
282.7852656283165
 42
-1.0
 10
492.1415769826337
 20
280.4603331726482
 42
0.1463662787902419
 10
98.35722411726756
 20
159.385483360714
 42
1.0
 10
102.2318110634146
 20
153.5856384492747
 42
-0.1463408045170963
 10
492.1237388088852
 20
273.4849910172191
 42
-1.0
 10
492.1416929505587
 20
271.1600603410921
 42
0.146479508482167
 10
103.2029692846877
 20
151.4382072327095
 42
1.0
 10
107.0807059750821
 20
145.6404677456361
 42
-0.1464533577212594
 10
492.1236197652937
 20
264.1847091106054
 42
-1.0
 10
492.1418119941503
 20
261.859780285284
 42
0.1477123058226969
 10
105.5093704359127
 20
141.782166217241
 42
-0.4139708327829018
 10
103.8957732543364
 20
142.0934161812142
 42
1.002489508256044
 10
98.14326294508028
 20
138.1489327711266
 42
-0.9991715373953057
 10
96.23451422318277
 20
136.8214164422523
 42
1.002489509179081
 10
90.53481540900305
 20
132.8009988447918
 42
-0.4139708317598672
 10
90.26512163111254
 20
131.1799381854735
 42
0.0005924574039346
 10
88.91677047161493
 20
130.2129779983376
 42
1.0
 10
92.98833589576906
 20
124.5496768411652
 42
-0.155073878545343
 10
492.1234975220333
 20
254.8844196138305
 42
-1.0
 10
492.1419342374106
 20
252.5594927144364
 42
0.1549961092625365
 10
94.51594004814893
 20
122.7843889274789
 42
1.0
 10
98.58578491161461
 20
117.1198511892937
 42
-0.1549684546378709
 10
492.1233719483452
 20
245.5841222161676
 42
-1.0
 10
492.1420598110986
 20
243.2591973219428
 42
0.1548885540736551
 10
100.1151726553098
 20
115.3557644887236
 42
1.0
 10
104.1832493576653
 20
109.6899567842779
 42
-0.1548601365171556
 10
492.1232429062473
 20
236.2838165896924
 42
-1.0
 10
492.1421888531965
 20
233.9588937842868
 42
0.1547780158321243
 10
105.7144709320796
 20
107.9271031940677
 42
1.0
 10
109.7807298699892
 20
102.2599907679844
 42
-0.1547488033296838
 10
492.1231102500282
 20
226.9835023880802
 42
-1.0
 10
492.1423215094157
 20
224.6585817598624
 42
0.1546643686767568
 10
111.3138376668553
 20
100.4984034708366
 42
1.0
 10
115.3782271201093
 20
94.82995012161707
 42
-0.1546343273976322
 10
492.1229738256989
 20
217.6831792452941
 42
-1.0
 10
492.142457933745
 20
215.3582608876882
 42
0.1545474795641293
 10
116.9132758081783
 20
93.06966365557565
 42
1.0
 10
120.975741817509
 20
87.39983165426981
 42
-0.1545165737302274
 10
492.122833470396
 20
208.3828467741641
 42
-1.0
 10
492.1425982890479
 20
206.0579307860169
 42
0.1544272077487962
 10
122.5127884763974
 20
85.64088198740234
 42
1.0
 10
126.5732747123532
 20
79.96963199047837
 42
-0.1543953994925073
 10
492.1226890117337
 20
199.0825045648387
 42
-1.0
 10
492.1427427477103
 20
196.7575910508185
 42
0.1543034042176913
 10
128.11237897637
 20
78.2120566007672
 42
1.0
 10
132.1708265984484
 20
72.53934755668201
 42
-0.1542706534270826
 10
492.1225402670966
 20
189.782152183099
 42
-1.0
 10
492.1428914923473
 20
187.4572412541318
 42
0.1541759110739403
 10
133.7120508113051
 20
70.7831855175578
 42
1.0
 10
137.7683983164625
 20
65.10897456647348
 42
-0.15414217522398
 10
492.1223870428703
 20
180.4817891685214
 42
-1.0
 10
492.1430447165735
 20
178.1568809422643
 42
0.1560216911537699
 10
135.4485483222927
 20
60.57215611669227
 42
-0.4090121831914645
 10
133.8371520395733
 20
60.81325926028239
 10
83.44165833058474
 20
127.6903382200419
 42
-0.1989123673705759
 10
82.4834955370955
 20
131.395278840431
 10
82.78822408529043
 20
133.5635351263254
  0
LWPOLYLINE
  5
7D
330
2
100
AcDbEntity
  8
copper
100
AcDbPolyline
 90
      167
 70
   128
 43
1.0
 10
911.0729660468669
 20
145.0263407958926
 10
912.3862186946549
 20
145.2109064192207
 42
-0.1921954638921772
 10
913.8264625038377
 20
144.8582504832184
 42
-0.0026537713836097
 10
919.9928263608271
 20
140.4074259905035
 42
0.409750205764497
 10
924.83414402421
 20
141.125545938449
 10
936.0291745561324
 20
155.9818532337732
 42
0.4185780977910069
 10
935.3010923207525
 20
160.8968423311321
 42
0.0127596482995018
 10
904.1655736439949
 20
182.4444101283561
 42
1.0
 10
900.3439377000516
 20
176.6095387748501
 42
-0.0111515001163032
 10
927.3604213231486
 20
158.0407864765281
 42
-1.0
 10
926.0010852765432
 20
156.1545652507965
 42
0.0114236272225098
 10
898.4027232790761
 20
175.1011444114901
 42
1.0
 10
894.5874400948117
 20
169.2621171616934
 42
-0.0113554981573021
 10
921.762634247146
 20
150.6114941469188
 42
-1.0
 10
920.4038122102801
 20
148.7249025980854
 42
0.0181263203526527
 10
876.7750376525357
 20
177.8068432012548
 42
-0.4139786205080997
 10
876.3938186924711
 20
179.4053789018347
 10
883.6333750324213
 20
191.3395970744961
 42
0.4142135623730935
 10
882.4604152967962
 20
196.1301584151536
 42
0.0382785640920057
 10
781.2529337278423
 20
247.3816213573726
 42
1.0
 10
778.5867097292026
 20
240.9363227150225
 42
-0.036692243050081
 10
874.8531821999462
 20
192.5695764273439
 42
-1.0
 10
873.6599348319048
 20
190.5741351932648
 42
0.0369647045381207
 10
776.9609146538229
 20
239.0923169242406
 42
1.0
 10
774.3017071010053
 20
232.6441202623017
 42
-0.0369443441114083
 10
870.0295341710612
 20
184.6181018388161
 42
-1.0
 10
868.8364490974763
 20
182.6225635637661
 42
0.0437343817738669
 10
755.1820012376029
 20
237.7263962832163
 42
-0.4123351054316901
 10
754.5069470628438
 20
239.2196372596518
 10
759.3952133035135
 20
252.3010698275433
 42
0.414213562373099
 10
757.3491102784887
 20
256.7886944677048
 42
0.0382688884408584
 10
648.3850110314592
 20
288.2530486827517
 42
1.0
 10
646.9677813196218
 20
281.4235476069862
 42
-0.0366825685478054
 10
750.5397052482789
 20
251.871404297674
 42
-1.0
 10
749.7396810140259
 20
249.6883820292105
 42
0.0369550298419756
 10
645.7144697037186
 20
279.3086535252405
 42
1.0
 10
644.30467385218
 20
272.4776140247702
 42
-0.0369346694298
 10
747.2841881292992
 20
243.1596228078408
 42
-1.0
 10
746.4843414442872
 20
240.9765354801153
 42
0.0437150218348565
 10
624.6000671320516
 20
273.8995066873735
 42
-0.4123351054316822
 10
623.6583863855844
 20
275.2406644425608
 10
626.0213958062596
 20
289.0042109094334
 42
0.4142135623730971
 10
623.1743068536493
 20
293.0315421592717
 42
0.0295418277955096
 10
536.1093748797972
 20
302.732283069392
 42
1.0
 10
535.74756641076
 20
295.7666732876333
 42
-0.0279564233789847
 10
617.4013612029908
 20
286.9306538635994
 42
-1.0
 10
617.0224745489631
 20
284.6367336593638
 42
0.0282287305515432
 10
534.8305662981182
 20
293.4857353715581
 42
1.0
 10
534.4763392008502
 20
286.5197359340357
 42
-0.0282083817012297
 10
615.8275795261173
 20
277.7645892951978
 42
-1.0
 10
615.448879439338
 20
275.4706382834554
 42
0.0349844846406808
 10
514.7847612131451
 20
284.9275484159589
 42
-0.4123351054317005
 10
513.6500187490542
 20
286.1098454567888
 10
513.891769014797
 20
300.072674026852
 42
0.4142135623730951
 10
510.4651646101244
 20
303.6200244118405
 42
0.0024703978336255
 10
503.1336296675725
 20
303.710729883392
 42
1.0
 10
503.0818020918713
 20
296.7359224378493
 42
-0.0008862982281164
 10
505.6874951132965
 20
296.7119412000655
 42
-1.0
 10
505.661977036744
 20
294.3870812413218
 42
0.000862606430699
 10
503.133960158653
 20
294.4104673910442
 42
1.0
 10
503.0814716007909
 20
287.4356648883711
 42
-0.0008422737562414
 10
505.5264026581777
 20
287.4131467803853
 42
-1.0
 10
505.5010736640547
 20
285.0882847539295
 42
0.0008179698306133
 10
503.1342991884575
 20
285.1101980839852
 42
1.0
 10
503.0811325709866
 20
278.1354007169796
 42
-0.1405521364581921
 10
881.9145201238193
 20
166.3655399558838
 42
-1.0
 10
880.6673773560939
 20
164.4033320370049
 42
0.1405267037858498
 10
503.1346470922322
 20
275.8099216933463
 42
1.0
 10
503.0807846672116
 20
268.8351296649651
 42
-0.081831943441025
 10
729.648507576873
 20
229.7047443340723
 42
-1.0
 10
728.8856074132585
 20
227.5084728708064
 42
0.081806170509215
 10
503.1350042230068
 20
266.5096379359263
 42
1.0
 10
503.0804275364371
 20
259.534851459963
 42
-0.0817856469720742
 10
726.5431503043616
 20
220.9383290045007
 42
-1.0
 10
725.78042924602
 20
218.7419953351414
 42
0.0817591814912294
 10
503.1353709527878
 20
257.2093465132244
 42
1.0
 10
503.080060806656
 20
250.2345658150424
 42
-0.0817381027391219
 10
723.4377890170805
 20
212.1719100236892
 42
-1.0
 10
722.675251915967
 20
209.9755124801137
 42
0.081710916414249
 10
503.1357476738519
 20
247.9090471103923
 42
1.0
 10
503.0796840855919
 20
240.934272427718
 42
-0.0727610292347636
 10
697.4168175431246
 20
210.9060119902314
 42
-1.0
 10
696.7329100031085
 20
208.6838743984721
 42
0.0727331304701647
 10
503.136134800146
 20
238.6087393950977
 42
1.0
 10
503.079296959298
 20
231.6339709788815
 42
-0.1547780158321243
 10
888.1705411813944
 20
106.0380657187065
 42
-1.0
 10
886.8151215354245
 20
104.1490282433454
 42
0.1547488033296839
 10
503.1365327688032
 20
229.308423016298
 42
1.0
 10
503.0788989906406
 20
222.3336611316446
 42
-0.1546643686767568
 10
882.5717976081707
 20
98.60891902109717
 42
-1.0
 10
881.2170011237524
 20
96.71943457135711
 42
0.1546343273976322
 10
503.1369420417912
 20
220.0080976029002
 42
1.0
 10
503.0784897176527
 20
213.033342530082
 42
-0.1545474795641293
 10
876.973000614822
 20
91.17971965514044
 42
-1.0
 10
875.6188452783785
 20
89.28977565470502
 42
0.1545165737302275
 10
503.1373631076997
 20
210.7077627623118
 42
1.0
 10
503.0780686517442
 20
203.7330147978693
 42
-0.1544272077487961
 10
871.3741478710613
 20
83.75046532176117
 42
-1.0
 10
870.0206524590758
 20
81.86004865611954
 42
0.1543953994925072
 10
503.1377964836868
 20
201.4074180788589
 42
1.0
 10
503.0776352757571
 20
194.4326775367986
 42
-0.1543034042176913
 10
865.7752369090479
 20
76.32115358607194
 42
-1.0
 10
864.4224210350216
 20
74.4302505713768
 42
0.1542706534270827
 10
503.138242717598
 20
192.107063112066
 42
1.0
 10
503.0771890418458
 20
185.1323303251647
 42
-0.1541759110739403
 10
860.1762651130863
 20
68.89178186719641
 42
-1.0
 10
858.8241492780339
 20
67.00037821683498
 42
0.15414217522398
 10
503.1387023902767
 20
182.8066973947782
 42
1.0
 10
503.0767293691671
 20
175.8319727160076
 42
-0.15602169115377
 10
858.425918432575
 20
58.69072990068679
 42
0.4090121831914722
 10
863.2601072807331
 20
59.41403933145721
 10
896.8462604370389
 20
103.9843699558444
 42
0.4190007797640678
 10
896.114125180375
 20
108.902315252051
 42
0.0691164781766648
 10
731.906114162684
 20
196.7932012326892
 42
-1.0
 10
732.7108337867169
 20
198.9744970234283
 42
-0.0691723163548895
 10
897.6049011041475
 20
110.6928265061444
 42
1.0
 10
901.7123664940262
 20
116.3301444030657
 42
0.0692164914094993
 10
735.0117737127052
 20
205.5601416108468
 42
-1.0
 10
735.8161097254735
 20
207.7415788844267
 42
-0.0692708293131069
 10
903.2018863799798
 20
118.1215302087452
 42
1.0
 10
907.3105711070983
 20
123.7579594696463
 42
0.0693138254347374
 10
738.1174212445122
 20
214.3270644061655
 42
-0.4139692123496824
 10
737.4282800902692
 20
215.8189229511019
 10
738.9809765838704
 20
220.2023262000603
 42
-1.000829145354885
 10
741.1626181775428
 20
219.3985468500088
 42
0.9971033850666104
 10
747.6903679848402
 20
216.9411705920964
 42
-1.003320726648761
 10
749.861148076026
 20
216.1085365881994
 42
0.9966902646980418
 10
756.3567831377201
 20
213.5675101333788
 42
-1.003320726164525
 10
758.5163312332699
 20
212.7061637386232
 42
0.9966902646004756
 10
764.9776999268908
 20
210.0792254249443
 42
-1.00332072612375
 10
767.1256362744088
 20
209.1893181063074
 42
0.9966902645956892
 10
773.5516023796808
 20
206.4769298758598
 42
-1.003320726131756
 10
775.6875492684224
 20
205.5586181220265
 42
0.9966902645950309
 10
782.0769827906633
 20
202.7612569434087
 42
-1.003320726132924
 10
784.2005646181817
 20
201.8147022378653
 42
0.9966902645974677
 10
790.5523419869114
 20
198.9328600220475
 42
-1.003320726133471
 10
792.6631853251379
 20
197.9582288147605
 42
0.9966902645960185
 10
798.9761895916392
 20
194.9924123285443
 42
-1.003320726117956
 10
801.073923252523
 20
193.9898760066346
 42
0.9966902645867319
 10
807.3470442862813
 20
190.9406067835926
 42
-1.003320726119075
 10
809.431299387111
 20
189.910341641302
 42
0.9966902645940868
 10
815.6634340709768
 20
186.778155889957
 42
-1.003320726124495
 10
817.7338440992295
 20
185.720343097605
 42
0.9966902645980605
 10
823.9238965234305
 20
182.5057916072071
 42
-1.003320726136231
 10
825.9800974011834
 20
181.420617179255
 42
0.9966902646019025
 10
832.1269790560604
 20
178.1242652229687
 42
-1.003320726137399
 10
834.1686092040651
 20
177.011919985414
 42
0.9966902646039223
 10
840.2712391714494
 20
173.6343472208445
 42
-1.003320726139439
 10
842.2979395726892
 20
172.4950267776122
 42
0.9966902646054812
 10
848.3552447159899
 20
169.0368271448958
 42
-1.003320726141253
 10
850.36665897881
 20
167.8707318434403
 42
0.9966902645989607
 10
856.3775741317376
 20
164.3325134608246
 42
-1.003320726123924
 10
858.3733485525179
 20
163.139848356903
 42
0.9966902645929232
 10
864.3368167063837
 20
159.5222334137943
 42
-1.003320726120095
 10
866.3166003317664
 20
158.3032082354575
 42
0.9966902645957114
 10
872.2315728213256
 20
154.6068328829626
 42
-1.003320726135062
 10
874.1950175099066
 20
153.3616619936323
 42
0.9966902646019246
 10
880.0604541977911
 20
149.5871762327377
 42
-1.003320726129269
 10
882.0072146813155
 20
148.3160785934743
 42
0.9966902645962383
 10
887.8220841409705
 20
144.4641461607925
 42
-1.003320726137549
 10
889.7518180850836
 20
143.16734529185
 42
0.9966902646010462
 10
895.5150977820833
 20
139.2386435428079
 42
-1.00332072612728
 10
897.427465846512
 20
137.9163674842988
 42
0.9966902645974677
 10
903.1381423184207
 20
133.9115872741045
 42
-1.003320726135883
 10
905.0328082166638
 20
132.5640685459277
 42
0.9971033837363922
 10
910.691574882456
 20
128.4862535131725
 42
-0.0751683698948307
 10
913.1682321866943
 20
130.998750367202
  0
LWPOLYLINE
  5
7E
330
2
100
AcDbEntity
  8
copper
100
AcDbPolyline
 90
      123
 70
   128
 43
1.0
 10
84.16746571257698
 20
145.0263407958926
 10
82.854213064789
 20
145.2109064192207
 42
0.1921954638921694
 10
81.41396925560627
 20
144.8582504832182
 42
0.0026537713836097
 10
75.24760539861683
 20
140.4074259905035
 42
-0.409750205764497
 10
70.40628773523394
 20
141.125545938449
 10
64.80876436240703
 20
148.5537103442853
 42
-0.4142135631616397
 10
65.49517581795118
 20
153.4377815844688
 42
0.4138945748591997
 10
65.72366391640219
 20
155.0662242850861
 10
63.00006778702488
 20
158.6805584247747
 42
-0.423896699499078
 10
63.72102636282028
 20
163.6410852524798
 42
-0.0111851355953675
 10
91.07485811544899
 20
182.444410128356
 42
-1.0
 10
94.89649405939218
 20
176.6095387748502
 42
0.0095679193161445
 10
71.66541610642616
 20
160.7506285023806
 42
1.0
 10
73.01277831787865
 20
158.8558356189367
 42
-0.0098400373774823
 10
96.83770848036795
 20
175.1011444114901
 42
-1.0
 10
100.6529916646322
 20
169.2621171616933
 42
0.0113554981573021
 10
73.47779751229791
 20
150.6114941469187
 42
1.0
 10
74.83661954916351
 20
148.7249025980855
 42
-0.0181263203526527
 10
118.4653941069081
 20
177.8068432012548
 42
0.4139786205086103
 10
118.8466130669717
 20
179.4053789018364
 10
111.6070567270226
 20
191.3395970744961
 42
-0.4142135623730919
 10
112.7800164626476
 20
196.1301584151536
 42
-0.0382785640920058
 10
213.9874980316016
 20
247.3816213573726
 42
-1.0
 10
216.6537220302412
 20
240.9363227150226
 42
0.0366922430500811
 10
120.3872495594978
 20
192.5695764273437
 42
1.0
 10
121.5804969275391
 20
190.5741351932648
 42
-0.0369647045381208
 10
218.2795171056211
 20
239.0923169242406
 42
-1.0
 10
220.9387246584384
 20
232.6441202623019
 42
0.0369443441114082
 10
125.2108975883828
 20
184.6181018388161
 42
1.0
 10
126.4039826619677
 20
182.6225635637661
 42
-0.0437343817738668
 10
240.0584305218409
 20
237.7263962832165
 42
0.4123351054316901
 10
240.7334846966001
 20
239.219637259652
 10
235.8452184559304
 20
252.3010698275433
 42
-0.4142135623730968
 10
237.8913214809552
 20
256.7886944677048
 42
-0.0382688884408584
 10
346.8554207279846
 20
288.2530486827518
 42
-1.0
 10
348.272650439822
 20
281.4235476069864
 42
0.0366825685478054
 10
244.7007265111648
 20
251.8714042976739
 42
1.0
 10
245.500750745418
 20
249.6883820292102
 42
-0.0369550298419756
 10
349.5259620557252
 20
279.3086535252405
 42
-1.0
 10
350.9357579072638
 20
272.4776140247702
 42
0.0369346694298
 10
247.9562436301448
 20
243.1596228078406
 42
1.0
 10
248.7560903151567
 20
240.9765354801152
 42
-0.0437150218348565
 10
370.6403646273922
 20
273.8995066873735
 42
0.412335105431688
 10
371.5820453738595
 20
275.2406644425608
 10
369.2190359531843
 20
289.0042109094335
 42
-0.4142135623730999
 10
372.0661249057946
 20
293.0315421592718
 42
-0.0295418277955096
 10
459.1310568796467
 20
302.732283069392
 42
-1.0
 10
459.4928653486838
 20
295.7666732876333
 42
0.0279564233789847
 10
377.8390705564532
 20
286.9306538635994
 42
1.0
 10
378.2179572104807
 20
284.6367336593637
 42
-0.0282287305515432
 10
460.4098654613257
 20
293.4857353715579
 42
-1.0
 10
460.7640925585937
 20
286.5197359340355
 42
0.0282083817012297
 10
379.4128522333266
 20
277.7645892951979
 42
1.0
 10
379.7915523201058
 20
275.4706382834555
 42
-0.0349844846406808
 10
480.4556705462987
 20
284.9275484159588
 42
0.4123351054317023
 10
481.5904130103897
 20
286.1098454567887
 10
481.348662744647
 20
300.072674026852
 42
-0.4142135623730911
 10
484.7752671493195
 20
303.6200244118406
 42
-0.0024703978336255
 10
492.1068020918714
 20
303.7107298833919
 42
-1.0
 10
492.1586296675727
 20
296.7359224378493
 42
0.0008862982281165
 10
489.5529366461473
 20
296.7119412000653
 42
1.0
 10
489.5784547226998
 20
294.3870812413218
 42
-0.0008626064306991
 10
492.106471600791
 20
294.410467391044
 42
-1.0
 10
492.158960158653
 20
287.4356648883711
 42
0.0008422737562414
 10
489.7140291012661
 20
287.4131467803854
 42
1.0
 10
489.7393580953891
 20
285.0882847539297
 42
-0.0008179698306134
 10
492.1061325709866
 20
285.1101980839851
 42
-1.0
 10
492.1592991884573
 20
278.1354007169796
 42
0.1463662787902419
 10
99.6487530993166
 20
157.4522017235677
 42
1.0
 10
100.9402820813655
 20
155.5189200864213
 42
-0.1463408045170964
 10
492.1057846672116
 20
275.8099216933463
 42
-1.0
 10
492.1596470922323
 20
268.8351296649651
 42
0.1464795084821671
 10
104.4955481814857
 20
149.5056274036849
 42
1.0
 10
105.7881270782839
 20
147.5730475746605
 42
-0.1464533577212595
 10
492.105427536437
 20
266.5096379359265
 42
-1.0
 10
492.1600042230068
 20
259.5348514599629
 42
0.1477123058226948
 10
106.8114595820387
 20
139.8559811649832
 42
-0.4134854966147622
 10
101.9739135050842
 20
140.7849471354077
 42
1.000829144847253
 10
100.0564048001129
 20
139.4701157191513
 42
-0.9975166736357923
 10
94.33017436921437
 20
135.4875776737944
 42
1.000829152268559
 10
92.43026954205891
 20
134.1474347954042
 42
-0.4134854965878451
 10
91.61783261322955
 20
129.2889601319627
 42
0.0005924574039354
 10
90.27395894633299
 20
128.3252109459465
 42
1.0
 10
91.63114742105097
 20
126.4374438935557
 42
-0.155073878545343
 10
492.105060806656
 20
257.2093465132246
 42
-1.0
 10
492.1603709527878
 20
250.2345658150423
 42
0.1549961092625365
 10
95.87255500263745
 20
120.8962096814171
 42
1.0
 10
97.22916995712603
 20
119.0080304353553
 42
-0.1549684546378709
 10
492.1046840855919
 20
247.9090471103921
 42
-1.0
 10
492.1607476738519
 20
240.934272427718
 42
0.154888554073655
 10
101.4711982227616
 20
113.4671619205751
 42
1.0
 10
102.8272237902135
 20
111.5785593524265
 42
-0.1548601365171556
 10
492.104296959298
 20
238.6087393950979
 42
-1.0
 10
492.1611348001459
 20
231.6339709788815
 42
0.1547780158321244
 10
107.0698905780494
 20
106.0380657187065
 42
1.0
 10
108.4253102240194
 20
104.1490282433454
 42
-0.1547488033296839
 10
492.1038989906406
 20
229.308423016298
 42
-1.0
 10
492.1615327688033
 20
222.3336611316446
 42
0.1546643686767568
 10
112.6686341512731
 20
98.60891902109717
 42
1.0
 10
114.0234306356914
 20
96.71943457135711
 42
-0.1546343273976322
 10
492.1034897176526
 20
220.0080976029002
 42
-1.0
 10
492.1619420417912
 20
213.033342530082
 42
0.1545474795641293
 10
118.2674311446219
 20
91.17971965514044
 42
1.0
 10
119.6215864810654
 20
89.28977565470502
 42
-0.1545165737302275
 10
492.1030686517442
 20
210.7077627623118
 42
-1.0
 10
492.1623631076997
 20
203.7330147978693
 42
0.1544272077487961
 10
123.8662838883827
 20
83.75046532176094
 42
1.0
 10
125.219779300368
 20
81.86004865611954
 42
-0.1543953994925073
 10
492.1026352757571
 20
201.4074180788589
 42
-1.0
 10
492.1627964836869
 20
194.4326775367986
 42
0.1543034042176914
 10
129.465194850396
 20
76.32115358607194
 42
1.0
 10
130.8180107244222
 20
74.4302505713768
 42
-0.1542706534270827
 10
492.1021890418458
 20
192.107063112066
 42
-1.0
 10
492.163242717598
 20
185.1323303251647
 42
0.1541759110739403
 10
135.0641666463576
 20
68.89178186719641
 42
1.0
 10
136.4162824814101
 20
67.00037821683498
 42
-0.15414217522398
 10
492.1017293691672
 20
182.8066973947781
 42
-1.0
 10
492.1637023902767
 20
175.8319727160075
 42
0.15602169115377
 10
136.8145133268689
 20
58.69072990068679
 42
-0.4090121831914722
 10
131.9803244787108
 20
59.41403933145721
 10
80.704865490881
 20
127.4588716577131
 42
-0.0890898866986095
 10
80.06683330849984
 20
128.7209789969866
 42
0.0890898866986037
 10
79.42880112611874
 20
129.9830863362599
  0
ENDSEC
  0
SECTION
  2
OBJECTS
  0
DICTIONARY
  5
7
330
0
100
AcDbDictionary
281
     1
  3
ACAD_COLOR
350
99
  3
ACAD_GROUP
350
95
  3
ACAD_LAYOUT
350
81
  3
ACAD_MATERIAL
350
98
  3
ACAD_MLINESTYLE
350
96
  3
ACAD_PLOTSETTINGS
350
97
  3
ACAD_PLOTSTYLENAME
350
6
  3
AcDbVariableDictionary
350
A2
  3
ASE_INDEX_DICTIONARY
350
B5
  0
DICTIONARY
  5
99
102
{ACAD_REACTORS
330
7
102
}
330
7
100
AcDbDictionary
281
     1
  0
DICTIONARY
  5
95
102
{ACAD_REACTORS
330
7
102
}
330
7
100
AcDbDictionary
281
     1
  0
DICTIONARY
  5
81
102
{ACAD_REACTORS
330
7
102
}
330
7
100
AcDbDictionary
281
     1
  3
Layout1
350
85
  3
Model
350
80
  0
DICTIONARY
  5
98
102
{ACAD_REACTORS
330
7
102
}
330
7
100
AcDbDictionary
281
     1
  0
DICTIONARY
  5
96
102
{ACAD_REACTORS
330
7
102
}
330
7
100
AcDbDictionary
281
     1
  3
STANDARD
350
9A
  0
DICTIONARY
  5
97
102
{ACAD_REACTORS
330
7
102
}
330
7
100
AcDbDictionary
281
     1
  0
ACDBDICTIONARYWDFLT
  5
6
102
{ACAD_REACTORS
330
7
102
}
330
7
100
AcDbDictionary
281
     1
  3
Normal
350
5
100
AcDbDictionaryWithDefault
340
5
  0
DICTIONARY
  5
A2
102
{ACAD_REACTORS
330
7
102
}
330
7
100
AcDbDictionary
281
     1
  3
DIMASSOC
350
A4
  3
HIDETEXT
350
A3
  3
PROJECTNAME
350
A5
  0
DICTIONARY
  5
B5
102
{ACAD_REACTORS
330
7
102
}
330
7
100
AcDbDictionary
281
     1
  3
ASEBlockHierarchyIndexRecord
350
B7
1001
DCO15
1040
1541390104.968
  0
LAYOUT
  5
85
102
{ACAD_XDICTIONARY
360
A0
102
}
102
{ACAD_REACTORS
330
81
102
}
330
81
100
AcDbPlotSettings
  1

  2
\\ris\laserc
  4

  6

 40
0.0
 41
0.0
 42
0.0
 43
0.0
 44
0.0
 45
0.0
 46
0.0
 47
0.0
 48
0.0
 49
0.0
140
0.0
141
0.0
142
1.0
143
1.0
 70
   688
 72
     0
 73
     0
 74
     5
  7

 75
    16
147
1.0
148
0.0
149
0.0
100
AcDbLayout
  1
Layout1
 70
     0
 71
     1
 10
0.0
 20
0.0
 11
12.0
 21
9.0
 12
0.0
 22
0.0
 32
0.0
 14
1.000000000000000E+20
 24
1.000000000000000E+20
 34
1.000000000000000E+20
 15
-1.000000000000000E+20
 25
-1.000000000000000E+20
 35
-1.000000000000000E+20
146
0.0
 13
0.0
 23
0.0
 33
0.0
 16
1.0
 26
0.0
 36
0.0
 17
0.0
 27
1.0
 37
0.0
 76
     0
330
82
  0
LAYOUT
  5
80
102
{ACAD_XDICTIONARY
360
9E
102
}
102
{ACAD_REACTORS
330
81
102
}
330
81
100
AcDbPlotSettings
  1

  2
\\ris\laserc
  4

  6

 40
0.0
 41
0.0
 42
0.0
 43
0.0
 44
0.0
 45
0.0
 46
0.0
 47
0.0
 48
0.0
 49
0.0
140
0.0
141
0.0
142
1.0
143
1.0
 70
  1712
 72
     0
 73
     0
 74
     0
  7

 75
     0
147
1.0
148
0.0
149
0.0
100
AcDbLayout
  1
Model
 70
     1
 71
     0
 10
0.0
 20
0.0
 11
12.0
 21
9.0
 12
0.0
 22
0.0
 32
0.0
 14
0.0
 24
0.0
 34
0.0
 15
0.0
 25
0.0
 35
0.0
146
0.0
 13
0.0
 23
0.0
 33
0.0
 16
1.0
 26
0.0
 36
0.0
 17
0.0
 27
1.0
 37
0.0
 76
     0
330
2
  0
MLINESTYLE
  5
9A
102
{ACAD_REACTORS
330
96
102
}
330
96
100
AcDbMlineStyle
  2
STANDARD
 70
     0
  3

 62
   256
 51
90.00000000000019
 52
90.00000000000019
 71
     2
 49
0.5
 62
   256
  6
BYLAYER
 49
-0.5
 62
   256
  6
BYLAYER
  0
ACDBPLACEHOLDER
  5
5
102
{ACAD_REACTORS
330
6
102
}
330
6
  0
DICTIONARYVAR
  5
A4
102
{ACAD_REACTORS
330
A2
102
}
330
A2
100
DictionaryVariables
280
     0
  1
1
  0
DICTIONARYVAR
  5
A3
102
{ACAD_REACTORS
330
A2
102
}
330
A2
100
DictionaryVariables
280
     0
  1
1
  0
DICTIONARYVAR
  5
A5
102
{ACAD_REACTORS
330
A2
102
}
330
A2
100
DictionaryVariables
280
     0
  1

  0
XRECORD
  5
B7
102
{ACAD_REACTORS
330
B5
102
}
330
B5
100
AcDbXrecord
280
     1
  0
DICTIONARY
  5
A0
330
85
100
AcDbDictionary
280
     1
281
     1
  3
ACAD_XREC_ROUNDTRIP
360
A1
  0
DICTIONARY
  5
9E
330
80
100
AcDbDictionary
280
     1
281
     1
  3
ACAD_XREC_ROUNDTRIP
360
9F
  0
XRECORD
  5
A1
102
{ACAD_REACTORS
330
A0
102
}
330
A0
100
AcDbXrecord
280
     1
102
SHADEPLOT
 70
     0
102
SHADEPLOTRESLEVEL
 70
     2
102
SHADEPLOTCUSTOMDPI
 70
   300
  0
XRECORD
  5
9F
102
{ACAD_REACTORS
330
9E
102
}
330
9E
100
AcDbXrecord
280
     1
102
SHADEPLOT
 70
     0
102
SHADEPLOTRESLEVEL
 70
     2
102
SHADEPLOTCUSTOMDPI
 70
   300
  0
ENDSEC
  0
EOF
