  0
SECTION
  2
HEADER
  9
$ACADVER
  1
AC1015
  9
$ACADMAINTVER
 70
     6
  9
$DWGCODEPAGE
  3
ANSI_1250
  9
$INSBASE
 10
0.0
 20
0.0
 30
0.0
  9
$EXTMIN
 10
49.83841542127628
 20
49.873
 30
0.0
  9
$EXTMAX
 10
859.5852239959818
 20
284.5999912603208
 30
0.0
  9
$LIMMIN
 10
0.0
 20
0.0
  9
$LIMMAX
 10
0.0
 20
0.0
  9
$ORTHOMODE
 70
     1
  9
$REGENMODE
 70
     1
  9
$FILLMODE
 70
     1
  9
$QTEXTMODE
 70
     0
  9
$MIRRTEXT
 70
     1
  9
$LTSCALE
 40
1.0
  9
$ATTMODE
 70
     1
  9
$TEXTSIZE
 40
0.0
  9
$TRACEWID
 40
0.05
  9
$TEXTSTYLE
  7
STANDARD
  9
$CLAYER
  8
0
  9
$CELTYPE
  6
CONTINUOUS
  9
$CECOLOR
 62
   256
  9
$CELTSCALE
 40
1.0
  9
$DISPSILH
 70
     0
  9
$DIMSCALE
 40
1.0
  9
$DIMASZ
 40
0.18
  9
$DIMEXO
 40
0.0625
  9
$DIMDLI
 40
0.38
  9
$DIMRND
 40
0.0
  9
$DIMDLE
 40
0.0
  9
$DIMEXE
 40
0.18
  9
$DIMTP
 40
0.0
  9
$DIMTM
 40
0.0
  9
$DIMTXT
 40
10.0
  9
$DIMCEN
 40
0.09
  9
$DIMTSZ
 40
0.0
  9
$DIMTOL
 70
     0
  9
$DIMLIM
 70
     0
  9
$DIMTIH
 70
     1
  9
$DIMTOH
 70
     1
  9
$DIMSE1
 70
     0
  9
$DIMSE2
 70
     0
  9
$DIMTAD
 70
     0
  9
$DIMZIN
 70
     0
  9
$DIMBLK
  1

  9
$DIMASO
 70
     1
  9
$DIMSHO
 70
     1
  9
$DIMPOST
  1

  9
$DIMAPOST
  1

  9
$DIMALT
 70
     0
  9
$DIMALTD
 70
     2
  9
$DIMALTF
 40
25.4
  9
$DIMLFAC
 40
1.0
  9
$DIMTOFL
 70
     0
  9
$DIMTVP
 40
0.0
  9
$DIMTIX
 70
     0
  9
$DIMSOXD
 70
     0
  9
$DIMSAH
 70
     0
  9
$DIMBLK1
  1

  9
$DIMBLK2
  1

  9
$DIMSTYLE
  2
STANDARD
  9
$DIMCLRD
 70
     0
  9
$DIMCLRE
 70
     0
  9
$DIMCLRT
 70
     0
  9
$DIMTFAC
 40
1.0
  9
$DIMGAP
 40
0.09
  9
$DIMJUST
 70
     0
  9
$DIMSD1
 70
     0
  9
$DIMSD2
 70
     0
  9
$DIMTOLJ
 70
     1
  9
$DIMTZIN
 70
     0
  9
$DIMALTZ
 70
     0
  9
$DIMALTTZ
 70
     0
  9
$DIMUPT
 70
     0
  9
$DIMDEC
 70
     4
  9
$DIMTDEC
 70
     4
  9
$DIMALTU
 70
     2
  9
$DIMALTTD
 70
     2
  9
$DIMTXSTY
  7
STANDARD
  9
$DIMAUNIT
 70
     0
  9
$DIMADEC
 70
     5
  9
$DIMALTRND
 40
0.0
  9
$DIMAZIN
 70
     0
  9
$DIMDSEP
 70
    46
  9
$DIMATFIT
 70
     3
  9
$DIMFRAC
 70
     0
  9
$DIMLDRBLK
  1

  9
$DIMLUNIT
 70
     2
  9
$DIMLWD
 70
    -2
  9
$DIMLWE
 70
    -2
  9
$DIMTMOVE
 70
     0
  9
$LUNITS
 70
     2
  9
$LUPREC
 70
     4
  9
$SKETCHINC
 40
0.1
  9
$FILLETRAD
 40
0.0
  9
$AUNITS
 70
     0
  9
$AUPREC
 70
     0
  9
$MENU
  1
acad
  9
$ELEVATION
 40
0.0
  9
$PELEVATION
 40
0.0
  9
$THICKNESS
 40
0.0
  9
$LIMCHECK
 70
     0
  9
$CHAMFERA
 40
0.0
  9
$CHAMFERB
 40
0.0
  9
$CHAMFERC
 40
0.0
  9
$CHAMFERD
 40
0.0
  9
$SKPOLY
 70
     0
  9
$TDCREATE
 40
2311946.517377373
  9
$TDUCREATE
 40
2311946.434044039
  9
$TDUPDATE
 40
2453643.676515659
  9
$TDUUPDATE
 40
2453643.593182326
  9
$TDINDWG
 40
0.7727606366
  9
$TDUSRTIMER
 40
0.7727605208
  9
$USRTIMER
 70
     1
  9
$ANGBASE
 50
0.0
  9
$ANGDIR
 70
     0
  9
$PDMODE
 70
     0
  9
$PDSIZE
 40
0.0
  9
$PLINEWID
 40
1.199999999999999
  9
$SPLFRAME
 70
     0
  9
$SPLINETYPE
 70
     6
  9
$SPLINESEGS
 70
     8
  9
$HANDSEED
  5
17A
  9
$SURFTAB1
 70
     6
  9
$SURFTAB2
 70
     6
  9
$SURFTYPE
 70
     6
  9
$SURFU
 70
     6
  9
$SURFV
 70
     6
  9
$UCSBASE
  2

  9
$UCSNAME
  2

  9
$UCSORG
 10
0.0
 20
0.0
 30
0.0
  9
$UCSXDIR
 10
1.0
 20
0.0
 30
0.0
  9
$UCSYDIR
 10
0.0
 20
1.0
 30
0.0
  9
$UCSORTHOREF
  2

  9
$UCSORTHOVIEW
 70
     1
  9
$UCSORGTOP
 10
0.0
 20
0.0
 30
0.0
  9
$UCSORGBOTTOM
 10
0.0
 20
0.0
 30
0.0
  9
$UCSORGLEFT
 10
0.0
 20
0.0
 30
0.0
  9
$UCSORGRIGHT
 10
0.0
 20
0.0
 30
0.0
  9
$UCSORGFRONT
 10
0.0
 20
0.0
 30
0.0
  9
$UCSORGBACK
 10
0.0
 20
0.0
 30
0.0
  9
$PUCSBASE
  2

  9
$PUCSNAME
  2

  9
$PUCSORG
 10
0.0
 20
0.0
 30
0.0
  9
$PUCSXDIR
 10
1.0
 20
0.0
 30
0.0
  9
$PUCSYDIR
 10
0.0
 20
1.0
 30
0.0
  9
$PUCSORTHOREF
  2

  9
$PUCSORTHOVIEW
 70
     0
  9
$PUCSORGTOP
 10
0.0
 20
0.0
 30
0.0
  9
$PUCSORGBOTTOM
 10
0.0
 20
0.0
 30
0.0
  9
$PUCSORGLEFT
 10
0.0
 20
0.0
 30
0.0
  9
$PUCSORGRIGHT
 10
0.0
 20
0.0
 30
0.0
  9
$PUCSORGFRONT
 10
0.0
 20
0.0
 30
0.0
  9
$PUCSORGBACK
 10
0.0
 20
0.0
 30
0.0
  9
$USERI1
 70
     0
  9
$USERI2
 70
     0
  9
$USERI3
 70
     0
  9
$USERI4
 70
     0
  9
$USERI5
 70
     0
  9
$USERR1
 40
0.0
  9
$USERR2
 40
0.0
  9
$USERR3
 40
0.0
  9
$USERR4
 40
0.0
  9
$USERR5
 40
0.0
  9
$WORLDVIEW
 70
     1
  9
$SHADEDGE
 70
     3
  9
$SHADEDIF
 70
    70
  9
$TILEMODE
 70
     1
  9
$MAXACTVP
 70
    16
  9
$PINSBASE
 10
0.0
 20
0.0
 30
0.0
  9
$PLIMCHECK
 70
     0
  9
$PEXTMIN
 10
1.000000000000000E+20
 20
1.000000000000000E+20
 30
1.000000000000000E+20
  9
$PEXTMAX
 10
-1.000000000000000E+20
 20
-1.000000000000000E+20
 30
-1.000000000000000E+20
  9
$PLIMMIN
 10
0.0
 20
0.0
  9
$PLIMMAX
 10
12.0
 20
9.0
  9
$UNITMODE
 70
     0
  9
$VISRETAIN
 70
     0
  9
$PLINEGEN
 70
     1
  9
$PSLTSCALE
 70
     0
  9
$TREEDEPTH
 70
  3020
  9
$CMLSTYLE
  2
STANDARD
  9
$CMLJUST
 70
     0
  9
$CMLSCALE
 40
1.0
  9
$PROXYGRAPHICS
 70
     0
  9
$MEASUREMENT
 70
     1
  9
$CELWEIGHT
370
    -1
  9
$ENDCAPS
280
     0
  9
$JOINSTYLE
280
     0
  9
$LWDISPLAY
290
     0
  9
$INSUNITS
 70
     0
  9
$HYPERLINKBASE
  1

  9
$STYLESHEET
  1

  9
$XEDIT
290
     1
  9
$CEPSNTYPE
380
     0
  9
$PSTYLEMODE
290
     1
  9
$FINGERPRINTGUID
  2
{44CFACF6-FF42-4479-A730-8E27374F1164}
  9
$VERSIONGUID
  2
{7C18C38F-15FA-484B-B1EC-13464F8AB997}
  9
$EXTNAMES
290
     1
  9
$PSVPSCALE
 40
0.0
  9
$OLESTARTUP
290
     0
  0
ENDSEC
  0
SECTION
  2
CLASSES
  0
CLASS
  1
LWPOLYLINE
  2
AcDbPolyline
  3
AutoCAD 2000
 90
    32768
280
     0
281
     1
  0
CLASS
  1
IMAGE
  2
AcDbRasterImage
  3
ISM
 90
    32895
280
     0
281
     1
  0
CLASS
  1
OLE2FRAME
  2
AcDbOle2Frame
  3
AutoCAD 2000
 90
    32768
280
     0
281
     1
  0
CLASS
  1
HATCH
  2
AcDbHatch
  3
AutoCAD 2000
 90
    32768
280
     0
281
     1
  0
CLASS
  1
DICTIONARYVAR
  2
AcDbDictionaryVar
  3
AutoCAD 2000
 90
        0
280
     0
281
     0
  0
CLASS
  1
RASTERVARIABLES
  2
AcDbRasterVariables
  3
ISM
 90
    32768
280
     0
281
     0
  0
CLASS
  1
IMAGEDEF
  2
AcDbRasterImageDef
  3
ISM
 90
    32768
280
     0
281
     0
  0
CLASS
  1
IMAGEDEF_REACTOR
  2
AcDbRasterImageDefReactor
  3
ISM
 90
    32769
280
     0
281
     0
  0
CLASS
  1
IDBUFFER
  2
AcDbIdBuffer
  3
AutoCAD 2000
 90
    32768
280
     0
281
     0
  0
CLASS
  1
SPATIAL_FILTER
  2
AcDbSpatialFilter
  3
AutoCAD 2000
 90
    32768
280
     0
281
     0
  0
CLASS
  1
XRECORD
  2
AcDbXrecord
  3
AutoCAD 2000
 90
    32768
280
     0
281
     0
  0
CLASS
  1
SORTENTSTABLE
  2
AcDbSortentsTable
  3
AutoCAD 2000
 90
    32768
280
     0
281
     0
  0
CLASS
  1
LAYER_INDEX
  2
AcDbLayerIndex
  3
AutoCAD 2000
 90
    32768
280
     0
281
     0
  0
CLASS
  1
SPATIAL_INDEX
  2
AcDbSpatialIndex
  3
AutoCAD 2000
 90
    32768
280
     0
281
     0
  0
CLASS
  1
OBJECT_PTR
  2
CAseDLPNTableRecord
  3
ASE-LPNTableRecord
 90
    32769
280
     0
281
     0
  0
CLASS
  1
LAYOUT
  2
AcDbLayout
  3
AutoCAD 2000
 90
        0
280
     0
281
     0
  0
CLASS
  1
PLOTSETTINGS
  2
AcDbPlotSettings
  3
AutoCAD 2000
 90
    32768
280
     0
281
     0
  0
CLASS
  1
ACDBDICTIONARYWDFLT
  2
AcDbDictionaryWithDefault
  3
AutoCAD 2000
 90
        0
280
     0
281
     0
  0
CLASS
  1
ACDBPLACEHOLDER
  2
AcDbPlaceHolder
  3
AutoCAD 2000
 90
        0
280
     0
281
     0
  0
CLASS
  1
VBA_PROJECT
  2
AcDbVbaProject
  3
acad
 90
    32768
280
     0
281
     0
  0
CLASS
  1
WIPEOUT
  2
AcDbWipeout
  3
"WipeOut|Product Desc: Object Enabler for WipeOut entity^I^I^I^I^I^I|Company: Autodesk, Inc.^I^I^I^I^I^I|WEB Address: www.autodesk.com"
 90
    32895
280
     0
281
     1
  0
CLASS
  1
WIPEOUTVARIABLES
  2
AcDbWipeoutVariables
  3
"WipeOut|Product Desc:     WipeOut Dbx Application|Company:          Autodesk, Inc.|WEB Address:      www.autodesk.com"
 90
    32768
280
     0
281
     0
  0
CLASS
  1
RTEXT
  2
RText
  3
RText|AutoCAD Express Tool|expresstools@autodesk.com
 90
    32768
280
     0
281
     1
  0
CLASS
  1
ARCALIGNEDTEXT
  2
AcDbArcAlignedText
  3
ATEXT|AutoCAD Express Tool|expresstools@autodesk.com
 90
    32768
280
     0
281
     1
  0
CLASS
  1
LONG_TRANSACTION
  2
AcDbLongTransaction
  3
AutoCAD 2000
 90
    32768
280
     0
281
     0
  0
CLASS
  1
LWPOLYLINE
  2
AcDbPolyline
  3
AutoCAD 2000
 90
    32768
280
     0
281
     1
  0
CLASS
  1
HATCH
  2
AcDbHatch
  3
AutoCAD 2000
 90
    32768
280
     0
281
     1
  0
CLASS
  1
XRECORD
  2
AcDbXrecord
  3
AutoCAD 2000
 90
    32768
280
     0
281
     0
  0
ENDSEC
  0
SECTION
  2
TABLES
  0
TABLE
  2
VPORT
  5
157
330
0
100
AcDbSymbolTable
 70
     5
  0
VPORT
  5
179
330
157
100
AcDbSymbolTableRecord
100
AcDbViewportTableRecord
  2
*Active
 70
     0
 10
0.0
 20
0.0
 11
1.0
 21
1.0
 12
454.711819708629
 22
167.2364956301603
 13
0.0
 23
0.0
 14
1.0
 24
1.0
 15
0.0
 25
0.0
 16
0.0
 26
0.0
 36
1.0
 17
0.0
 27
0.0
 37
0.0
 40
530.5783331973746
 41
1.533757961783439
 42
50.0
 43
0.0
 44
0.0
 50
0.0
 51
0.0
 71
     0
 72
   100
 73
     1
 74
     1
 75
     0
 76
     0
 77
     0
 78
     0
281
     0
 65
     1
110
0.0
120
0.0
130
0.0
111
1.0
121
0.0
131
0.0
112
0.0
122
1.0
132
0.0
 79
     1
146
0.0
  0
ENDTAB
  0
TABLE
  2
LTYPE
  5
152
330
0
100
AcDbSymbolTable
 70
     1
  0
LTYPE
  5
153
330
152
100
AcDbSymbolTableRecord
100
AcDbLinetypeTableRecord
  2
BYBLOCK
 70
     0
  3

 72
    65
 73
     0
 40
0.0
  0
LTYPE
  5
154
330
152
100
AcDbSymbolTableRecord
100
AcDbLinetypeTableRecord
  2
BYLAYER
 70
     0
  3

 72
    65
 73
     0
 40
0.0
  0
LTYPE
  5
A
330
152
100
AcDbSymbolTableRecord
100
AcDbLinetypeTableRecord
  2
CONTINUOUS
 70
     0
  3
Solid line
 72
    65
 73
     0
 40
0.0
  0
ENDTAB
  0
TABLE
  2
LAYER
  5
14E
330
0
100
AcDbSymbolTable
 70
     6
  0
LAYER
  5
6
330
14E
100
AcDbSymbolTableRecord
100
AcDbLayerTableRecord
  2
0
 70
     0
 62
     7
  6
CONTINUOUS
370
    -3
390
7
  0
LAYER
  5
C
330
14E
100
AcDbSymbolTableRecord
100
AcDbLayerTableRecord
  2
mechanical
 70
     0
 62
     6
  6
CONTINUOUS
370
    -3
390
7
  0
LAYER
  5
174
330
14E
100
AcDbSymbolTableRecord
100
AcDbLayerTableRecord
  2
copper
 70
     0
 62
     1
  6
CONTINUOUS
370
    -3
390
7
  0
ENDTAB
  0
TABLE
  2
STYLE
  5
14F
330
0
100
AcDbSymbolTable
 70
     1
  0
STYLE
  5
150
330
14F
100
AcDbSymbolTableRecord
100
AcDbTextStyleTableRecord
  2
STANDARD
 70
     0
 40
0.0
 41
1.0
 50
0.0
 71
     0
 42
0.0
  3
txt
  4

  0
ENDTAB
  0
TABLE
  2
VIEW
  5
155
330
0
100
AcDbSymbolTable
 70
     0
  0
ENDTAB
  0
TABLE
  2
UCS
  5
156
330
0
100
AcDbSymbolTable
 70
     0
  0
ENDTAB
  0
TABLE
  2
APPID
  5
159
330
0
100
AcDbSymbolTable
 70
     1
  0
APPID
  5
15A
330
159
100
AcDbSymbolTableRecord
100
AcDbRegAppTableRecord
  2
ACAD
 70
     0
  0
ENDTAB
  0
TABLE
  2
DIMSTYLE
  5
15B
330
0
100
AcDbSymbolTable
 70
     1
100
AcDbDimStyleTable
 71
     1
340
15C
  0
DIMSTYLE
105
15C
330
15B
100
AcDbSymbolTableRecord
100
AcDbDimStyleTableRecord
  2
STANDARD
 70
     0
140
10.0
179
     5
340
150
  0
ENDTAB
  0
TABLE
  2
BLOCK_RECORD
  5
1
330
0
100
AcDbSymbolTable
 70
     0
  0
BLOCK_RECORD
  5
2
102
{ACAD_XDICTIONARY
360
3
102
}
330
1
100
AcDbSymbolTableRecord
100
AcDbBlockTableRecord
  2
*MODEL_SPACE
340
146
  0
BLOCK_RECORD
  5
148
102
{ACAD_XDICTIONARY
360
149
102
}
330
1
100
AcDbSymbolTableRecord
100
AcDbBlockTableRecord
  2
*PAPER_SPACE
340
14D
  0
ENDTAB
  0
ENDSEC
  0
SECTION
  2
BLOCKS
  0
BLOCK
  5
5
330
2
100
AcDbEntity
  8
0
100
AcDbBlockBegin
  2
*MODEL_SPACE
 70
     0
 10
0.0
 20
0.0
 30
0.0
  3
*MODEL_SPACE
  1

  0
ENDBLK
  5
145
330
2
100
AcDbEntity
  8
0
100
AcDbBlockEnd
  0
BLOCK
  5
14B
330
148
100
AcDbEntity
 67
     1
  8
0
100
AcDbBlockBegin
  2
*PAPER_SPACE
 70
     0
 10
0.0
 20
0.0
 30
0.0
  3
*PAPER_SPACE
  1

  0
ENDBLK
  5
14C
330
148
100
AcDbEntity
 67
     1
  8
0
100
AcDbBlockEnd
  0
ENDSEC
  0
SECTION
  2
ENTITIES
  0
LWPOLYLINE
  5
B
330
2
100
AcDbEntity
  8
mechanical
100
AcDbPolyline
 90
        4
 70
   129
 43
0.254
 10
124.853796746698
 20
50.0
 42
-0.2939840310372257
 10
784.5698426705621
 20
50.00000000000466
 10
859.4582239959818
 20
165.3179945982964
 42
0.2943942068412606
 10
49.96541542127625
 20
165.3179945982905
  0
LWPOLYLINE
  5
D
330
2
100
AcDbEntity
  8
mechanical
  6
Continuous
100
AcDbPolyline
 90
        3
 70
   128
 43
0.254
 10
104.8767488276337
 20
180.3184760081209
 42
0.9999999999999998
 10
91.87674882763372
 20
180.3184760081209
 42
1.0
 10
104.8767488276337
 20
180.3184760081209
 42
0.9999999999999998
  0
LWPOLYLINE
  5
E
330
2
100
AcDbEntity
  8
mechanical
  6
Continuous
100
AcDbPolyline
 90
        3
 70
   128
 43
0.254
 10
234.0843288432337
 20
236.4995307377208
 42
0.9999999999999998
 10
221.0843288432337
 20
236.4995307377208
 42
1.0
 10
234.0843288432337
 20
236.4995307377208
 42
0.9999999999999998
  0
LWPOLYLINE
  5
F
330
2
100
AcDbEntity
  8
mechanical
  6
Continuous
100
AcDbPolyline
 90
        3
 70
   128
 43
0.254
 10
358.9195905030337
 20
265.320021785721
 42
0.9999999999999998
 10
345.9195905030337
 20
265.320021785721
 42
1.0
 10
358.9195905030337
 20
265.320021785721
 42
0.9999999999999998
  0
LWPOLYLINE
  5
10
330
2
100
AcDbEntity
  8
mechanical
  6
Continuous
100
AcDbPolyline
 90
        3
 70
   128
 43
0.254
 10
435.5606896324336
 20
272.025249119721
 42
0.9999999999999998
 10
422.5606896324336
 20
272.025249119721
 42
1.0
 10
435.5606896324336
 20
272.025249119721
 42
0.9999999999999998
  0
LWPOLYLINE
  5
11
330
2
100
AcDbEntity
  8
mechanical
  6
Continuous
100
AcDbPolyline
 90
        3
 70
   128
 43
0.254
 10
486.8629497850337
 20
272.0252491197209
 42
0.9999999999999998
 10
473.8629497850337
 20
272.0252491197209
 42
1.0
 10
486.8629497850337
 20
272.0252491197209
 42
0.9999999999999998
  0
LWPOLYLINE
  5
12
330
2
100
AcDbEntity
  8
mechanical
  6
Continuous
100
AcDbPolyline
 90
        3
 70
   128
 43
0.254
 10
563.5040489144337
 20
265.3200217857208
 42
0.9999999999999998
 10
550.5040489144337
 20
265.3200217857208
 42
1.0
 10
563.5040489144337
 20
265.3200217857208
 42
0.9999999999999998
  0
LWPOLYLINE
  5
13
330
2
100
AcDbEntity
  8
mechanical
  6
Continuous
100
AcDbPolyline
 90
        3
 70
   128
 43
0.254
 10
688.3393105742337
 20
236.4995307377207
 42
0.9999999999999998
 10
675.3393105742337
 20
236.4995307377207
 42
1.0
 10
688.3393105742337
 20
236.4995307377207
 42
0.9999999999999998
  0
LWPOLYLINE
  5
14
330
2
100
AcDbEntity
  8
mechanical
  6
Continuous
100
AcDbPolyline
 90
        3
 70
   128
 43
0.254
 10
817.5468905898336
 20
180.3184760081208
 42
0.9999999999999998
 10
804.5468905898337
 20
180.3184760081208
 42
1.0
 10
817.5468905898336
 20
180.3184760081208
 42
0.9999999999999998
  0
LWPOLYLINE
  5
15
330
2
100
AcDbEntity
  8
mechanical
  6
Continuous
100
AcDbPolyline
 90
        2
 70
   129
 43
0.127
 10
49.90191542127627
 20
165.3179945982905
 42
1.0
 10
50.02891542127628
 20
165.3179945982905
 42
1.0
  0
LWPOLYLINE
  5
16
330
2
100
AcDbEntity
  8
mechanical
  6
Continuous
100
AcDbPolyline
 90
        2
 70
   129
 43
0.127
 10
124.790296746698
 20
50.0
 42
1.0
 10
124.917296746698
 20
50.0
 42
1.0
  0
LWPOLYLINE
  5
17
330
2
100
AcDbEntity
  8
mechanical
  6
Continuous
100
AcDbPolyline
 90
        2
 70
   129
 43
0.127
 10
784.5063426705621
 20
50.00000000000466
 42
1.0
 10
784.6333426705621
 20
50.00000000000466
 42
1.0
  0
LWPOLYLINE
  5
18
330
2
100
AcDbEntity
  8
mechanical
  6
Continuous
100
AcDbPolyline
 90
        2
 70
   129
 43
0.127
 10
859.3947239959819
 20
165.3179945982964
 42
1.0
 10
859.5217239959819
 20
165.3179945982964
 42
1.0
  0
LWPOLYLINE
  5
19
330
2
100
AcDbEntity
  8
mechanical
100
AcDbPolyline
 90
        2
 70
   128
 43
0.254
 10
60.45772372435584
 20
163.4510756006037
 10
60.01162234915586
 20
163.1613739802038
  0
LWPOLYLINE
  5
1A
330
2
100
AcDbEntity
  8
mechanical
100
AcDbPolyline
 90
        2
 70
   128
 43
0.254
 10
60.34378091935576
 20
162.2592396908038
 10
60.9275947157559
 20
162.1415552382037
  0
LWPOLYLINE
  5
1B
330
2
100
AcDbEntity
  8
mechanical
100
AcDbPolyline
 90
        2
 70
   128
 43
0.254
 10
60.50573972875594
 20
161.6191899134038
 10
60.18134527535579
 20
161.5327311494037
  0
LWPOLYLINE
  5
1C
330
2
100
AcDbEntity
  8
mechanical
100
AcDbPolyline
 90
        2
 70
   128
 43
0.254
 10
60.0179574479559
 20
158.0731040926037
 10
61.35626151115582
 20
158.9422089132036
  0
LWPOLYLINE
  5
1D
330
2
100
AcDbEntity
  8
mechanical
100
AcDbPolyline
 90
        2
 70
   128
 43
0.254
 10
59.46758305015595
 20
161.0692085406036
 10
59.9781821453559
 20
160.2829548830037
  0
LWPOLYLINE
  5
1E
330
2
100
AcDbEntity
  8
mechanical
100
AcDbPolyline
 90
        2
 70
   128
 43
0.254
 10
60.18134527535579
 20
161.5327311494037
 10
59.46758305015595
 20
161.0692085406036
  0
LWPOLYLINE
  5
1F
330
2
100
AcDbEntity
  8
mechanical
100
AcDbPolyline
 90
        2
 70
   128
 43
0.254
 10
59.93016614115589
 20
162.1148405704037
 10
60.34378091935576
 20
162.2592396908038
  0
LWPOLYLINE
  5
20
330
2
100
AcDbEntity
  8
mechanical
100
AcDbPolyline
 90
        2
 70
   128
 43
0.254
 10
59.22321566175577
 20
157.9296062710037
 10
59.60434338135581
 20
157.9287040130037
  0
LWPOLYLINE
  5
21
330
2
100
AcDbEntity
  8
mechanical
100
AcDbPolyline
 90
        2
 70
   128
 43
0.254
 10
59.9781821453559
 20
160.2829548830037
 10
59.44286057015592
 20
159.9353129872037
  0
LWPOLYLINE
  5
22
330
2
100
AcDbEntity
  8
mechanical
100
AcDbPolyline
 90
        2
 70
   128
 43
0.254
 10
59.60434338135581
 20
157.9287040130037
 10
60.0179574479559
 20
158.0731040926037
  0
LWPOLYLINE
  5
23
330
2
100
AcDbEntity
  8
mechanical
100
AcDbPolyline
 90
        2
 70
   128
 43
0.254
 10
62.59662829975571
 20
158.0088489148037
 10
63.01024275355587
 20
158.1532485352037
  0
LWPOLYLINE
  5
24
330
2
100
AcDbEntity
  8
mechanical
100
AcDbPolyline
 90
        2
 70
   128
 43
0.254
 10
63.01024275355587
 20
158.1532485352037
 10
63.59405654975569
 20
158.0355640826038
  0
LWPOLYLINE
  5
25
330
2
100
AcDbEntity
  8
mechanical
100
AcDbPolyline
 90
        2
 70
   128
 43
0.254
 10
63.59405654975569
 20
158.0355640826038
 10
63.99943013775589
 20
157.8019984932037
  0
LWPOLYLINE
  5
26
330
2
100
AcDbEntity
  8
mechanical
100
AcDbPolyline
 90
        2
 70
   128
 43
0.254
 10
61.70585462995575
 20
161.5291225490037
 10
62.21645372535579
 20
160.7428688916037
  0
LWPOLYLINE
  5
27
330
2
100
AcDbEntity
  8
mechanical
100
AcDbPolyline
 90
        2
 70
   128
 43
0.254
 10
62.21645372535579
 20
160.7428688916037
 10
62.41089983535573
 20
160.2481206498038
  0
LWPOLYLINE
  5
28
330
2
100
AcDbEntity
  8
mechanical
100
AcDbPolyline
 90
        2
 70
   128
 43
0.254
 10
62.41089983535573
 20
160.2481206498038
 10
62.45939200175588
 20
159.7827942658037
  0
LWPOLYLINE
  5
29
330
2
100
AcDbEntity
  8
mechanical
100
AcDbPolyline
 90
        2
 70
   128
 43
0.254
 10
61.81060365055589
 20
159.6098756774036
 10
61.81884453975579
 20
159.9878409024037
  0
LWPOLYLINE
  5
2A
330
2
100
AcDbEntity
  8
mechanical
100
AcDbPolyline
 90
        2
 70
   128
 43
0.254
 10
62.45939200175588
 20
159.7827942658037
 10
62.32944363515582
 20
159.2015872450036
  0
LWPOLYLINE
  5
2B
330
2
100
AcDbEntity
  8
mechanical
100
AcDbPolyline
 90
        2
 70
   128
 43
0.254
 10
62.32944363515582
 20
159.2015872450036
 10
62.08602920455575
 20
158.7951025724038
  0
LWPOLYLINE
  5
2C
330
2
100
AcDbEntity
  8
mechanical
100
AcDbPolyline
 90
        2
 70
   128
 43
0.254
 10
62.08602920455575
 20
158.7951025724038
 10
61.6966612327559
 20
158.4180393084037
  0
LWPOLYLINE
  5
2D
330
2
100
AcDbEntity
  8
mechanical
100
AcDbPolyline
 90
        2
 70
   128
 43
0.254
 10
61.68113208755574
 20
160.3952269552038
 10
61.17053299215576
 20
161.1814806126038
  0
LWPOLYLINE
  5
2E
330
2
100
AcDbEntity
  8
mechanical
100
AcDbPolyline
 90
        2
 70
   128
 43
0.254
 10
60.8543800147558
 20
161.4729860334038
 10
60.50573972875594
 20
161.6191899134038
  0
LWPOLYLINE
  5
2F
330
2
100
AcDbEntity
  8
mechanical
100
AcDbPolyline
 90
        2
 70
   128
 43
0.254
 10
60.9275947157559
 20
162.1415552382037
 10
61.3329679791558
 20
161.9079901486037
  0
LWPOLYLINE
  5
30
330
2
100
AcDbEntity
  8
mechanical
100
AcDbPolyline
 90
        2
 70
   128
 43
0.254
 10
61.17053299215576
 20
161.1814806126038
 10
60.8543800147558
 20
161.4729860334038
  0
LWPOLYLINE
  5
31
330
2
100
AcDbEntity
  8
mechanical
100
AcDbPolyline
 90
        2
 70
   128
 43
0.254
 10
61.35626151115582
 20
158.9422089132036
 10
61.65640954495586
 20
159.2613313614036
  0
LWPOLYLINE
  5
32
330
2
100
AcDbEntity
  8
mechanical
100
AcDbPolyline
 90
        2
 70
   128
 43
0.254
 10
61.3329679791558
 20
161.9079901486037
 10
61.70585462995575
 20
161.5291225490037
  0
LWPOLYLINE
  5
33
330
2
100
AcDbEntity
  8
mechanical
100
AcDbPolyline
 90
        2
 70
   128
 43
0.254
 10
61.81884453975579
 20
159.9878409024037
 10
61.68113208755574
 20
160.3952269552038
  0
LWPOLYLINE
  5
34
330
2
100
AcDbEntity
  8
mechanical
100
AcDbPolyline
 90
        2
 70
   128
 43
0.254
 10
61.65640954495586
 20
159.2613313614036
 10
61.81060365055589
 20
159.6098756774036
  0
LWPOLYLINE
  5
35
330
2
100
AcDbEntity
  8
mechanical
100
AcDbPolyline
 90
        2
 70
   128
 43
0.254
 10
55.20339739155582
 20
164.5102385310036
 10
55.38183816655595
 20
164.6261193252038
  0
LWPOLYLINE
  5
36
330
2
100
AcDbEntity
  8
mechanical
100
AcDbPolyline
 90
        2
 70
   128
 43
0.254
 10
56.19258464635589
 20
164.1589891156037
 10
55.72223756335592
 20
164.1019502202037
  0
LWPOLYLINE
  5
37
330
2
100
AcDbEntity
  8
mechanical
100
AcDbPolyline
 90
        2
 70
   128
 43
0.254
 10
55.38960203355594
 20
163.6375261096037
 10
55.3813612067558
 20
163.2595609252037
  0
LWPOLYLINE
  5
38
330
2
100
AcDbEntity
  8
mechanical
100
AcDbPolyline
 90
        2
 70
   128
 43
0.254
 10
54.77330102235595
 20
163.6099090822036
 10
54.90324935775579
 20
164.1911160828036
  0
LWPOLYLINE
  5
39
330
2
100
AcDbEntity
  8
mechanical
100
AcDbPolyline
 90
        2
 70
   128
 43
0.254
 10
55.54379678835579
 20
163.9860694260038
 10
55.38960203355594
 20
163.6375261096037
  0
LWPOLYLINE
  5
3A
330
2
100
AcDbEntity
  8
mechanical
100
AcDbPolyline
 90
        2
 70
   128
 43
0.254
 10
55.72223756335592
 20
164.1019502202037
 10
55.54379678835579
 20
163.9860694260038
  0
LWPOLYLINE
  5
3B
330
2
100
AcDbEntity
  8
mechanical
100
AcDbPolyline
 90
        2
 70
   128
 43
0.254
 10
54.90324935775579
 20
164.1911160828036
 10
55.20339739155582
 20
164.5102385310036
  0
LWPOLYLINE
  5
3C
330
2
100
AcDbEntity
  8
mechanical
100
AcDbPolyline
 90
        2
 70
   128
 43
0.254
 10
56.77544604055578
 20
161.3081860056037
 10
56.19163227555595
 20
161.4258704784036
  0
LWPOLYLINE
  5
3D
330
2
100
AcDbEntity
  8
mechanical
100
AcDbPolyline
 90
        2
 70
   128
 43
0.254
 10
56.52426690615579
 20
161.8902954264036
 10
56.90539437595584
 20
161.8893930062037
  0
LWPOLYLINE
  5
3E
330
2
100
AcDbEntity
  8
mechanical
100
AcDbPolyline
 90
        2
 70
   128
 43
0.254
 10
56.1756266825559
 20
162.0364993470037
 10
56.52426690615579
 20
161.8902954264036
  0
LWPOLYLINE
  5
3F
330
2
100
AcDbEntity
  8
mechanical
100
AcDbPolyline
 90
        2
 70
   128
 43
0.254
 10
56.19163227555595
 20
161.4258704784036
 10
55.78625838635588
 20
161.6594365830038
  0
LWPOLYLINE
  5
40
330
2
100
AcDbEntity
  8
mechanical
100
AcDbPolyline
 90
        2
 70
   128
 43
0.254
 10
55.78625838635588
 20
161.6594365830038
 10
55.29990571055595
 20
162.2130265562037
  0
LWPOLYLINE
  5
41
330
2
100
AcDbEntity
  8
mechanical
100
AcDbPolyline
 90
        2
 70
   128
 43
0.254
 10
55.80274003955577
 20
162.4153669518037
 10
56.1756266825559
 20
162.0364993470037
  0
LWPOLYLINE
  5
42
330
2
100
AcDbEntity
  8
mechanical
100
AcDbPolyline
 90
        2
 70
   128
 43
0.254
 10
55.29990571055595
 20
162.2130265562037
 10
55.07297299555597
 20
162.5624722928038
  0
LWPOLYLINE
  5
43
330
2
100
AcDbEntity
  8
mechanical
100
AcDbPolyline
 90
        2
 70
   128
 43
0.254
 10
55.57580732475589
 20
162.7648126884038
 10
55.80274003955577
 20
162.4153669518037
  0
LWPOLYLINE
  5
44
330
2
100
AcDbEntity
  8
mechanical
100
AcDbPolyline
 90
        2
 70
   128
 43
0.254
 10
56.90539437595584
 20
161.8893930062037
 10
57.18906010715585
 20
161.4525860852037
  0
LWPOLYLINE
  5
45
330
2
100
AcDbEntity
  8
mechanical
100
AcDbPolyline
 90
        2
 70
   128
 43
0.254
 10
55.07297299555597
 20
162.5624722928038
 10
54.82179386135584
 20
163.1445817138038
  0
LWPOLYLINE
  5
46
330
2
100
AcDbEntity
  8
mechanical
100
AcDbPolyline
 90
        2
 70
   128
 43
0.254
 10
57.18906010715585
 20
161.4525860852037
 10
56.77544604055578
 20
161.3081860056037
  0
LWPOLYLINE
  5
47
330
2
100
AcDbEntity
  8
mechanical
100
AcDbPolyline
 90
        2
 70
   128
 43
0.254
 10
58.55842246075593
 20
158.3673156122037
 10
58.87457543815589
 20
158.0758101914037
  0
LWPOLYLINE
  5
48
330
2
100
AcDbEntity
  8
mechanical
100
AcDbPolyline
 90
        2
 70
   128
 43
0.254
 10
58.02310088555595
 20
158.0196737164038
 10
57.51250179015591
 20
158.8059273738036
  0
LWPOLYLINE
  5
49
330
2
100
AcDbEntity
  8
mechanical
100
AcDbPolyline
 90
        2
 70
   128
 43
0.254
 10
58.04782336555575
 20
159.1535692696037
 10
58.55842246075593
 20
158.3673156122037
  0
LWPOLYLINE
  5
4A
330
2
100
AcDbEntity
  8
mechanical
100
AcDbPolyline
 90
        2
 70
   128
 43
0.254
 10
57.78887971495596
 20
160.7242729060038
 10
58.12927911175592
 20
160.2001038010038
  0
LWPOLYLINE
  5
4B
330
2
100
AcDbEntity
  8
mechanical
100
AcDbPolyline
 90
        2
 70
   128
 43
0.254
 10
57.51250179015591
 20
158.8059273738036
 10
57.31805567235591
 20
159.3006756106036
  0
LWPOLYLINE
  5
4C
330
2
100
AcDbEntity
  8
mechanical
100
AcDbPolyline
 90
        2
 70
   128
 43
0.254
 10
57.91011091315585
 20
159.5609553224038
 10
58.04782336555575
 20
159.1535692696037
  0
LWPOLYLINE
  5
4D
330
2
100
AcDbEntity
  8
mechanical
100
AcDbPolyline
 90
        2
 70
   128
 43
0.254
 10
57.31805567235591
 20
159.3006756106036
 10
57.26956348255583
 20
159.7660019792036
  0
LWPOLYLINE
  5
4E
330
2
100
AcDbEntity
  8
mechanical
100
AcDbPolyline
 90
        2
 70
   128
 43
0.254
 10
57.91835173995576
 20
159.9389205068038
 10
57.91011091315585
 20
159.5609553224038
  0
LWPOLYLINE
  5
4F
330
2
100
AcDbEntity
  8
mechanical
100
AcDbPolyline
 90
        2
 70
   128
 43
0.254
 10
57.26956348255583
 20
159.7660019792036
 10
57.39951181795589
 20
160.3472089798036
  0
LWPOLYLINE
  5
50
330
2
100
AcDbEntity
  8
mechanical
100
AcDbPolyline
 90
        2
 70
   128
 43
0.254
 10
58.12927911175592
 20
160.2001038010038
 10
57.91835173995576
 20
159.9389205068038
  0
LWPOLYLINE
  5
51
330
2
100
AcDbEntity
  8
mechanical
100
AcDbPolyline
 90
        2
 70
   128
 43
0.254
 10
57.39951181795589
 20
160.3472089798036
 10
57.78887971495596
 20
160.7242729060038
  0
LWPOLYLINE
  5
52
330
2
100
AcDbEntity
  8
mechanical
100
AcDbPolyline
 90
        2
 70
   128
 43
0.254
 10
55.3813612067558
 20
163.2595609252037
 10
55.57580732475589
 20
162.7648126884038
  0
LWPOLYLINE
  5
53
330
2
100
AcDbEntity
  8
mechanical
100
AcDbPolyline
 90
        2
 70
   128
 43
0.254
 10
54.82179386135584
 20
163.1445817138038
 10
54.77330102235595
 20
163.6099090822036
  0
LWPOLYLINE
  5
54
330
2
100
AcDbEntity
  8
mechanical
100
AcDbPolyline
 90
        2
 70
   128
 43
0.254
 10
57.96922596795588
 20
166.3063886100038
 10
58.41532734315586
 20
166.5960902304037
  0
LWPOLYLINE
  5
55
330
2
100
AcDbEntity
  8
mechanical
100
AcDbPolyline
 90
        2
 70
   128
 43
0.254
 10
55.7954522331558
 20
164.7705194048038
 10
56.17657970275576
 20
164.7696169844038
  0
LWPOLYLINE
  5
56
330
2
100
AcDbEntity
  8
mechanical
100
AcDbPolyline
 90
        2
 70
   128
 43
0.254
 10
55.38183816655595
 20
164.6261193252038
 10
55.7954522331558
 20
164.7705194048038
  0
LWPOLYLINE
  5
57
330
2
100
AcDbEntity
  8
mechanical
100
AcDbPolyline
 90
        2
 70
   128
 43
0.254
 10
58.41532734315586
 20
166.5960902304037
 10
60.45772372435584
 20
163.4510756006037
  0
LWPOLYLINE
  5
58
330
2
100
AcDbEntity
  8
mechanical
100
AcDbPolyline
 90
        2
 70
   128
 43
0.254
 10
56.17657970275576
 20
164.7696169844038
 10
59.55775627035581
 20
163.8602664534038
  0
LWPOLYLINE
  5
59
330
2
100
AcDbEntity
  8
mechanical
100
AcDbPolyline
 90
        2
 70
   128
 43
0.254
 10
59.55775627035581
 20
163.8602664534038
 10
57.96922596795588
 20
166.3063886100038
  0
LWPOLYLINE
  5
5A
330
2
100
AcDbEntity
  8
mechanical
100
AcDbPolyline
 90
        2
 70
   128
 43
0.254
 10
60.01162234915586
 20
163.1613739802038
 10
56.19258464635589
 20
164.1589891156037
  0
LWPOLYLINE
  5
5B
330
2
100
AcDbEntity
  8
mechanical
100
AcDbPolyline
 90
        2
 70
   128
 43
0.254
 10
59.44286057015592
 20
159.9353129872037
 10
58.59186207795591
 20
161.2457357496037
  0
LWPOLYLINE
  5
5C
330
2
100
AcDbEntity
  8
mechanical
100
AcDbPolyline
 90
        2
 70
   128
 43
0.254
 10
58.59186207795591
 20
161.2457357496037
 10
59.93016614115589
 20
162.1148405704037
  0
LWPOLYLINE
  5
5D
330
2
100
AcDbEntity
  8
mechanical
100
AcDbPolyline
 90
        2
 70
   128
 43
0.254
 10
58.87457543815589
 20
158.0758101914037
 10
59.22321566175577
 20
157.9296062710037
  0
LWPOLYLINE
  5
5E
330
2
100
AcDbEntity
  8
mechanical
100
AcDbPolyline
 90
        2
 70
   128
 43
0.254
 10
60.68956271955579
 20
153.9136825608037
 10
60.17896362435585
 20
154.6999362182037
  0
LWPOLYLINE
  5
5F
330
2
100
AcDbEntity
  8
mechanical
100
AcDbPolyline
 90
        2
 70
   128
 43
0.254
 10
60.06597365195597
 20
156.2412178242037
 10
60.45534187355582
 20
156.6182812506036
  0
LWPOLYLINE
  5
60
330
2
100
AcDbEntity
  8
mechanical
100
AcDbPolyline
 90
        2
 70
   128
 43
0.254
 10
59.85552226575595
 20
157.3465944296036
 10
59.38517453355593
 20
157.2895565340037
  0
LWPOLYLINE
  5
61
330
2
100
AcDbEntity
  8
mechanical
100
AcDbPolyline
 90
        2
 70
   128
 43
0.254
 10
60.17896362435585
 20
154.6999362182037
 10
59.98451783095578
 20
155.1946839552036
  0
LWPOLYLINE
  5
62
330
2
100
AcDbEntity
  8
mechanical
100
AcDbPolyline
 90
        2
 70
   128
 43
0.254
 10
59.98451783095578
 20
155.1946839552036
 10
59.93602531655591
 20
155.6600108236037
  0
LWPOLYLINE
  5
63
330
2
100
AcDbEntity
  8
mechanical
100
AcDbPolyline
 90
        2
 70
   128
 43
0.254
 10
59.93602531655591
 20
155.6600108236037
 10
60.06597365195597
 20
156.2412178242037
  0
LWPOLYLINE
  5
64
330
2
100
AcDbEntity
  8
mechanical
100
AcDbPolyline
 90
        2
 70
   128
 43
0.254
 10
60.35835716955597
 20
157.5489344876037
 10
59.85552226575595
 20
157.3465944296036
  0
LWPOLYLINE
  5
65
330
2
100
AcDbEntity
  8
mechanical
100
AcDbPolyline
 90
        2
 70
   128
 43
0.254
 10
64.37231646395582
 20
157.4231313934038
 10
64.88291555935586
 20
156.6368777360038
  0
LWPOLYLINE
  5
66
330
2
100
AcDbEntity
  8
mechanical
100
AcDbPolyline
 90
        2
 70
   128
 43
0.254
 10
64.9959057937557
 20
155.0955955896037
 10
64.75249103855583
 20
154.6891114168037
  0
LWPOLYLINE
  5
67
330
2
100
AcDbEntity
  8
mechanical
100
AcDbPolyline
 90
        2
 70
   128
 43
0.254
 10
64.88291555935586
 20
156.6368777360038
 10
65.07736166935581
 20
156.1421294942037
  0
LWPOLYLINE
  5
68
330
2
100
AcDbEntity
  8
mechanical
100
AcDbPolyline
 90
        2
 70
   128
 43
0.254
 10
65.07736166935581
 20
156.1421294942037
 10
65.12585383575572
 20
155.6768031102038
  0
LWPOLYLINE
  5
69
330
2
100
AcDbEntity
  8
mechanical
100
AcDbPolyline
 90
        2
 70
   128
 43
0.254
 10
65.12585383575572
 20
155.6768031102038
 10
64.9959057937557
 20
155.0955955896037
  0
LWPOLYLINE
  5
6A
330
2
100
AcDbEntity
  8
mechanical
100
AcDbPolyline
 90
        2
 70
   128
 43
0.254
 10
62.8478074341557
 20
157.4267394940037
 10
62.13404520875577
 20
156.9632168850038
  0
LWPOLYLINE
  5
6B
330
2
100
AcDbEntity
  8
mechanical
100
AcDbPolyline
 90
        2
 70
   128
 43
0.254
 10
62.6844196067558
 20
153.9671124370037
 10
64.02272366995578
 20
154.8362172578037
  0
LWPOLYLINE
  5
6C
330
2
100
AcDbEntity
  8
mechanical
100
AcDbPolyline
 90
        2
 70
   128
 43
0.254
 10
63.02481900355576
 20
153.4429433320036
 10
62.52198409975574
 20
153.2406032740037
  0
LWPOLYLINE
  5
6D
330
2
100
AcDbEntity
  8
mechanical
100
AcDbPolyline
 90
        2
 70
   128
 43
0.254
 10
63.17220156275573
 20
157.5131987578037
 10
62.8478074341557
 20
157.4267394940037
  0
LWPOLYLINE
  5
6E
330
2
100
AcDbEntity
  8
mechanical
100
AcDbPolyline
 90
        2
 70
   128
 43
0.254
 10
63.52084184875582
 20
157.3669948778036
 10
63.17220156275573
 20
157.5131987578037
  0
LWPOLYLINE
  5
6F
330
2
100
AcDbEntity
  8
mechanical
100
AcDbPolyline
 90
        2
 70
   128
 43
0.254
 10
63.83699482615577
 20
157.0754894570037
 10
63.52084184875582
 20
157.3669948778036
  0
LWPOLYLINE
  5
70
330
2
100
AcDbEntity
  8
mechanical
100
AcDbPolyline
 90
        2
 70
   128
 43
0.254
 10
64.34759392155581
 20
156.2892357996037
 10
63.83699482615577
 20
157.0754894570037
  0
LWPOLYLINE
  5
71
330
2
100
AcDbEntity
  8
mechanical
100
AcDbPolyline
 90
        2
 70
   128
 43
0.254
 10
64.48530669835588
 20
155.8818492470037
 10
64.34759392155581
 20
156.2892357996037
  0
LWPOLYLINE
  5
72
330
2
100
AcDbEntity
  8
mechanical
100
AcDbPolyline
 90
        2
 70
   128
 43
0.254
 10
64.47706580935585
 20
155.5038840220037
 10
64.48530669835588
 20
155.8818492470037
  0
LWPOLYLINE
  5
73
330
2
100
AcDbEntity
  8
mechanical
100
AcDbPolyline
 90
        2
 70
   128
 43
0.254
 10
64.32287137915579
 20
155.1553402058037
 10
64.47706580935585
 20
155.5038840220037
  0
LWPOLYLINE
  5
74
330
2
100
AcDbEntity
  8
mechanical
100
AcDbPolyline
 90
        2
 70
   128
 43
0.254
 10
64.02272366995578
 20
154.8362172578037
 10
64.32287137915579
 20
155.1553402058037
  0
LWPOLYLINE
  5
75
330
2
100
AcDbEntity
  8
mechanical
100
AcDbPolyline
 90
        2
 70
   128
 43
0.254
 10
64.75249103855583
 20
154.6891114168037
 10
64.36312306675574
 20
154.3120481528038
  0
LWPOLYLINE
  5
76
330
2
100
AcDbEntity
  8
mechanical
100
AcDbPolyline
 90
        2
 70
   128
 43
0.254
 10
64.36312306675574
 20
154.3120481528038
 10
63.02481900355576
 20
153.4429433320036
  0
LWPOLYLINE
  5
77
330
2
100
AcDbEntity
  8
mechanical
100
AcDbPolyline
 90
        2
 70
   128
 43
0.254
 10
61.88967782035581
 20
153.8236146154036
 10
62.2708052155557
 20
153.8227128574038
  0
LWPOLYLINE
  5
78
330
2
100
AcDbEntity
  8
mechanical
100
AcDbPolyline
 90
        2
 70
   128
 43
0.254
 10
62.52198409975574
 20
153.2406032740037
 10
62.05163669215574
 20
153.1835648786037
  0
LWPOLYLINE
  5
79
330
2
100
AcDbEntity
  8
mechanical
100
AcDbPolyline
 90
        2
 70
   128
 43
0.254
 10
62.13404520875577
 20
156.9632168850038
 10
62.6446443041558
 20
156.1769632276037
  0
LWPOLYLINE
  5
7A
330
2
100
AcDbEntity
  8
mechanical
100
AcDbPolyline
 90
        2
 70
   128
 43
0.254
 10
62.6446443041558
 20
156.1769632276037
 10
62.10932272875573
 20
155.8293213318037
  0
LWPOLYLINE
  5
7B
330
2
100
AcDbEntity
  8
mechanical
100
AcDbPolyline
 90
        2
 70
   128
 43
0.254
 10
62.2708052155557
 20
153.8227128574038
 10
62.6844196067558
 20
153.9671124370037
  0
LWPOLYLINE
  5
7C
330
2
100
AcDbEntity
  8
mechanical
100
AcDbPolyline
 90
        2
 70
   128
 43
0.254
 10
61.46782260255588
 20
153.3012498512038
 10
61.06244936255592
 20
153.5348149560037
  0
LWPOLYLINE
  5
7D
330
2
100
AcDbEntity
  8
mechanical
100
AcDbPolyline
 90
        2
 70
   128
 43
0.254
 10
61.22488429495581
 20
154.2613244566038
 10
61.54103759695579
 20
153.9698185360037
  0
LWPOLYLINE
  5
7E
330
2
100
AcDbEntity
  8
mechanical
100
AcDbPolyline
 90
        2
 70
   128
 43
0.254
 10
61.06244936255592
 20
153.5348149560037
 10
60.68956271955579
 20
153.9136825608037
  0
LWPOLYLINE
  5
7F
330
2
100
AcDbEntity
  8
mechanical
100
AcDbPolyline
 90
        2
 70
   128
 43
0.254
 10
60.71428519955583
 20
155.0475781140038
 10
61.22488429495581
 20
154.2613244566038
  0
LWPOLYLINE
  5
80
330
2
100
AcDbEntity
  8
mechanical
100
AcDbPolyline
 90
        2
 70
   128
 43
0.254
 10
60.45534187355582
 20
156.6182812506036
 10
60.79574127055588
 20
156.0941121456038
  0
LWPOLYLINE
  5
81
330
2
100
AcDbEntity
  8
mechanical
100
AcDbPolyline
 90
        2
 70
   128
 43
0.254
 10
60.57657274735579
 20
155.4549641668037
 10
60.71428519955583
 20
155.0475781140038
  0
LWPOLYLINE
  5
82
330
2
100
AcDbEntity
  8
mechanical
100
AcDbPolyline
 90
        2
 70
   128
 43
0.254
 10
60.58481357395584
 20
155.8329293512036
 10
60.57657274735579
 20
155.4549641668037
  0
LWPOLYLINE
  5
83
330
2
100
AcDbEntity
  8
mechanical
100
AcDbPolyline
 90
        2
 70
   128
 43
0.254
 10
60.79574127055588
 20
156.0941121456038
 10
60.58481357395584
 20
155.8329293512036
  0
LWPOLYLINE
  5
84
330
2
100
AcDbEntity
  8
mechanical
100
AcDbPolyline
 90
        2
 70
   128
 43
0.254
 10
62.05163669215574
 20
153.1835648786037
 10
61.46782260255588
 20
153.3012498512038
  0
LWPOLYLINE
  5
85
330
2
100
AcDbEntity
  8
mechanical
100
AcDbPolyline
 90
        2
 70
   128
 43
0.254
 10
61.54103759695579
 20
153.9698185360037
 10
61.88967782035581
 20
153.8236146154036
  0
LWPOLYLINE
  5
86
330
2
100
AcDbEntity
  8
mechanical
100
AcDbPolyline
 90
        2
 70
   128
 43
0.254
 10
62.10932272875573
 20
155.8293213318037
 10
61.25832423655572
 20
157.1397440942038
  0
LWPOLYLINE
  5
87
330
2
100
AcDbEntity
  8
mechanical
100
AcDbPolyline
 90
        2
 70
   128
 43
0.254
 10
58.80136076855587
 20
157.4072410070037
 10
58.39598752855585
 20
157.6408061116038
  0
LWPOLYLINE
  5
88
330
2
100
AcDbEntity
  8
mechanical
100
AcDbPolyline
 90
        2
 70
   128
 43
0.254
 10
59.38517453355593
 20
157.2895565340037
 10
58.80136076855587
 20
157.4072410070037
  0
LWPOLYLINE
  5
89
330
2
100
AcDbEntity
  8
mechanical
100
AcDbPolyline
 90
        2
 70
   128
 43
0.254
 10
61.6966612327559
 20
158.4180393084037
 10
60.35835716955597
 20
157.5489344876037
  0
LWPOLYLINE
  5
8A
330
2
100
AcDbEntity
  8
mechanical
100
AcDbPolyline
 90
        2
 70
   128
 43
0.254
 10
58.39598752855585
 20
157.6408061116038
 10
58.02310088555595
 20
158.0196737164038
  0
LWPOLYLINE
  5
8B
330
2
100
AcDbEntity
  8
mechanical
100
AcDbPolyline
 90
        2
 70
   128
 43
0.254
 10
63.99943013775589
 20
157.8019984932037
 10
64.37231646395582
 20
157.4231313934038
  0
LWPOLYLINE
  5
8C
330
2
100
AcDbEntity
  8
mechanical
100
AcDbPolyline
 90
        2
 70
   128
 43
0.254
 10
61.25832423655572
 20
157.1397440942038
 10
62.59662829975571
 20
158.0088489148037
  0
LWPOLYLINE
  5
8D
330
2
100
AcDbEntity
  8
mechanical
  6
Continuous
100
AcDbPolyline
 90
        2
 70
   129
 43
0.127
 10
58.35182734315589
 20
166.5960902304037
 42
1.0
 10
58.47882734315584
 20
166.5960902304037
 42
1.0
  0
LWPOLYLINE
  5
8E
330
2
100
AcDbEntity
  8
mechanical
  6
Continuous
100
AcDbPolyline
 90
        2
 70
   129
 43
0.127
 10
57.9057259679559
 20
166.3063886100038
 42
1.0
 10
58.03272596795586
 20
166.3063886100038
 42
1.0
  0
LWPOLYLINE
  5
8F
330
2
100
AcDbEntity
  8
mechanical
  6
Continuous
100
AcDbPolyline
 90
        2
 70
   129
 43
0.127
 10
60.39422372435587
 20
163.4510756006037
 42
1.0
 10
60.52122372435582
 20
163.4510756006037
 42
1.0
  0
LWPOLYLINE
  5
90
330
2
100
AcDbEntity
  8
mechanical
  6
Continuous
100
AcDbPolyline
 90
        2
 70
   129
 43
0.127
 10
59.94812234915588
 20
163.1613739802038
 42
1.0
 10
60.07512234915584
 20
163.1613739802038
 42
1.0
  0
LWPOLYLINE
  5
91
330
2
100
AcDbEntity
  8
mechanical
  6
Continuous
100
AcDbPolyline
 90
        2
 70
   129
 43
0.127
 10
59.49425627035584
 20
163.8602664534038
 42
1.0
 10
59.62125627035579
 20
163.8602664534038
 42
1.0
  0
LWPOLYLINE
  5
92
330
2
100
AcDbEntity
  8
mechanical
  6
Continuous
100
AcDbPolyline
 90
        2
 70
   129
 43
0.127
 10
56.11307970275579
 20
164.7696169844038
 42
1.0
 10
56.24007970275574
 20
164.7696169844038
 42
1.0
  0
LWPOLYLINE
  5
93
330
2
100
AcDbEntity
  8
mechanical
  6
Continuous
100
AcDbPolyline
 90
        2
 70
   129
 43
0.127
 10
55.73195223315583
 20
164.7705194048038
 42
1.0
 10
55.85895223315578
 20
164.7705194048038
 42
1.0
  0
LWPOLYLINE
  5
94
330
2
100
AcDbEntity
  8
mechanical
  6
Continuous
100
AcDbPolyline
 90
        2
 70
   129
 43
0.127
 10
55.31833816655598
 20
164.6261193252038
 42
1.0
 10
55.44533816655593
 20
164.6261193252038
 42
1.0
  0
LWPOLYLINE
  5
95
330
2
100
AcDbEntity
  8
mechanical
  6
Continuous
100
AcDbPolyline
 90
        2
 70
   129
 43
0.127
 10
55.13989739155585
 20
164.5102385310036
 42
1.0
 10
55.2668973915558
 20
164.5102385310036
 42
1.0
  0
LWPOLYLINE
  5
96
330
2
100
AcDbEntity
  8
mechanical
  6
Continuous
100
AcDbPolyline
 90
        2
 70
   129
 43
0.127
 10
54.83974935775581
 20
164.1911160828036
 42
1.0
 10
54.96674935775576
 20
164.1911160828036
 42
1.0
  0
LWPOLYLINE
  5
97
330
2
100
AcDbEntity
  8
mechanical
  6
Continuous
100
AcDbPolyline
 90
        2
 70
   129
 43
0.127
 10
54.70980102235597
 20
163.6099090822036
 42
1.0
 10
54.83680102235592
 20
163.6099090822036
 42
1.0
  0
LWPOLYLINE
  5
98
330
2
100
AcDbEntity
  8
mechanical
  6
Continuous
100
AcDbPolyline
 90
        2
 70
   129
 43
0.127
 10
54.75829386135586
 20
163.1445817138038
 42
1.0
 10
54.88529386135581
 20
163.1445817138038
 42
1.0
  0
LWPOLYLINE
  5
99
330
2
100
AcDbEntity
  8
mechanical
  6
Continuous
100
AcDbPolyline
 90
        2
 70
   129
 43
0.127
 10
55.00947299555599
 20
162.5624722928038
 42
1.0
 10
55.13647299555595
 20
162.5624722928038
 42
1.0
  0
LWPOLYLINE
  5
9A
330
2
100
AcDbEntity
  8
mechanical
  6
Continuous
100
AcDbPolyline
 90
        2
 70
   129
 43
0.127
 10
55.23640571055597
 20
162.2130265562037
 42
1.0
 10
55.36340571055593
 20
162.2130265562037
 42
1.0
  0
LWPOLYLINE
  5
9B
330
2
100
AcDbEntity
  8
mechanical
  6
Continuous
100
AcDbPolyline
 90
        2
 70
   129
 43
0.127
 10
55.7227583863559
 20
161.6594365830038
 42
1.0
 10
55.84975838635585
 20
161.6594365830038
 42
1.0
  0
LWPOLYLINE
  5
9C
330
2
100
AcDbEntity
  8
mechanical
  6
Continuous
100
AcDbPolyline
 90
        2
 70
   129
 43
0.127
 10
56.12813227555597
 20
161.4258704784036
 42
1.0
 10
56.25513227555592
 20
161.4258704784036
 42
1.0
  0
LWPOLYLINE
  5
9D
330
2
100
AcDbEntity
  8
mechanical
  6
Continuous
100
AcDbPolyline
 90
        2
 70
   129
 43
0.127
 10
56.7119460405558
 20
161.3081860056037
 42
1.0
 10
56.83894604055575
 20
161.3081860056037
 42
1.0
  0
LWPOLYLINE
  5
9E
330
2
100
AcDbEntity
  8
mechanical
  6
Continuous
100
AcDbPolyline
 90
        2
 70
   129
 43
0.127
 10
57.12556010715587
 20
161.4525860852037
 42
1.0
 10
57.25256010715582
 20
161.4525860852037
 42
1.0
  0
LWPOLYLINE
  5
9F
330
2
100
AcDbEntity
  8
mechanical
  6
Continuous
100
AcDbPolyline
 90
        2
 70
   129
 43
0.127
 10
56.84189437595586
 20
161.8893930062037
 42
1.0
 10
56.96889437595581
 20
161.8893930062037
 42
1.0
  0
LWPOLYLINE
  5
A0
330
2
100
AcDbEntity
  8
mechanical
  6
Continuous
100
AcDbPolyline
 90
        2
 70
   129
 43
0.127
 10
56.46076690615581
 20
161.8902954264036
 42
1.0
 10
56.58776690615576
 20
161.8902954264036
 42
1.0
  0
LWPOLYLINE
  5
A1
330
2
100
AcDbEntity
  8
mechanical
  6
Continuous
100
AcDbPolyline
 90
        2
 70
   129
 43
0.127
 10
56.11212668255593
 20
162.0364993470037
 42
1.0
 10
56.23912668255588
 20
162.0364993470037
 42
1.0
  0
LWPOLYLINE
  5
A2
330
2
100
AcDbEntity
  8
mechanical
  6
Continuous
100
AcDbPolyline
 90
        2
 70
   129
 43
0.127
 10
55.73924003955579
 20
162.4153669518037
 42
1.0
 10
55.86624003955575
 20
162.4153669518037
 42
1.0
  0
LWPOLYLINE
  5
A3
330
2
100
AcDbEntity
  8
mechanical
  6
Continuous
100
AcDbPolyline
 90
        2
 70
   129
 43
0.127
 10
55.51230732475591
 20
162.7648126884038
 42
1.0
 10
55.63930732475586
 20
162.7648126884038
 42
1.0
  0
LWPOLYLINE
  5
A4
330
2
100
AcDbEntity
  8
mechanical
  6
Continuous
100
AcDbPolyline
 90
        2
 70
   129
 43
0.127
 10
55.31786120675582
 20
163.2595609252037
 42
1.0
 10
55.44486120675578
 20
163.2595609252037
 42
1.0
  0
LWPOLYLINE
  5
A5
330
2
100
AcDbEntity
  8
mechanical
  6
Continuous
100
AcDbPolyline
 90
        2
 70
   129
 43
0.127
 10
55.32610203355597
 20
163.6375261096037
 42
1.0
 10
55.45310203355592
 20
163.6375261096037
 42
1.0
  0
LWPOLYLINE
  5
A6
330
2
100
AcDbEntity
  8
mechanical
  6
Continuous
100
AcDbPolyline
 90
        2
 70
   129
 43
0.127
 10
55.48029678835582
 20
163.9860694260038
 42
1.0
 10
55.60729678835577
 20
163.9860694260038
 42
1.0
  0
LWPOLYLINE
  5
A7
330
2
100
AcDbEntity
  8
mechanical
  6
Continuous
100
AcDbPolyline
 90
        2
 70
   129
 43
0.127
 10
55.65873756335594
 20
164.1019502202037
 42
1.0
 10
55.7857375633559
 20
164.1019502202037
 42
1.0
  0
LWPOLYLINE
  5
A8
330
2
100
AcDbEntity
  8
mechanical
  6
Continuous
100
AcDbPolyline
 90
        2
 70
   129
 43
0.127
 10
56.12908464635592
 20
164.1589891156037
 42
1.0
 10
56.25608464635587
 20
164.1589891156037
 42
1.0
  0
LWPOLYLINE
  5
A9
330
2
100
AcDbEntity
  8
mechanical
  6
Continuous
100
AcDbPolyline
 90
        2
 70
   129
 43
0.127
 10
58.52836207795593
 20
161.2457357496037
 42
1.0
 10
58.65536207795589
 20
161.2457357496037
 42
1.0
  0
LWPOLYLINE
  5
AA
330
2
100
AcDbEntity
  8
mechanical
  6
Continuous
100
AcDbPolyline
 90
        2
 70
   129
 43
0.127
 10
59.86666614115591
 20
162.1148405704037
 42
1.0
 10
59.99366614115587
 20
162.1148405704037
 42
1.0
  0
LWPOLYLINE
  5
AB
330
2
100
AcDbEntity
  8
mechanical
  6
Continuous
100
AcDbPolyline
 90
        2
 70
   129
 43
0.127
 10
60.28028091935579
 20
162.2592396908038
 42
1.0
 10
60.40728091935574
 20
162.2592396908038
 42
1.0
  0
LWPOLYLINE
  5
AC
330
2
100
AcDbEntity
  8
mechanical
  6
Continuous
100
AcDbPolyline
 90
        2
 70
   129
 43
0.127
 10
60.86409471575592
 20
162.1415552382037
 42
1.0
 10
60.99109471575587
 20
162.1415552382037
 42
1.0
  0
LWPOLYLINE
  5
AD
330
2
100
AcDbEntity
  8
mechanical
  6
Continuous
100
AcDbPolyline
 90
        2
 70
   129
 43
0.127
 10
61.26946797915582
 20
161.9079901486037
 42
1.0
 10
61.39646797915577
 20
161.9079901486037
 42
1.0
  0
LWPOLYLINE
  5
AE
330
2
100
AcDbEntity
  8
mechanical
  6
Continuous
100
AcDbPolyline
 90
        2
 70
   129
 43
0.127
 10
61.64235462995577
 20
161.5291225490037
 42
1.0
 10
61.76935462995572
 20
161.5291225490037
 42
1.0
  0
LWPOLYLINE
  5
AF
330
2
100
AcDbEntity
  8
mechanical
  6
Continuous
100
AcDbPolyline
 90
        2
 70
   129
 43
0.127
 10
62.15295372535582
 20
160.7428688916037
 42
1.0
 10
62.27995372535577
 20
160.7428688916037
 42
1.0
  0
LWPOLYLINE
  5
B0
330
2
100
AcDbEntity
  8
mechanical
  6
Continuous
100
AcDbPolyline
 90
        2
 70
   129
 43
0.127
 10
62.34739983535575
 20
160.2481206498038
 42
1.0
 10
62.47439983535571
 20
160.2481206498038
 42
1.0
  0
LWPOLYLINE
  5
B1
330
2
100
AcDbEntity
  8
mechanical
  6
Continuous
100
AcDbPolyline
 90
        2
 70
   129
 43
0.127
 10
62.3958920017559
 20
159.7827942658037
 42
1.0
 10
62.52289200175585
 20
159.7827942658037
 42
1.0
  0
LWPOLYLINE
  5
B2
330
2
100
AcDbEntity
  8
mechanical
  6
Continuous
100
AcDbPolyline
 90
        2
 70
   129
 43
0.127
 10
62.26594363515585
 20
159.2015872450036
 42
1.0
 10
62.3929436351558
 20
159.2015872450036
 42
1.0
  0
LWPOLYLINE
  5
B3
330
2
100
AcDbEntity
  8
mechanical
  6
Continuous
100
AcDbPolyline
 90
        2
 70
   129
 43
0.127
 10
62.02252920455578
 20
158.7951025724038
 42
1.0
 10
62.14952920455573
 20
158.7951025724038
 42
1.0
  0
LWPOLYLINE
  5
B4
330
2
100
AcDbEntity
  8
mechanical
  6
Continuous
100
AcDbPolyline
 90
        2
 70
   129
 43
0.127
 10
61.63316123275592
 20
158.4180393084037
 42
1.0
 10
61.76016123275587
 20
158.4180393084037
 42
1.0
  0
LWPOLYLINE
  5
B5
330
2
100
AcDbEntity
  8
mechanical
  6
Continuous
100
AcDbPolyline
 90
        2
 70
   129
 43
0.127
 10
60.29485716955599
 20
157.5489344876037
 42
1.0
 10
60.42185716955595
 20
157.5489344876037
 42
1.0
  0
LWPOLYLINE
  5
B6
330
2
100
AcDbEntity
  8
mechanical
  6
Continuous
100
AcDbPolyline
 90
        2
 70
   129
 43
0.127
 10
59.79202226575598
 20
157.3465944296036
 42
1.0
 10
59.91902226575593
 20
157.3465944296036
 42
1.0
  0
LWPOLYLINE
  5
B7
330
2
100
AcDbEntity
  8
mechanical
  6
Continuous
100
AcDbPolyline
 90
        2
 70
   129
 43
0.127
 10
59.32167453355595
 20
157.2895565340037
 42
1.0
 10
59.4486745335559
 20
157.2895565340037
 42
1.0
  0
LWPOLYLINE
  5
B8
330
2
100
AcDbEntity
  8
mechanical
  6
Continuous
100
AcDbPolyline
 90
        2
 70
   129
 43
0.127
 10
58.73786076855589
 20
157.4072410070037
 42
1.0
 10
58.86486076855584
 20
157.4072410070037
 42
1.0
  0
LWPOLYLINE
  5
B9
330
2
100
AcDbEntity
  8
mechanical
  6
Continuous
100
AcDbPolyline
 90
        2
 70
   129
 43
0.127
 10
58.33248752855587
 20
157.6408061116038
 42
1.0
 10
58.45948752855583
 20
157.6408061116038
 42
1.0
  0
LWPOLYLINE
  5
BA
330
2
100
AcDbEntity
  8
mechanical
  6
Continuous
100
AcDbPolyline
 90
        2
 70
   129
 43
0.127
 10
57.44900179015593
 20
158.8059273738036
 42
1.0
 10
57.57600179015589
 20
158.8059273738036
 42
1.0
  0
LWPOLYLINE
  5
BB
330
2
100
AcDbEntity
  8
mechanical
  6
Continuous
100
AcDbPolyline
 90
        2
 70
   129
 43
0.127
 10
57.25455567235593
 20
159.3006756106036
 42
1.0
 10
57.38155567235589
 20
159.3006756106036
 42
1.0
  0
LWPOLYLINE
  5
BC
330
2
100
AcDbEntity
  8
mechanical
  6
Continuous
100
AcDbPolyline
 90
        2
 70
   129
 43
0.127
 10
57.20606348255586
 20
159.7660019792036
 42
1.0
 10
57.33306348255581
 20
159.7660019792036
 42
1.0
  0
LWPOLYLINE
  5
BD
330
2
100
AcDbEntity
  8
mechanical
  6
Continuous
100
AcDbPolyline
 90
        2
 70
   129
 43
0.127
 10
57.33601181795592
 20
160.3472089798036
 42
1.0
 10
57.46301181795587
 20
160.3472089798036
 42
1.0
  0
LWPOLYLINE
  5
BE
330
2
100
AcDbEntity
  8
mechanical
  6
Continuous
100
AcDbPolyline
 90
        2
 70
   129
 43
0.127
 10
57.72537971495598
 20
160.7242729060038
 42
1.0
 10
57.85237971495593
 20
160.7242729060038
 42
1.0
  0
LWPOLYLINE
  5
BF
330
2
100
AcDbEntity
  8
mechanical
  6
Continuous
100
AcDbPolyline
 90
        2
 70
   129
 43
0.127
 10
58.06577911175594
 20
160.2001038010038
 42
1.0
 10
58.19277911175589
 20
160.2001038010038
 42
1.0
  0
LWPOLYLINE
  5
C0
330
2
100
AcDbEntity
  8
mechanical
  6
Continuous
100
AcDbPolyline
 90
        2
 70
   129
 43
0.127
 10
57.95960088555597
 20
158.0196737164038
 42
1.0
 10
58.08660088555592
 20
158.0196737164038
 42
1.0
  0
LWPOLYLINE
  5
C1
330
2
100
AcDbEntity
  8
mechanical
  6
Continuous
100
AcDbPolyline
 90
        2
 70
   129
 43
0.127
 10
57.85485173995579
 20
159.9389205068038
 42
1.0
 10
57.98185173995574
 20
159.9389205068038
 42
1.0
  0
LWPOLYLINE
  5
C2
330
2
100
AcDbEntity
  8
mechanical
  6
Continuous
100
AcDbPolyline
 90
        2
 70
   129
 43
0.127
 10
57.84661091315587
 20
159.5609553224038
 42
1.0
 10
57.97361091315583
 20
159.5609553224038
 42
1.0
  0
LWPOLYLINE
  5
C3
330
2
100
AcDbEntity
  8
mechanical
  6
Continuous
100
AcDbPolyline
 90
        2
 70
   129
 43
0.127
 10
57.98432336555578
 20
159.1535692696037
 42
1.0
 10
58.11132336555573
 20
159.1535692696037
 42
1.0
  0
LWPOLYLINE
  5
C4
330
2
100
AcDbEntity
  8
mechanical
  6
Continuous
100
AcDbPolyline
 90
        2
 70
   129
 43
0.127
 10
58.49492246075596
 20
158.3673156122037
 42
1.0
 10
58.62192246075591
 20
158.3673156122037
 42
1.0
  0
LWPOLYLINE
  5
C5
330
2
100
AcDbEntity
  8
mechanical
  6
Continuous
100
AcDbPolyline
 90
        2
 70
   129
 43
0.127
 10
58.81107543815591
 20
158.0758101914037
 42
1.0
 10
58.93807543815587
 20
158.0758101914037
 42
1.0
  0
LWPOLYLINE
  5
C6
330
2
100
AcDbEntity
  8
mechanical
  6
Continuous
100
AcDbPolyline
 90
        2
 70
   129
 43
0.127
 10
59.1597156617558
 20
157.9296062710037
 42
1.0
 10
59.28671566175575
 20
157.9296062710037
 42
1.0
  0
LWPOLYLINE
  5
C7
330
2
100
AcDbEntity
  8
mechanical
  6
Continuous
100
AcDbPolyline
 90
        2
 70
   129
 43
0.127
 10
59.54084338135584
 20
157.9287040130037
 42
1.0
 10
59.66784338135579
 20
157.9287040130037
 42
1.0
  0
LWPOLYLINE
  5
C8
330
2
100
AcDbEntity
  8
mechanical
  6
Continuous
100
AcDbPolyline
 90
        2
 70
   129
 43
0.127
 10
59.95445744795592
 20
158.0731040926037
 42
1.0
 10
60.08145744795587
 20
158.0731040926037
 42
1.0
  0
LWPOLYLINE
  5
C9
330
2
100
AcDbEntity
  8
mechanical
  6
Continuous
100
AcDbPolyline
 90
        2
 70
   129
 43
0.127
 10
61.29276151115584
 20
158.9422089132036
 42
1.0
 10
61.4197615111558
 20
158.9422089132036
 42
1.0
  0
LWPOLYLINE
  5
CA
330
2
100
AcDbEntity
  8
mechanical
  6
Continuous
100
AcDbPolyline
 90
        2
 70
   129
 43
0.127
 10
61.59290954495588
 20
159.2613313614036
 42
1.0
 10
61.71990954495583
 20
159.2613313614036
 42
1.0
  0
LWPOLYLINE
  5
CB
330
2
100
AcDbEntity
  8
mechanical
  6
Continuous
100
AcDbPolyline
 90
        2
 70
   129
 43
0.127
 10
61.74710365055592
 20
159.6098756774036
 42
1.0
 10
61.87410365055587
 20
159.6098756774036
 42
1.0
  0
LWPOLYLINE
  5
CC
330
2
100
AcDbEntity
  8
mechanical
  6
Continuous
100
AcDbPolyline
 90
        2
 70
   129
 43
0.127
 10
61.75534453975581
 20
159.9878409024037
 42
1.0
 10
61.88234453975576
 20
159.9878409024037
 42
1.0
  0
LWPOLYLINE
  5
CD
330
2
100
AcDbEntity
  8
mechanical
  6
Continuous
100
AcDbPolyline
 90
        2
 70
   129
 43
0.127
 10
61.61763208755576
 20
160.3952269552038
 42
1.0
 10
61.74463208755572
 20
160.3952269552038
 42
1.0
  0
LWPOLYLINE
  5
CE
330
2
100
AcDbEntity
  8
mechanical
  6
Continuous
100
AcDbPolyline
 90
        2
 70
   129
 43
0.127
 10
61.10703299215578
 20
161.1814806126038
 42
1.0
 10
61.23403299215573
 20
161.1814806126038
 42
1.0
  0
LWPOLYLINE
  5
CF
330
2
100
AcDbEntity
  8
mechanical
  6
Continuous
100
AcDbPolyline
 90
        2
 70
   129
 43
0.127
 10
60.79088001475582
 20
161.4729860334038
 42
1.0
 10
60.91788001475578
 20
161.4729860334038
 42
1.0
  0
LWPOLYLINE
  5
D0
330
2
100
AcDbEntity
  8
mechanical
  6
Continuous
100
AcDbPolyline
 90
        2
 70
   129
 43
0.127
 10
60.44223972875596
 20
161.6191899134038
 42
1.0
 10
60.56923972875591
 20
161.6191899134038
 42
1.0
  0
LWPOLYLINE
  5
D1
330
2
100
AcDbEntity
  8
mechanical
  6
Continuous
100
AcDbPolyline
 90
        2
 70
   129
 43
0.127
 10
60.11784527535581
 20
161.5327311494037
 42
1.0
 10
60.24484527535577
 20
161.5327311494037
 42
1.0
  0
LWPOLYLINE
  5
D2
330
2
100
AcDbEntity
  8
mechanical
  6
Continuous
100
AcDbPolyline
 90
        2
 70
   129
 43
0.127
 10
59.40408305015598
 20
161.0692085406036
 42
1.0
 10
59.53108305015593
 20
161.0692085406036
 42
1.0
  0
LWPOLYLINE
  5
D3
330
2
100
AcDbEntity
  8
mechanical
  6
Continuous
100
AcDbPolyline
 90
        2
 70
   129
 43
0.127
 10
59.91468214535593
 20
160.2829548830037
 42
1.0
 10
60.04168214535588
 20
160.2829548830037
 42
1.0
  0
LWPOLYLINE
  5
D4
330
2
100
AcDbEntity
  8
mechanical
  6
Continuous
100
AcDbPolyline
 90
        2
 70
   129
 43
0.127
 10
59.37936057015594
 20
159.9353129872037
 42
1.0
 10
59.50636057015589
 20
159.9353129872037
 42
1.0
  0
LWPOLYLINE
  5
D5
330
2
100
AcDbEntity
  8
mechanical
  6
Continuous
100
AcDbPolyline
 90
        2
 70
   129
 43
0.127
 10
61.19482423655575
 20
157.1397440942038
 42
1.0
 10
61.3218242365557
 20
157.1397440942038
 42
1.0
  0
LWPOLYLINE
  5
D6
330
2
100
AcDbEntity
  8
mechanical
  6
Continuous
100
AcDbPolyline
 90
        2
 70
   129
 43
0.127
 10
62.53312829975573
 20
158.0088489148037
 42
1.0
 10
62.66012829975569
 20
158.0088489148037
 42
1.0
  0
LWPOLYLINE
  5
D7
330
2
100
AcDbEntity
  8
mechanical
  6
Continuous
100
AcDbPolyline
 90
        2
 70
   129
 43
0.127
 10
62.94674275355589
 20
158.1532485352037
 42
1.0
 10
63.07374275355584
 20
158.1532485352037
 42
1.0
  0
LWPOLYLINE
  5
D8
330
2
100
AcDbEntity
  8
mechanical
  6
Continuous
100
AcDbPolyline
 90
        2
 70
   129
 43
0.127
 10
63.53055654975571
 20
158.0355640826038
 42
1.0
 10
63.65755654975567
 20
158.0355640826038
 42
1.0
  0
LWPOLYLINE
  5
D9
330
2
100
AcDbEntity
  8
mechanical
  6
Continuous
100
AcDbPolyline
 90
        2
 70
   129
 43
0.127
 10
63.93593013775592
 20
157.8019984932037
 42
1.0
 10
64.06293013775587
 20
157.8019984932037
 42
1.0
  0
LWPOLYLINE
  5
DA
330
2
100
AcDbEntity
  8
mechanical
  6
Continuous
100
AcDbPolyline
 90
        2
 70
   129
 43
0.127
 10
64.30881646395585
 20
157.4231313934038
 42
1.0
 10
64.4358164639558
 20
157.4231313934038
 42
1.0
  0
LWPOLYLINE
  5
DB
330
2
100
AcDbEntity
  8
mechanical
  6
Continuous
100
AcDbPolyline
 90
        2
 70
   129
 43
0.127
 10
64.81941555935589
 20
156.6368777360038
 42
1.0
 10
64.94641555935584
 20
156.6368777360038
 42
1.0
  0
LWPOLYLINE
  5
DC
330
2
100
AcDbEntity
  8
mechanical
  6
Continuous
100
AcDbPolyline
 90
        2
 70
   129
 43
0.127
 10
65.01386166935583
 20
156.1421294942037
 42
1.0
 10
65.14086166935578
 20
156.1421294942037
 42
1.0
  0
LWPOLYLINE
  5
DD
330
2
100
AcDbEntity
  8
mechanical
  6
Continuous
100
AcDbPolyline
 90
        2
 70
   129
 43
0.127
 10
65.06235383575575
 20
155.6768031102038
 42
1.0
 10
65.1893538357557
 20
155.6768031102038
 42
1.0
  0
LWPOLYLINE
  5
DE
330
2
100
AcDbEntity
  8
mechanical
  6
Continuous
100
AcDbPolyline
 90
        2
 70
   129
 43
0.127
 10
64.93240579375572
 20
155.0955955896037
 42
1.0
 10
65.05940579375567
 20
155.0955955896037
 42
1.0
  0
LWPOLYLINE
  5
DF
330
2
100
AcDbEntity
  8
mechanical
  6
Continuous
100
AcDbPolyline
 90
        2
 70
   129
 43
0.127
 10
64.68899103855585
 20
154.6891114168037
 42
1.0
 10
64.81599103855581
 20
154.6891114168037
 42
1.0
  0
LWPOLYLINE
  5
E0
330
2
100
AcDbEntity
  8
mechanical
  6
Continuous
100
AcDbPolyline
 90
        2
 70
   129
 43
0.127
 10
64.29962306675577
 20
154.3120481528038
 42
1.0
 10
64.42662306675572
 20
154.3120481528038
 42
1.0
  0
LWPOLYLINE
  5
E1
330
2
100
AcDbEntity
  8
mechanical
  6
Continuous
100
AcDbPolyline
 90
        2
 70
   129
 43
0.127
 10
62.96131900355579
 20
153.4429433320036
 42
1.0
 10
63.08831900355574
 20
153.4429433320036
 42
1.0
  0
LWPOLYLINE
  5
E2
330
2
100
AcDbEntity
  8
mechanical
  6
Continuous
100
AcDbPolyline
 90
        2
 70
   129
 43
0.127
 10
62.45848409975576
 20
153.2406032740037
 42
1.0
 10
62.58548409975571
 20
153.2406032740037
 42
1.0
  0
LWPOLYLINE
  5
E3
330
2
100
AcDbEntity
  8
mechanical
  6
Continuous
100
AcDbPolyline
 90
        2
 70
   129
 43
0.127
 10
61.98813669215576
 20
153.1835648786037
 42
1.0
 10
62.11513669215571
 20
153.1835648786037
 42
1.0
  0
LWPOLYLINE
  5
E4
330
2
100
AcDbEntity
  8
mechanical
  6
Continuous
100
AcDbPolyline
 90
        2
 70
   129
 43
0.127
 10
61.4043226025559
 20
153.3012498512038
 42
1.0
 10
61.53132260255586
 20
153.3012498512038
 42
1.0
  0
LWPOLYLINE
  5
E5
330
2
100
AcDbEntity
  8
mechanical
  6
Continuous
100
AcDbPolyline
 90
        2
 70
   129
 43
0.127
 10
60.99894936255594
 20
153.5348149560037
 42
1.0
 10
61.1259493625559
 20
153.5348149560037
 42
1.0
  0
LWPOLYLINE
  5
E6
330
2
100
AcDbEntity
  8
mechanical
  6
Continuous
100
AcDbPolyline
 90
        2
 70
   129
 43
0.127
 10
60.62606271955582
 20
153.9136825608037
 42
1.0
 10
60.75306271955577
 20
153.9136825608037
 42
1.0
  0
LWPOLYLINE
  5
E7
330
2
100
AcDbEntity
  8
mechanical
  6
Continuous
100
AcDbPolyline
 90
        2
 70
   129
 43
0.127
 10
60.11546362435587
 20
154.6999362182037
 42
1.0
 10
60.24246362435582
 20
154.6999362182037
 42
1.0
  0
LWPOLYLINE
  5
E8
330
2
100
AcDbEntity
  8
mechanical
  6
Continuous
100
AcDbPolyline
 90
        2
 70
   129
 43
0.127
 10
59.92101783095581
 20
155.1946839552036
 42
1.0
 10
60.04801783095576
 20
155.1946839552036
 42
1.0
  0
LWPOLYLINE
  5
E9
330
2
100
AcDbEntity
  8
mechanical
  6
Continuous
100
AcDbPolyline
 90
        2
 70
   129
 43
0.127
 10
59.87252531655594
 20
155.6600108236037
 42
1.0
 10
59.99952531655589
 20
155.6600108236037
 42
1.0
  0
LWPOLYLINE
  5
EA
330
2
100
AcDbEntity
  8
mechanical
  6
Continuous
100
AcDbPolyline
 90
        2
 70
   129
 43
0.127
 10
60.00247365195599
 20
156.2412178242037
 42
1.0
 10
60.12947365195595
 20
156.2412178242037
 42
1.0
  0
LWPOLYLINE
  5
EB
330
2
100
AcDbEntity
  8
mechanical
  6
Continuous
100
AcDbPolyline
 90
        2
 70
   129
 43
0.127
 10
60.39184187355584
 20
156.6182812506036
 42
1.0
 10
60.5188418735558
 20
156.6182812506036
 42
1.0
  0
LWPOLYLINE
  5
EC
330
2
100
AcDbEntity
  8
mechanical
  6
Continuous
100
AcDbPolyline
 90
        2
 70
   129
 43
0.127
 10
60.7322412705559
 20
156.0941121456038
 42
1.0
 10
60.85924127055585
 20
156.0941121456038
 42
1.0
  0
LWPOLYLINE
  5
ED
330
2
100
AcDbEntity
  8
mechanical
  6
Continuous
100
AcDbPolyline
 90
        2
 70
   129
 43
0.127
 10
60.52131357395587
 20
155.8329293512036
 42
1.0
 10
60.64831357395582
 20
155.8329293512036
 42
1.0
  0
LWPOLYLINE
  5
EE
330
2
100
AcDbEntity
  8
mechanical
  6
Continuous
100
AcDbPolyline
 90
        2
 70
   129
 43
0.127
 10
60.51307274735581
 20
155.4549641668037
 42
1.0
 10
60.64007274735576
 20
155.4549641668037
 42
1.0
  0
LWPOLYLINE
  5
EF
330
2
100
AcDbEntity
  8
mechanical
  6
Continuous
100
AcDbPolyline
 90
        2
 70
   129
 43
0.127
 10
60.65078519955585
 20
155.0475781140038
 42
1.0
 10
60.77778519955581
 20
155.0475781140038
 42
1.0
  0
LWPOLYLINE
  5
F0
330
2
100
AcDbEntity
  8
mechanical
  6
Continuous
100
AcDbPolyline
 90
        2
 70
   129
 43
0.127
 10
61.16138429495584
 20
154.2613244566038
 42
1.0
 10
61.28838429495579
 20
154.2613244566038
 42
1.0
  0
LWPOLYLINE
  5
F1
330
2
100
AcDbEntity
  8
mechanical
  6
Continuous
100
AcDbPolyline
 90
        2
 70
   129
 43
0.127
 10
61.47753759695581
 20
153.9698185360037
 42
1.0
 10
61.60453759695577
 20
153.9698185360037
 42
1.0
  0
LWPOLYLINE
  5
F2
330
2
100
AcDbEntity
  8
mechanical
  6
Continuous
100
AcDbPolyline
 90
        2
 70
   129
 43
0.127
 10
61.82617782035584
 20
153.8236146154036
 42
1.0
 10
61.95317782035579
 20
153.8236146154036
 42
1.0
  0
LWPOLYLINE
  5
F3
330
2
100
AcDbEntity
  8
mechanical
  6
Continuous
100
AcDbPolyline
 90
        2
 70
   129
 43
0.127
 10
62.20988818766091
 20
153.8236146154036
 42
1.0
 10
62.33688818766086
 20
153.8236146154036
 42
1.0
  0
LWPOLYLINE
  5
F4
330
2
100
AcDbEntity
  8
mechanical
  6
Continuous
100
AcDbPolyline
 90
        2
 70
   129
 43
0.127
 10
62.62091960675582
 20
153.9671124370037
 42
1.0
 10
62.74791960675577
 20
153.9671124370037
 42
1.0
  0
LWPOLYLINE
  5
F5
330
2
100
AcDbEntity
  8
mechanical
  6
Continuous
100
AcDbPolyline
 90
        2
 70
   129
 43
0.127
 10
63.95922366995581
 20
154.8362172578037
 42
1.0
 10
64.08622366995576
 20
154.8362172578037
 42
1.0
  0
LWPOLYLINE
  5
F6
330
2
100
AcDbEntity
  8
mechanical
  6
Continuous
100
AcDbPolyline
 90
        2
 70
   129
 43
0.127
 10
64.25937137915582
 20
155.1553402058037
 42
1.0
 10
64.38637137915577
 20
155.1553402058037
 42
1.0
  0
LWPOLYLINE
  5
F7
330
2
100
AcDbEntity
  8
mechanical
  6
Continuous
100
AcDbPolyline
 90
        2
 70
   129
 43
0.127
 10
64.41356580935587
 20
155.5038840220037
 42
1.0
 10
64.54056580935582
 20
155.5038840220037
 42
1.0
  0
LWPOLYLINE
  5
F8
330
2
100
AcDbEntity
  8
mechanical
  6
Continuous
100
AcDbPolyline
 90
        2
 70
   129
 43
0.127
 10
64.42180669835591
 20
155.8818492470037
 42
1.0
 10
64.54880669835586
 20
155.8818492470037
 42
1.0
  0
LWPOLYLINE
  5
F9
330
2
100
AcDbEntity
  8
mechanical
  6
Continuous
100
AcDbPolyline
 90
        2
 70
   129
 43
0.127
 10
64.28409392155583
 20
156.2892357996037
 42
1.0
 10
64.41109392155579
 20
156.2892357996037
 42
1.0
  0
LWPOLYLINE
  5
FA
330
2
100
AcDbEntity
  8
mechanical
  6
Continuous
100
AcDbPolyline
 90
        2
 70
   129
 43
0.127
 10
63.7734948261558
 20
157.0754894570037
 42
1.0
 10
63.90049482615575
 20
157.0754894570037
 42
1.0
  0
LWPOLYLINE
  5
FB
330
2
100
AcDbEntity
  8
mechanical
  6
Continuous
100
AcDbPolyline
 90
        2
 70
   129
 43
0.127
 10
63.45734184875585
 20
157.3669948778036
 42
1.0
 10
63.5843418487558
 20
157.3669948778036
 42
1.0
  0
LWPOLYLINE
  5
FC
330
2
100
AcDbEntity
  8
mechanical
  6
Continuous
100
AcDbPolyline
 90
        2
 70
   129
 43
0.127
 10
63.10870156275576
 20
157.5131987578037
 42
1.0
 10
63.23570156275571
 20
157.5131987578037
 42
1.0
  0
LWPOLYLINE
  5
FD
330
2
100
AcDbEntity
  8
mechanical
  6
Continuous
100
AcDbPolyline
 90
        2
 70
   129
 43
0.127
 10
62.78430743415572
 20
157.4267394940037
 42
1.0
 10
62.91130743415568
 20
157.4267394940037
 42
1.0
  0
LWPOLYLINE
  5
FE
330
2
100
AcDbEntity
  8
mechanical
  6
Continuous
100
AcDbPolyline
 90
        2
 70
   129
 43
0.127
 10
62.07054520875579
 20
156.9632168850038
 42
1.0
 10
62.19754520875574
 20
156.9632168850038
 42
1.0
  0
LWPOLYLINE
  5
FF
330
2
100
AcDbEntity
  8
mechanical
  6
Continuous
100
AcDbPolyline
 90
        2
 70
   129
 43
0.127
 10
62.58114430415583
 20
156.1769632276037
 42
1.0
 10
62.70814430415578
 20
156.1769632276037
 42
1.0
  0
LWPOLYLINE
  5
100
330
2
100
AcDbEntity
  8
mechanical
  6
Continuous
100
AcDbPolyline
 90
        2
 70
   129
 43
0.127
 10
62.04582272875575
 20
155.8293213318037
 42
1.0
 10
62.17282272875571
 20
155.8293213318037
 42
1.0
  0
LWPOLYLINE
  5
101
330
2
100
AcDbEntity
  8
mechanical
100
AcDbPolyline
 90
        2
 70
   129
 43
0.254
 10
645.8777560253114
 20
189.5902634375735
 42
0.9999999999999998
 10
649.8777560253114
 20
189.5902634375735
 42
0.9999999999999998
  0
LWPOLYLINE
  5
102
330
2
100
AcDbEntity
  8
copper
  6
Continuous
100
AcDbPolyline
 90
        2
 70
   128
 43
0.5
 10
452.0618197086338
 20
241.8656319478397
 42
0.1989123673796366
 10
452.9404993650739
 20
239.7443116042803
  0
LWPOLYLINE
  5
104
330
2
100
AcDbEntity
  8
copper
  6
Continuous
100
AcDbPolyline
 90
        2
 70
   128
 43
0.5
 10
452.0618197086338
 20
242.9729912607207
 10
452.0618197086338
 20
241.8656319478397
  0
LWPOLYLINE
  5
105
330
2
100
AcDbEntity
  8
copper
  6
Continuous
100
AcDbPolyline
 90
        2
 70
   128
 43
0.5
 10
449.7118197086337
 20
242.9729912607267
 10
453.0831400521933
 20
239.6016709171609
  0
LWPOLYLINE
  5
106
330
2
100
AcDbEntity
  8
copper
  6
Continuous
100
AcDbPolyline
 90
        2
 70
   128
 43
0.5
 10
452.9404993650743
 20
239.7443116042804
 42
0.1989123673796367
 10
450.8191790215149
 20
240.6229912607209
  0
LWPOLYLINE
  5
107
330
2
100
AcDbEntity
  8
copper
  6
Continuous
100
AcDbPolyline
 90
        2
 70
   128
 43
0.5
 10
449.7118197086339
 20
240.622991260721
 10
450.8191790215148
 20
240.6229912607209
  0
LWPOLYLINE
  5
108
330
2
100
AcDbEntity
  8
copper
  6
Continuous
100
AcDbPolyline
 90
        2
 70
   128
 43
0.5
 10
453.9618197086337
 20
237.4803505736014
 42
0.1989123673796514
 10
453.0831400521934
 20
239.6016709171609
  0
LWPOLYLINE
  5
109
330
2
100
AcDbEntity
  8
copper
  6
Continuous
100
AcDbPolyline
 90
        2
 70
   128
 43
1.0
 10
451.6517184127077
 20
240.5755045629872
 10
451.6517184127077
 20
241.7583744531112
  0
LWPOLYLINE
  5
10A
330
2
100
AcDbEntity
  8
copper
  6
Continuous
100
AcDbPolyline
 90
        2
 70
   128
 43
1.0
 10
457.7719210045597
 20
240.5755045629872
 10
457.7719210045597
 20
241.7583744531112
  0
LWPOLYLINE
  5
10B
330
2
100
AcDbEntity
  8
copper
  6
Continuous
100
AcDbPolyline
 90
        2
 70
   128
 43
0.5
 10
459.7118197086335
 20
240.622991260721
 10
458.6044603957526
 20
240.6229912607209
  0
LWPOLYLINE
  5
10C
330
2
100
AcDbEntity
  8
copper
  6
Continuous
100
AcDbPolyline
 90
        2
 70
   128
 43
0.5
 10
456.4831400521931
 20
239.7443116042804
 42
-0.1989123673796367
 10
458.6044603957525
 20
240.6229912607209
  0
LWPOLYLINE
  5
10D
330
2
100
AcDbEntity
  8
copper
  6
Continuous
100
AcDbPolyline
 90
        2
 70
   128
 43
0.5
 10
459.7118197086337
 20
242.9729912607267
 10
456.3404993650741
 20
239.6016709171609
  0
LWPOLYLINE
  5
10E
330
2
100
AcDbEntity
  8
copper
  6
Continuous
100
AcDbPolyline
 90
        2
 70
   128
 43
0.5
 10
457.3618197086337
 20
242.9729912607207
 10
457.3618197086337
 20
241.8656319478397
  0
LWPOLYLINE
  5
10F
330
2
100
AcDbEntity
  8
copper
  6
Continuous
100
AcDbPolyline
 90
        2
 70
   128
 43
0.5
 10
457.3618197086337
 20
241.8656319478397
 42
-0.1989123673796366
 10
456.4831400521935
 20
239.7443116042803
  0
LWPOLYLINE
  5
110
330
2
100
AcDbEntity
  8
copper
  6
Continuous
100
AcDbPolyline
 90
        2
 70
   128
 43
0.5
 10
455.4618197086337
 20
237.4803505736014
 42
-0.1989123673796514
 10
456.340499365074
 20
239.6016709171609
  0
LWPOLYLINE
  5
111
330
2
100
AcDbEntity
  8
copper
  6
Continuous
100
AcDbPolyline
 90
        2
 70
   128
 43
5.2
 10
449.7118197086337
 20
242.9729912607267
 10
449.7118197086337
 20
244.9729912607207
  0
LWPOLYLINE
  5
112
330
2
100
AcDbEntity
  8
copper
  6
Continuous
100
AcDbPolyline
 90
        2
 70
   129
 43
2.6
 10
448.4118197086337
 20
244.9729912607207
 42
1.0
 10
451.0118197086338
 20
244.9729912607207
 42
1.0
  0
LWPOLYLINE
  5
113
330
2
100
AcDbEntity
  8
copper
  6
Continuous
100
AcDbPolyline
 90
        2
 70
   129
 43
2.6
 10
448.4118197086398
 20
242.9729912607207
 42
1.0
 10
451.0118197086398
 20
242.9729912607207
 42
1.0
  0
LWPOLYLINE
  5
114
330
2
100
AcDbEntity
  8
copper
  6
Continuous
100
AcDbPolyline
 90
        2
 70
   129
 43
2.6
 10
461.0118197086337
 20
244.9729912607207
 42
-1.0
 10
458.4118197086336
 20
244.9729912607207
 42
-1.0
  0
LWPOLYLINE
  5
115
330
2
100
AcDbEntity
  8
copper
  6
Continuous
100
AcDbPolyline
 90
        2
 70
   129
 43
2.6
 10
461.0118197086277
 20
242.9729912607207
 42
-1.0
 10
458.4118197086276
 20
242.9729912607207
 42
-1.0
  0
LWPOLYLINE
  5
116
330
2
100
AcDbEntity
  8
copper
  6
Continuous
100
AcDbPolyline
 90
        2
 70
   128
 43
5.2
 10
459.7118197086337
 20
242.9729912607267
 10
459.7118197086337
 20
244.9729912607207
  0
LWPOLYLINE
  5
117
330
2
100
AcDbEntity
  8
copper
  6
Continuous
100
AcDbPolyline
 90
        2
 70
   128
 43
5.2
 10
833.6068919559959
 20
135.6088656461348
 10
832.5176138859749
 20
133.9315245101596
  0
LWPOLYLINE
  5
119
330
2
100
AcDbEntity
  8
copper
  6
Continuous
100
AcDbPolyline
 90
        2
 70
   129
 43
2.6
 10
832.3068919559959
 20
135.6088656461348
 42
1.0
 10
834.9068919559961
 20
135.6088656461348
 42
1.0
  0
LWPOLYLINE
  5
11A
330
2
100
AcDbEntity
  8
copper
  6
Continuous
100
AcDbPolyline
 90
        2
 70
   129
 43
2.6
 10
831.2176138859749
 20
133.9315245101596
 42
1.0
 10
833.8176138859749
 20
133.9315245101596
 42
1.0
  0
LWPOLYLINE
  5
11B
330
2
100
AcDbEntity
  8
copper
  6
Continuous
100
AcDbPolyline
 90
        2
 70
   129
 43
2.6
 10
824.5082493423618
 20
138.2886367902681
 42
1.0
 10
827.1082493423618
 20
138.2886367902681
 42
1.0
  0
LWPOLYLINE
  5
11D
330
2
100
AcDbEntity
  8
copper
  6
Continuous
100
AcDbPolyline
 90
        2
 70
   129
 43
2.6
 10
79.04755586489461
 20
143.320660197906
 42
1.0
 10
81.64755586489462
 20
143.320660197906
 42
1.0
  0
LWPOLYLINE
  5
11E
330
2
100
AcDbEntity
  8
copper
  6
Continuous
100
AcDbPolyline
 90
        2
 70
   128
 43
5.2
 10
74.72746939140319
 20
137.2862067819226
 10
73.63819132138207
 20
138.9635479178979
  0
LWPOLYLINE
  5
11F
330
2
100
AcDbEntity
  8
copper
  6
Continuous
100
AcDbPolyline
 90
        2
 70
   129
 43
2.6
 10
73.42746939140318
 20
137.2862067819226
 42
1.0
 10
76.0274693914032
 20
137.2862067819226
 42
1.0
  0
LWPOLYLINE
  5
120
330
2
100
AcDbEntity
  8
copper
  6
Continuous
100
AcDbPolyline
 90
        2
 70
   129
 43
2.6
 10
72.33819132138205
 20
138.9635479178979
 42
1.0
 10
74.93819132138208
 20
138.9635479178979
 42
1.0
  0
LWPOLYLINE
  5
121
330
2
100
AcDbEntity
  8
copper
  6
Continuous
100
AcDbPolyline
 90
        2
 70
   129
 43
2.6
 10
825.597527412383
 20
139.9659779262434
 42
1.0
 10
828.1975274123828
 20
139.9659779262434
 42
1.0
  0
LWPOLYLINE
  5
122
330
2
100
AcDbEntity
  8
copper
  6
Continuous
100
AcDbPolyline
 90
        2
 70
   128
 43
5.2
 10
826.8975274123828
 20
139.9659779262434
 10
825.808249342362
 20
138.2886367902682
  0
LWPOLYLINE
  5
123
330
2
100
AcDbEntity
  8
copper
  6
Continuous
100
AcDbPolyline
 90
        2
 70
   129
 43
2.6
 10
80.13683393491573
 20
141.6433190619308
 42
1.0
 10
82.73683393491575
 20
141.6433190619308
 42
1.0
  0
LWPOLYLINE
  5
124
330
2
100
AcDbEntity
  8
copper
  6
Continuous
100
AcDbPolyline
 90
        2
 70
   128
 43
5.2
 10
81.43683393491574
 20
141.6433190619308
 10
80.34755586489461
 20
143.3206601979061
  0
LWPOLYLINE
  5
127
330
2
100
AcDbEntity
  8
copper
  6
Continuous
100
AcDbPolyline
 90
        2
 70
   129
 43
0.6
 10
639.2315324483941
 20
192.783939900577
 42
1.0
 10
639.8315324483941
 20
192.783939900577
 42
1.0
  0
LWPOLYLINE
  5
128
330
2
100
AcDbEntity
  8
copper
  6
Continuous
100
AcDbPolyline
 90
        2
 70
   129
 43
0.6
 10
642.8859622600732
 20
191.7422380471127
 42
1.0
 10
643.4859622600732
 20
191.7422380471127
 42
1.0
  0
LWPOLYLINE
  5
129
330
2
100
AcDbEntity
  8
copper
  6
Continuous
100
AcDbPolyline
 90
        2
 70
   128
 43
1.199999999999999
 10
639.531532448394
 20
192.783939900577
 10
643.1859622600732
 20
191.7422380471127
  0
LWPOLYLINE
  5
12A
330
2
100
AcDbEntity
  8
copper
  6
Continuous
100
AcDbPolyline
 90
        2
 70
   129
 43
0.6
 10
638.8243658332156
 20
191.3402587212704
 42
1.0
 10
639.4243658332157
 20
191.3402587212704
 42
1.0
  0
LWPOLYLINE
  5
12B
330
2
100
AcDbEntity
  8
copper
  6
Continuous
100
AcDbPolyline
 90
        2
 70
   129
 43
0.6
 10
642.4787956448946
 20
190.2985568678061
 42
1.0
 10
643.0787956448947
 20
190.2985568678061
 42
1.0
  0
LWPOLYLINE
  5
12C
330
2
100
AcDbEntity
  8
copper
  6
Continuous
100
AcDbPolyline
 90
        2
 70
   128
 43
1.199999999999999
 10
639.1243658332156
 20
191.3402587212704
 10
642.7787956448947
 20
190.2985568678061
  0
LWPOLYLINE
  5
12D
330
2
100
AcDbEntity
  8
copper
  6
Continuous
100
AcDbPolyline
 90
        2
 70
   128
 43
0.5
 10
455.4618197086337
 20
219.0876757595618
 10
455.4618197086337
 20
237.4803505736014
  0
LWPOLYLINE
  5
12E
330
2
100
AcDbEntity
  8
copper
  6
Continuous
100
AcDbPolyline
 90
        2
 70
   128
 43
0.5
 10
453.9618197086337
 20
217.5942695078109
 10
453.9618197086337
 20
237.4803505736014
  0
LWPOLYLINE
  5
12F
330
2
100
AcDbEntity
  8
copper
100
AcDbPolyline
 90
        6
 70
   128
 43
0.5
 10
639.531532448382
 20
192.7839399005804
 42
0.0016512190086639
 10
635.199288969985
 20
193.9903475157614
 42
0.2011323824798807
 10
632.2583308902066
 20
193.6133208033441
 42
-0.199055662957711
 10
629.3842263633734
 20
193.2331920795236
 42
0.0637914046112048
 10
458.4453150323087
 20
216.087721160629
 42
-0.4126031014631487
 10
455.4618197086337
 20
219.0876757595618
  0
LWPOLYLINE
  5
130
330
2
100
AcDbEntity
  8
copper
100
AcDbPolyline
 90
        6
 70
   128
 43
0.5
 10
639.1243658332034
 20
191.3402587212736
 42
0.0014362858888254
 10
635.3647843539895
 20
192.388937767843
 42
0.2011297080862453
 10
632.4233348709434
 20
192.0144414860402
 42
-0.1990483144113626
 10
629.5488977505558
 20
191.6367794408978
 42
0.0645533290948359
 10
456.9518950624289
 20
214.5942859242895
 42
-0.413244938356157
 10
453.9618197086337
 20
217.5942695078109
  0
LWPOLYLINE
  5
131
330
2
100
AcDbEntity
  8
copper
  6
Continuous
100
AcDbPolyline
 90
        2
 70
   128
 43
1.199999999999999
 10
82.27795235047279
 20
139.8287888717683
 42
0.2360679774997914
 10
80.60518717161221
 20
137.7307286590023
  0
LWPOLYLINE
  5
132
330
2
100
AcDbEntity
  8
copper
  6
Continuous
100
AcDbPolyline
 90
        2
 70
   128
 43
1.199999999999999
 10
80.60518717161233
 20
137.7307286590024
 42
0.2360679774997897
 10
79.93039810871585
 20
140.3277769297504
  0
LWPOLYLINE
  5
133
330
2
100
AcDbEntity
  8
copper
  6
Continuous
100
AcDbPolyline
 90
        2
 70
   128
 43
1.199999999999999
 10
81.43683393491574
 20
141.6433190619308
 10
80.60518717161233
 20
137.7307286590024
  0
LWPOLYLINE
  5
134
330
2
100
AcDbEntity
  8
copper
  6
Continuous
100
AcDbPolyline
 90
        2
 70
   128
 43
1.199999999999999
 10
75.61413263406251
 20
135.0028258898498
 10
76.66649030800051
 20
133.3823371783722
  0
LWPOLYLINE
  5
135
330
2
100
AcDbEntity
  8
copper
  6
Continuous
100
AcDbPolyline
 90
        2
 70
   128
 43
1.199999999999999
 10
76.66649030800051
 20
133.3823371783722
 42
0.1682991173351403
 10
74.08337455622791
 20
135.3927597023081
  0
LWPOLYLINE
  5
136
330
2
100
AcDbEntity
  8
copper
  6
Continuous
100
AcDbPolyline
 90
        2
 70
   128
 43
1.199999999999999
 10
74.72746939140313
 20
137.2862067819227
 42
0.1031479622902216
 10
75.61413263406251
 20
135.0028258898498
  0
LWPOLYLINE
  5
137
330
2
100
AcDbEntity
  8
copper
  6
Continuous
100
AcDbPolyline
 90
        2
 70
   129
 43
0.6
 10
76.36649030800049
 20
133.3823371783722
 42
1.0
 10
76.96649030800052
 20
133.3823371783722
 42
1.0
  0
LWPOLYLINE
  5
138
330
2
100
AcDbEntity
  8
copper
  6
Continuous
100
AcDbPolyline
 90
        2
 70
   129
 43
0.6
 10
80.30518717161232
 20
137.7307286590024
 42
1.0
 10
80.90518717161234
 20
137.7307286590024
 42
1.0
  0
LWPOLYLINE
  5
139
330
2
100
AcDbEntity
  8
copper
  6
Continuous
100
AcDbPolyline
 90
        2
 70
   128
 43
1.199999999999999
 10
76.50948243971254
 20
136.3782257823114
 42
0.2679491924526103
 10
76.66649030835009
 20
133.3823371778342
  0
LWPOLYLINE
  5
13A
330
2
100
AcDbEntity
  8
copper
  6
Continuous
100
AcDbPolyline
 90
        2
 70
   128
 43
1.199999999999999
 10
828.3714743647367
 20
141.3178212535734
 42
0.2360679774997863
 10
830.8780545289451
 20
140.3601909071468
  0
LWPOLYLINE
  5
13B
330
2
100
AcDbEntity
  8
copper
  6
Continuous
100
AcDbPolyline
 90
        2
 70
   128
 43
1.199999999999999
 10
830.8780545289451
 20
140.3601909071468
 42
0.2360679774997947
 10
828.6080021532789
 20
138.929504983636
  0
LWPOLYLINE
  5
13C
330
2
100
AcDbEntity
  8
copper
  6
Continuous
100
AcDbPolyline
 90
        2
 70
   128
 43
1.199999999999999
 10
826.8975274123828
 20
139.9659779262434
 10
830.8780545289451
 20
140.3601909071468
  0
LWPOLYLINE
  5
13D
330
2
100
AcDbEntity
  8
copper
  6
Continuous
100
AcDbPolyline
 90
        2
 70
   129
 43
0.6
 10
830.5780545289451
 20
140.3601909071468
 42
1.0
 10
831.1780545289453
 20
140.3601909071468
 42
1.0
  0
LWPOLYLINE
  5
13E
330
2
100
AcDbEntity
  8
copper
  6
Continuous
100
AcDbPolyline
 90
        2
 70
   128
 43
1.199999999999999
 10
835.970977584035
 20
138.3311990463317
 42
0.2015127546061237
 10
835.5589308887422
 20
136.0442321641895
  0
LWPOLYLINE
  5
13F
330
2
100
AcDbEntity
  8
copper
  6
Continuous
100
AcDbPolyline
 90
        2
 70
   128
 43
1.199999999999999
 10
833.6068919559961
 20
135.6088656461349
 42
0.0890898866845595
 10
835.542438145428
 20
137.6713061792169
  0
LWPOLYLINE
  5
140
330
2
100
AcDbEntity
  8
copper
100
AcDbPolyline
 90
        2
 70
   128
 43
1.199999999999999
 10
835.542438145428
 20
137.6713061792169
 10
836.3845834413501
 20
138.9680962148311
  0
LWPOLYLINE
  5
141
330
2
100
AcDbEntity
  8
copper
  6
Continuous
100
AcDbPolyline
 90
        2
 70
   128
 43
1.199999999999999
 10
833.711563868607
 20
137.6061247156374
 42
0.2679491924462988
 10
836.3845834413499
 20
138.9680962148311
  0
LWPOLYLINE
  5
142
330
2
100
AcDbEntity
  8
copper
  6
Continuous
100
AcDbPolyline
 90
        2
 70
   129
 43
0.6
 10
836.0845834413499
 20
138.968096214831
 42
1.0
 10
836.6845834413499
 20
138.968096214831
 42
1.0
  0
LWPOLYLINE
  5
143
330
2
100
AcDbEntity
  8
copper
  6
Continuous
100
AcDbPolyline
 90
      227
 70
   128
 43
1.08
 10
830.8780545289451
 20
140.3601909071468
 10
832.4703935294978
 20
140.5178887912801
 42
0.2278558859367778
 10
836.1709801430794
 20
142.7703525118827
 10
848.7751838548884
 20
162.1791242042254
 42
0.4185326788043013
 10
848.4304404640607
 20
163.7442664841205
 42
0.0095808102865089
 10
824.1472351211941
 20
178.3688769850997
 42
1.0
 10
823.0235721476514
 20
176.4195485053691
 42
-0.0080254405113393
 10
843.341167209261
 20
164.2691943927555
 42
-1.0
 10
839.7842206389162
 20
158.5324155844249
 42
0.0082232230761668
 10
819.1516387100287
 20
170.8600615626996
 42
1.0
 10
818.0295181588784
 20
168.9098447879062
 42
-0.0081582190375839
 10
838.4375813436673
 20
156.7199451144464
 42
-1.0
 10
834.8821264486272
 20
150.9822416985019
 42
0.0149848385266508
 10
797.450923514518
 20
172.6524692209511
 42
-0.413759224030682
 10
796.0809500864956
 20
177.2207378957128
 10
802.4700485124709
 20
189.1053851751859
 42
0.4155525184610952
 10
802.0073207906783
 20
190.631392743584
 42
0.0390663138216904
 10
696.180120798002
 20
236.7033696543188
 42
1.0
 10
695.445678516892
 20
234.5766128427119
 42
-0.0375245696016416
 10
796.9345786498819
 20
190.7645289849727
 42
-1.0
 10
793.8023703477076
 20
184.7852505041029
 42
0.0376998990993997
 10
692.7585608333321
 20
228.3632224402895
 42
1.0
 10
692.0256081579567
 20
226.235951800324
 42
-0.0376665647671169
 10
792.6723747963661
 20
182.8371622558851
 42
-1.0
 10
789.5409626524508
 20
176.8574667799479
 42
0.0449237719682003
 10
669.9558827614394
 20
226.3801372680536
 42
-0.4137592240306713
 10
667.7394128474499
 20
230.6030707269984
 10
671.7434279323074
 20
243.4884610142389
 42
0.4155525184611022
 10
670.9980258509976
 20
244.8981389137971
 42
0.0350939856674465
 10
569.9329479535968
 20
268.1946579063549
 42
1.0
 10
569.5824950457886
 20
265.9721181970565
 42
-0.0335526855112299
 10
665.9930806785039
 20
244.0609042357563
 42
-1.0
 10
664.0593199848814
 20
237.5938284220827
 42
0.0337506789835816
 10
567.9600757118956
 20
259.3943131591962
 42
1.0
 10
567.6113811159225
 20
257.1714969097641
 42
-0.033717354039652
 10
663.3217983960569
 20
235.4659187259454
 42
-1.0
 10
661.3888987994335
 20
228.9985854927364
 42
0.0405524721257243
 10
547.058371307135
 20
253.2908290569669
 42
-0.4137592240306828
 10
544.1422698519665
 20
257.0647207063734
 10
545.8479304088095
 20
270.4496428846719
 42
0.4155525184610803
 10
544.869064661669
 20
271.7084668963584
 42
0.0176281223192438
 10
492.9205416663442
 20
276.2355756312121
 42
1.0
 10
492.8043272365978
 20
273.9885789230885
 42
-0.0160881982996449
 10
540.0855401285172
 20
270.0148520858078
 42
-1.0
 10
539.3041535348436
 20
263.3102316646933
 42
0.0162860196308018
 10
491.8783635378525
 20
267.2772187897252
 42
1.0
 10
491.7639266940403
 20
265.0301308500178
 42
-0.0162527237561793
 10
538.9473441971286
 20
261.0865804183383
 42
-1.0
 10
538.1668503188893
 20
254.3818560163937
 42
0.0230810693541994
 10
471.7291486705894
 20
259.0223471709199
 42
-0.4137592240306809
 10
468.4345428296576
 20
262.4707494431607
 10
468.7317542532485
 20
275.960637694142
 42
0.4155525184610892
 10
467.6266678956251
 20
277.1102464038856
 42
0.0088998853852585
 10
441.2939943203091
 20
277.1012928158037
 42
1.0
 10
441.3348055499457
 20
274.85166296991
 42
-0.0073602971262121
 10
463.0463789638886
 20
274.9258949240196
 42
-1.0
 10
462.9700965571456
 20
268.1763259752332
 42
0.0075580776410987
 10
440.8792582691662
 20
268.0920594100806
 42
1.0
 10
440.9218491186206
 20
265.8424625529654
 42
-0.0075247886841685
 10
462.8476767059411
 20
265.9275593913195
 42
-1.0
 10
462.7722929932001
 20
259.1779803454932
 42
0.0317747207109446
 10
371.256789098378
 20
254.3818560163937
 42
-1.0
 10
370.4762952201387
 20
261.0865804183382
 42
-0.0162527237561793
 10
417.6597127232271
 20
265.0301308500178
 42
1.0
 10
417.5452758794149
 20
267.2772187897252
 42
0.0162860196308018
 10
370.1194858824236
 20
263.3102316646935
 42
-1.0
 10
369.3380992887501
 20
270.014852085808
 42
-0.0160881982996449
 10
416.6193121806696
 20
273.9885789230885
 42
1.0
 10
416.5030977509232
 20
276.2355756312123
 42
0.0176281223192438
 10
364.5545747555983
 20
271.7084668963583
 42
0.4155525184610837
 10
363.5757090084577
 20
270.4496428846717
 10
365.2813695653009
 20
257.0647207063733
 42
-0.4137592240306831
 10
362.3652681101323
 20
253.2908290569668
 42
0.0405524721257244
 10
248.0347406178338
 20
228.9985854927361
 42
-1.0
 10
246.1018410212104
 20
235.4659187259455
 42
-0.0337173540396521
 10
341.8122583013448
 20
257.1714969097641
 42
1.0
 10
341.4635637053716
 20
259.3943131591962
 42
0.0337506789835816
 10
245.364319432386
 20
237.5938284220826
 42
-1.0
 10
243.4305587387633
 20
244.0609042357564
 42
-0.0335526855112298
 10
339.8411443714787
 20
265.9721181970561
 42
1.0
 10
339.4906914636705
 20
268.1946579063549
 42
0.0350939856674464
 10
238.4256135662698
 20
244.8981389137974
 42
0.4155525184611168
 10
237.6802114849599
 20
243.4884610142391
 10
241.6842265698174
 20
230.6030707269984
 42
-0.4137592240306838
 10
239.4677566558279
 20
226.3801372680535
 42
0.0449237719682002
 10
119.8826767648164
 20
176.8574667799481
 42
-1.0
 10
116.7512646209013
 20
182.8371622558848
 42
-0.0376665647671169
 10
217.3980312593107
 20
226.2359518003239
 42
1.0
 10
216.6650785839352
 20
228.3632224402898
 42
0.0376998990993998
 10
115.6212690695596
 20
184.7852505041029
 42
-1.0
 10
112.4890607673854
 20
190.7645289849725
 42
-0.0375245696016416
 10
213.9779609003753
 20
234.5766128427119
 42
1.0
 10
213.2435186192654
 20
236.7033696543192
 42
0.0390663138216905
 10
107.4163186265892
 20
190.6313927435838
 42
0.4155525184610488
 10
106.9535909047965
 20
189.1053851751859
 10
113.3426893307715
 20
177.2207378957131
 42
-0.4137592240306821
 10
111.9727159027492
 20
172.6524692209513
 42
0.0132601260420171
 10
78.78218592924253
 20
153.5898413354447
 42
-1.0
 10
75.26639094758554
 20
159.3519317240933
 42
-0.0064337586779547
 10
91.39412125838919
 20
168.9098447879059
 42
1.0
 10
90.27200070723869
 20
170.8600615626995
 42
0.0065199145492868
 10
73.87951490420068
 20
161.1414273041398
 42
-1.0
 10
70.36173446296913
 20
166.9023057759782
 42
-0.0063221368842375
 10
86.40006726961592
 20
176.4195485053691
 42
1.0
 10
85.27640429607316
 20
178.3688769850997
 42
0.0078880662628023
 10
65.2423337175278
 20
166.3955476866457
 42
0.4205231999171292
 10
64.89112831032997
 20
164.8263733805894
 10
72.19942574930439
 20
153.5725822093243
 42
-0.4188158523014227
 10
71.1624410245617
 20
148.8754255137857
 42
0.0001489885820666
 10
70.79814123281517
 20
148.6467390433598
 42
1.0
 10
71.99496253738118
 20
146.7414519875763
 42
-0.2862972850648405
 10
833.5339492277807
 20
149.1706651046624
 42
-1.0
 10
829.9800237597416
 20
143.4320142381587
 42
0.2812637550456874
 10
86.8968950264545
 20
147.9848614815664
 42
1.0
 10
88.05800843302746
 20
146.0576054899877
 42
-0.1317214232167138
 10
441.6651265009069
 20
247.8531949515157
 42
-1.0
 10
441.7890746770535
 20
241.1043330586014
 42
0.1332063793588948
 10
88.02875688114596
 20
138.1456091941273
 42
1.0
 10
89.20110059888925
 20
136.2251638792414
 42
-0.1349675402731397
 10
446.6843770742447
 20
238.927059724359
 42
-1.0
 10
446.7616190382963
 20
232.1775016885323
 42
0.1364238159213935
 10
89.33229368464571
 20
128.3836143349834
 42
1.0
 10
90.51560269299967
 20
126.469905947912
 42
-0.1368897872277181
 10
448.054373671993
 20
229.9409893745073
 42
-1.0
 10
448.1192657452743
 20
223.1913013062463
 42
0.1368155559730325
 10
94.23554441127487
 20
120.8338722317336
 42
1.0
 10
95.41829558797042
 20
118.9198190313171
 42
-0.1367831552803419
 10
448.0539443180805
 20
220.9405637868334
 42
-1.0
 10
448.1196950991868
 20
214.1908840288905
 42
0.1367069480537361
 10
99.13883515185625
 20
113.2840845482028
 42
1.0
 10
100.3210135268141
 20
111.3696775147375
 42
-0.218016042127147
 10
657.5353123599117
 20
180.7558845730039
 42
0.4137259424124789
 10
658.945970237877
 20
181.4887416559134
 10
661.6665806618406
 20
190.0676985011939
 42
0.4146949370190538
 10
660.9325257486525
 20
191.4806998543067
 42
0.0098574087016419
 10
634.9924824417189
 20
199.1012442427032
 42
0.4151764770078438
 10
633.6103314268436
 20
198.3080056587782
 42
-0.9967189120433873
 10
627.0862795040343
 20
200.0396968532336
 42
1.003291888932262
 10
624.9078484257221
 20
200.6026207890721
 42
-0.9967189120456813
 10
618.3615962265758
 20
202.2484002486711
 42
1.003291888939493
 10
616.1759534459235
 20
202.7826389180674
 42
-0.9967189120489447
 10
609.6086322437818
 20
204.3422222317664
 42
1.003291888937083
 10
607.4161554668924
 20
204.8476833116694
 42
-0.9967189120441439
 10
600.8289001760836
 20
206.3208009641932
 42
1.003291888925809
 10
598.629968290058
 20
206.7973971046693
 42
-0.9967189120420865
 10
592.0239172697651
 20
208.183794523071
 42
1.003291888928888
 10
589.8189102772298
 20
208.6314433624163
 42
-0.9967189120424176
 10
583.1952051347685
 20
209.9308809600706
 42
1.00329188893403
 10
580.9845040882049
 20
210.3495051390412
 42
-0.9967189120452317
 10
574.344289481741
 20
211.5617583570484
 42
1.003291888933548
 10
572.1282764176294
 20
211.9512855322017
 42
-0.996718912044475
 10
565.4726998583721
 20
213.0761448782233
 42
1.003291888934485
 10
563.2517577311764
 20
213.4365077344441
 42
-0.996718912044877
 10
556.5819693850687
 20
214.4737788188729
 42
1.003291888931298
 10
554.3564820010567
 20
214.804915081006
 42
-0.9967189120433163
 10
547.6736344900139
 20
215.7544186505702
 42
1.003291888931646
 10
545.4439864409285
 20
216.0562710941676
 42
-0.9967189120438602
 10
538.7492346436513
 20
216.9178430629082
 42
1.003291888933655
 10
536.5158112402516
 20
217.1903595241411
 42
-0.9967189120443096
 10
529.8103120926481
 20
217.9638510017632
 42
1.003291888933093
 10
527.5734992981203
 20
218.2069843864177
 42
-0.9967189120443805
 10
520.858411593374
 20
218.8922617040276
 42
1.003291888931031
 10
518.6185959566325
 20
219.1059699956414
 42
-0.9967189120440258
 10
511.8950801449487
 20
219.7029147288484
 42
1.00329188893328
 10
509.6526487338372
 20
219.8871609959925
 42
-0.9967189120444515
 10
502.9218667219011
 20
220.3956699853569
 42
1.003291888932637
 10
500.6772070563003
 20
220.5504223879914
 42
-0.9967189120436474
 10
493.9403220064877
 20
220.9704077568772
 42
1.0032918889302
 10
491.6938219913491
 20
221.0956395518739
 42
-0.9967189120434344
 10
484.9519981207156
 20
221.4270287216153
 42
1.003291888932798
 10
482.7040459790256
 20
221.522718267376
 42
-0.996718912044286
 10
475.9584483581157
 20
221.7654539698196
 42
1.003291888932235
 10
473.7094325638063
 20
221.8315847300044
 42
-0.9967189120440732
 10
466.9612269153158
 20
221.9856250174232
 42
1.003291888932611
 10
464.7115361261309
 20
222.0221855638196
 42
-0.9935391869875807
 10
457.9618197086337
 20
222.0659360092421
 10
457.9618197086337
 20
234.4415051653608
 42
-0.4170003088602761
 10
461.3688991562666
 20
237.8163527039971
 42
-0.0006475599642958
 10
463.1829318304117
 20
237.7967598733961
 42
0.4177606778704876
 10
464.3215388282872
 20
238.9216775813236
 10
464.3215388282872
 20
244.4787640050585
 42
-0.419602458383478
 10
467.7585129163605
 20
247.8531949515156
 42
-0.1316788131855832
 10
821.2636670685649
 20
146.119024022403
 42
-1.0
 10
817.7812955419224
 20
140.3366725499976
 42
0.1299842262360957
 10
472.3234355984914
 20
241.0025879979051
 42
1.0
 10
472.2671284784173
 20
238.7532926619768
 42
-0.1346430455660423
 10
827.5651101707701
 20
131.6805928538694
 42
-1.0
 10
823.9774270480054
 20
125.962985853504
 42
0.1368950052150248
 10
465.954608943555
 20
232.1320171069725
 42
1.0
 10
465.9181983271051
 20
229.8823117335936
 42
-0.1368431855720855
 10
822.662174546903
 20
124.1319947490525
 42
-1.0
 10
819.0756548427032
 20
118.413657891942
 42
0.0604686552108159
 10
669.5121337994484
 20
188.713259952673
 42
1.0
 10
668.8073569759642
 20
186.5764891111744
 42
-0.0604162513173076
 10
817.7592074972752
 20
116.5833816176716
 42
-1.0
 10
814.1738821606647
 20
110.8642958314067
 42
0.0603778023154399
 10
666.7915084107607
 20
180.1336856706829
 42
1.0
 10
666.0864041631364
 20
177.9970228521777
 42
-0.0603239933269049
 10
812.8562077542058
 20
109.0347528499696
 42
-1.0
 10
809.2721089857734
 20
103.3148983047801
 42
0.2855649828828897
 10
104.0421675299685
 20
105.73424943379
 42
1.0
 10
105.2237575223339
 20
103.8194791891021
 42
-0.2855054214830311
 10
807.9531739808988
 20
101.486107802743
 42
-1.0
 10
804.3703353012023
 20
95.76546387087011
 42
0.285420057050406
 10
108.9455432582402
 20
98.18436493632397
 42
1.0
 10
110.1265286427007
 20
96.26922172452726
 42
-0.2853588586339675
 10
803.0501047666698
 20
93.93744579702024
 42
-1.0
 10
799.4685610893784
 20
88.2159910093236
 42
0.2852711314361632
 10
113.848964144541
 20
90.6344289949958
 42
1.0
 10
115.02932801529
 20
88.71890266193998
 42
-0.2852082275681936
 10
798.1469986217683
 20
86.38876611553746
 42
-1.0
 10
794.5667863319402
 20
80.66647811511655
 42
0.2851180381184614
 10
118.7524320986961
 20
83.0844394326956
 42
1.0
 10
119.9321568308419
 20
81.16851940399795
 42
-0.2850533564952391
 10
793.24385397176
 20
78.84006800000327
 42
-1.0
 10
789.6650110096989
 20
73.11692349257521
 42
0.2849605996412201
 10
123.6559491397781
 20
75.53439394768815
 42
1.0
 10
124.8350163479773
 20
73.61806920523213
 42
-0.2848940638129222
 10
788.3406691514221
 20
71.29135064811942
 42
-1.0
 10
784.7632351025915
 20
65.56732534888567
 42
0.2847986283274561
 10
128.5595174040311
 20
67.98429010456527
 42
1.0
 10
129.7379078981062
 20
66.06754916133048
 42
-0.2847301573966221
 10
783.4374423981034
 20
63.74261321034407
 42
-1.0
 10
779.8614585896362
 20
58.01768178703594
 42
0.2866535844666804
 10
129.5621808276237
 20
58.0176817870315
 42
-0.4090612889960425
 10
124.9436757565852
 20
59.04199075549275
 10
76.66649030835009
 20
133.3823371778342
  0
LWPOLYLINE
  5
144
330
2
100
AcDbEntity
  8
copper
100
AcDbPolyline
 90
      227
 70
   128
 43
1.08
 10
836.3845834413501
 20
138.9680962148311
 10
850.6621926327582
 20
160.9536863754303
 42
0.4185326788042935
 10
849.6279624602752
 20
165.6491132151154
 42
0.0095808102865089
 10
825.2708980947371
 20
180.3182054648303
 42
1.0
 10
821.8999091741086
 20
174.4702200256384
 42
-0.0080254405113392
 10
842.1555183524795
 20
162.3569347899784
 42
-1.0
 10
840.9698694956979
 20
160.4446751872018
 42
0.0082232230761669
 10
820.2737592611791
 20
172.810278337493
 42
1.0
 10
816.907397607728
 20
166.9596280131125
 42
-0.0081582190375839
 10
837.2524297119872
 20
154.8073773091317
 42
-1.0
 10
836.0672780803072
 20
152.8948095038168
 42
0.0149848385266508
 10
798.5193862558596
 20
174.6325922904508
 42
-0.4137592240306915
 10
798.0627284465188
 20
176.1553485153714
 10
804.4518268724941
 20
188.0399957948444
 42
0.4155525184610883
 10
803.0636437071157
 20
192.6180185000386
 42
0.0390663138216905
 10
696.9145630791119
 20
238.8301264659264
 42
1.0
 10
694.711236235782
 20
232.4498560311046
 42
-0.0375245696016416
 10
795.8905092158238
 20
188.7714361580159
 42
-1.0
 10
794.8464397817659
 20
186.7783433310594
 42
0.0376998990993998
 10
693.4915135087075
 20
230.4904930802553
 42
1.0
 10
691.2926554825812
 20
224.1086811603584
 42
-0.0376665647671168
 10
791.6285707483942
 20
180.8439304305728
 42
-1.0
 10
790.5847667004224
 20
178.8506986052603
 42
0.0449237719682002
 10
670.6268895392279
 20
228.527752201919
 42
-0.4137592240306891
 10
669.8880662345648
 20
229.935396688234
 10
673.8920813194222
 20
242.8207869754745
 42
0.4155525184610863
 10
671.6558750754927
 20
247.049820674149
 42
0.0350939856674465
 10
570.283400861405
 20
270.4171976156536
 42
1.0
 10
569.2320421379803
 20
263.7495784877579
 42
-0.0335526855112299
 10
665.3484937806298
 20
241.9052122978651
 42
-1.0
 10
664.7039068827556
 20
239.7495203599739
 42
0.0337506789835816
 10
568.3087703078688
 20
261.6171294086283
 42
1.0
 10
567.2626865199495
 20
254.9486806603321
 42
-0.033717354039652
 10
662.6774985305157
 20
233.3101409815424
 42
-1.0
 10
662.0331986649747
 20
231.1543632371394
 42
0.0405524721257243
 10
547.3462545646295
 20
255.5223359984874
 42
-0.4137592240306778
 10
546.37422074624
 20
256.7802998816229
 10
548.0798813030831
 20
270.1652220599213
 42
0.4155525184610858
 10
545.1432840616615
 20
273.941694094981
 42
0.0176281223192438
 10
493.0367560960904
 20
278.4825723393359
 42
1.0
 10
492.6881128068514
 20
271.7415822149648
 42
-0.0160881982996449
 10
539.8250779306259
 20
267.7799786121032
 42
-1.0
 10
539.5646157327348
 20
265.5451051383981
 42
0.0162860196308018
 10
491.9928003816647
 20
269.5243067294326
 42
1.0
 10
491.6494898502281
 20
262.7830429103104
 42
-0.0162527237561792
 10
538.6871795710489
 20
258.8516722843568
 42
-1.0
 10
538.4270149449691
 20
256.6167641503752
 42
0.0230810693541994
 10
471.7821988821092
 20
261.2717216784348
 42
-0.4137592240306912
 10
470.6839969351319
 20
262.421189102515
 10
470.9812083587228
 20
275.9110773534964
 42
0.4155525184610833
 10
467.6659492858525
 20
279.3599034827272
 42
0.0088998853852585
 10
441.2531830906724
 20
279.3509226616976
 42
1.0
 10
441.3756167795824
 20
272.6020331240164
 42
-0.0073602971262121
 10
463.0209514949743
 20
272.6760386077575
 42
-1.0
 10
462.9955240260599
 20
270.4261822914953
 42
0.0075580776410987
 10
440.8366674197118
 20
270.3416562671959
 42
1.0
 10
440.964439968075
 20
263.59286569585
 42
-0.0075247886841686
 10
462.8225488016941
 20
263.6776997093773
 42
-1.0
 10
462.7974208974471
 20
261.427840027435
 42
0.0317747207109446
 10
370.9966244722981
 20
256.6167641503753
 42
-1.0
 10
370.7364598462184
 20
258.8516722843566
 42
-0.0162527237561793
 10
417.7741495670391
 20
262.7830429103108
 42
1.0
 10
417.4308390356027
 20
269.5243067294327
 42
0.0162860196308018
 10
369.8590236845325
 20
265.5451051383983
 42
-1.0
 10
369.5985614866414
 20
267.779978612103
 42
-0.0160881982996449
 10
416.7355266104159
 20
271.7415822149645
 42
1.0
 10
416.3868833211769
 20
278.4825723393359
 42
0.0176281223192438
 10
364.2803553556059
 20
273.941694094981
 42
0.4155525184610859
 10
361.3437581141843
 20
270.1652220599213
 10
363.0494186710274
 20
256.7802998816227
 42
-0.4137592240306778
 10
362.0773848526378
 20
255.5223359984872
 42
0.0405524721257243
 10
247.3904407522927
 20
231.1543632371393
 42
-1.0
 10
246.7461408867515
 20
233.3101409815425
 42
-0.0337173540396521
 10
342.1609528973179
 20
254.9486806603322
 42
1.0
 10
341.1148691093986
 20
261.6171294086283
 42
0.0337506789835816
 10
244.7197325345118
 20
239.7495203599736
 42
-1.0
 10
244.0751456366375
 20
241.9052122978651
 42
-0.0335526855112298
 10
340.191597279287
 20
263.7495784877577
 42
1.0
 10
339.1402385558622
 20
270.4171976156534
 42
0.0350939856674465
 10
237.7677643417745
 20
247.0498206741491
 42
0.4155525184610847
 10
235.5315580978451
 20
242.8207869754746
 10
239.5355731827026
 20
229.935396688234
 42
-0.4137592240306893
 10
238.7967498780394
 20
228.527752201919
 42
0.0449237719682002
 10
118.8388727168447
 20
178.8506986052605
 42
-1.0
 10
117.7950686688731
 20
180.8439304305726
 42
-0.0376665647671169
 10
218.130983934686
 20
224.1086811603583
 42
1.0
 10
215.9321259085598
 20
230.4904930802555
 42
0.0376998990993998
 10
114.5771996355014
 20
186.7783433310596
 42
-1.0
 10
113.5331302014435
 20
188.771436158016
 42
-0.0375245696016416
 10
214.7124031814853
 20
232.4498560311045
 42
1.0
 10
212.5090763381555
 20
238.8301264659264
 42
0.0390663138216905
 10
106.3599957101516
 20
192.6180185000386
 42
0.4155525184610845
 10
104.9718125447733
 20
188.0399957948444
 10
111.3609109707484
 20
176.1553485153716
 42
-0.4137592240306917
 10
110.9042531614076
 20
174.632592290451
 42
0.013260126042017
 10
77.61025426869025
 20
155.5105381316608
 42
-1.0
 10
76.43832260813792
 20
157.431234927877
 42
-0.0064337586779547
 10
92.51624180953957
 20
166.9596280131125
 42
1.0
 10
89.14988015608839
 20
172.810278337493
 42
0.0065199145492868
 10
72.70692142379033
 20
163.0617201280858
 42
-1.0
 10
71.5343279433797
 20
164.9820129520321
 42
-0.0063221368842375
 10
87.52373024315863
 20
174.4702200256384
 42
1.0
 10
84.1527413225304
 20
180.3182054648303
 42
0.0078880662628022
 10
64.05773575405373
 20
168.3084584699634
 42
0.4205231999171195
 10
63.00411953246009
 20
163.6009355517943
 10
70.31241697143463
 20
152.3471443805292
 42
-0.4188158523013652
 10
69.96675539652063
 20
150.7814254820165
 42
0.000148988582067
 10
69.60131992824869
 20
150.5520260991431
 42
1.0
 10
73.19178384194708
 20
144.8361649317924
 42
-0.2862972850648407
 10
832.3493074051011
 20
147.2577814824944
 42
-1.0
 10
831.1646655824215
 20
145.3448978603266
 42
0.2812637550456874
 10
85.73578161988155
 20
149.9121174731452
 42
1.0
 10
89.21912183960046
 20
144.1303494984089
 42
-0.1317214232167138
 10
441.7064425596225
 20
245.6035743205442
 42
-1.0
 10
441.7477586183379
 20
243.3539536895728
 42
0.1332063793588947
 10
86.85641316340264
 20
140.0660545090135
 42
1.0
 10
90.37344431663257
 20
134.3047185643553
 42
-0.1349675402731397
 10
446.7101243955952
 20
236.67720704575
 42
-1.0
 10
446.7358717169457
 20
234.4273543671412
 42
0.1364238159213935
 10
88.14898467629161
 20
130.2973227220551
 42
1.0
 10
91.69891170135366
 20
124.5561975608403
 42
-0.1368897872277181
 10
448.0760043630867
 20
227.691093351754
 42
-1.0
 10
448.0976350541806
 20
225.441197329
 42
0.1368155559730325
 10
93.05279323457915
 20
122.74792543215
 42
1.0
 10
96.60104676466609
 20
117.0057658309004
 42
-0.136783155280342
 10
448.0758612451159
 20
218.690670534186
 42
-1.0
 10
448.0977781721514
 20
216.4407772815383
 42
0.1367069480537362
 10
97.95665677689834
 20
115.1984915816683
 42
1.0
 10
101.503191901772
 20
109.455270481272
 42
-0.218016042127147
 10
656.8587328810898
 20
178.6100187317089
 42
0.4137259424124685
 10
661.090706514986
 20
180.8085899804373
 10
663.8113169389495
 20
189.3875468257177
 42
0.4146949370190569
 10
661.6091521993853
 20
193.6265508850562
 42
0.0098574087016419
 10
635.5839975582329
 20
201.272098882456
 42
0.4151764770078442
 10
631.4375445136069
 20
198.8923831306808
 42
-0.9967189120445697
 10
629.2628605393376
 20
199.4696135288346
 42
1.003291888932033
 10
622.727567304398
 20
201.1583853363378
 42
-0.9967189120474429
 10
620.5454832380167
 20
201.7069784895409
 42
1.003291888931153
 10
613.9885548960551
 20
203.3096944977117
 42
-0.9967189120357369
 10
611.7994478286765
 20
203.8295556022858
 42
1.003291888928439
 10
605.2220174980025
 20
205.3459388419706
 42
-0.9967189120475758
 10
603.0262657343999
 20
205.8369780594798
 42
1.003291888936723
 10
596.4294700763263
 20
207.266766480921
 42
-0.9967189120518058
 10
594.2274530695591
 20
207.7288989537083
 42
1.003291888936556
 10
587.6124320919598
 20
209.0718454717747
 42
-0.9967189120486931
 10
585.4045303778041
 20
209.5049913376494
 42
1.003291888932509
 10
578.7724272381141
 20
210.7608638745655
 42
-0.9967189120414836
 10
576.5590223692933
 20
211.1649482805716
 42
1.003291888932652
 10
569.9109831769574
 20
212.3335298060248
 42
-0.9967189120426276
 10
567.6924576572048
 20
212.7084829213637
 42
1.003291888932081
 10
561.029631275618
 20
213.7895714900285
 42
-0.9967189120425478
 10
558.8063684935824
 20
214.1353285181735
 42
1.003291888932724
 10
552.1299063415454
 20
215.1287373045661
 42
-0.9967189120422553
 10
549.902290504531
 20
215.4452384944204
 42
1.003291888932628
 10
543.2133463572759
 20
216.3507958252214
 42
-0.9967189120437451
 10
540.9817624248504
 20
216.6379864814704
 42
1.003291888931319
 10
534.2814922146515
 20
217.4555358651693
 42
-0.9967189120444633
 10
532.0463258321171
 20
217.7133663577127
 42
1.003291888934509
 10
525.3358874485334
 20
218.4427665116688
 42
-0.9967189120489859
 10
523.097524880284
 20
218.6711922841992
 42
1.003291888934533
 10
516.3780779700606
 20
219.3123171590519
 42
-0.9967189120471768
 10
514.1369060328323
 20
219.5112987367843
 42
1.003291888933842
 10
507.4096117994975
 20
220.0640375382141
 42
-0.996718912043878
 10
505.1660177955189
 20
220.2335405346689
 42
1.003291888931843
 10
498.4320387987167
 20
220.6977977425754
 42
-0.9967189120422817
 10
496.1864104487793
 20
220.8377928655396
 42
1.0032918889317
 10
489.4469104033636
 20
221.2134882505372
 42
-0.9967189120428406
 10
487.1996357798191
 20
221.3239513071168
 42
1.003291888932581
 10
480.4557793547494
 20
221.6110199444006
 42
-0.9967189120445166
 10
478.2072468144461
 20
221.6919318452152
 42
1.003291888932557
 10
471.4601994315176
 20
221.8903241257722
 42
-0.9967189120433459
 10
469.2107975486875
 20
221.9416708882457
 42
1.003291888932271
 10
462.4617251811327
 20
222.0513525274347
 42
-0.9935391869872983
 10
460.2118197086337
 20
222.0659360092426
 10
460.2118197086337
 20
234.4415051653608
 42
-0.4170003088602378
 10
461.3475128578445
 20
235.5664543449062
 42
-0.000647559964296
 10
463.1557178346612
 20
235.5469244575413
 42
0.4177606778704717
 10
466.5715388282872
 20
238.9216775813236
 10
466.5715388282872
 20
244.4787640050585
 42
-0.4196024583834723
 10
467.7171968576449
 20
245.6035743205442
 42
-0.1316788131855832
 10
820.1028765596838
 20
144.191573531601
 42
-1.0
 10
818.9420860508031
 20
142.2641230407995
 42
0.1299842262360957
 10
472.3797427185655
 20
243.2518833338334
 42
1.0
 10
472.2108213583431
 20
236.5039973260485
 42
-0.1346430455660423
 10
826.3692157965152
 20
129.7747238537477
 42
-1.0
 10
825.1733214222603
 20
127.8688548536258
 42
0.1368950052150248
 10
465.9910195600049
 20
234.3817224803511
 42
1.0
 10
465.8817877106552
 20
227.6326063602147
 42
-0.1368431855720855
 10
821.4666679788365
 20
122.2258824633492
 42
-1.0
 10
820.2711614107697
 20
120.3197701776454
 42
0.060468655210816
 10
670.2169106229327
 20
190.8500307941719
 42
1.0
 10
668.1025801524799
 20
184.4397182696757
 42
-0.0604162513173076
 10
816.5640990517383
 20
114.6770196889168
 42
-1.0
 10
815.3689906062016
 20
112.7706577601617
 42
0.0603778023154399
 10
667.4966126583852
 20
182.2703484891881
 42
1.0
 10
665.381299915512
 20
175.8603600336725
 42
-0.0603239933269049
 10
811.6615081647282
 20
107.1281346682398
 42
-1.0
 10
810.4668085752509
 20
105.22151648651
 42
0.2855649828828898
 10
102.8605775376031
 20
107.6490196784779
 42
1.0
 10
106.4053475146993
 20
101.9047089444142
 42
-0.285505421483031
 10
806.7588944209999
 20
99.57922649211878
 42
-1.0
 10
805.5646148611012
 20
97.67234518149439
 42
0.2854200570504061
 10
107.7645578737796
 20
100.0995081481204
 42
1.0
 10
111.3075140271613
 20
94.35407851273067
 42
-0.2853588586339677
 10
801.8562568742392
 20
92.03029420112136
 42
-1.0
 10
800.6624089818087
 20
90.12314260522249
 42
0.2852711314361632
 10
112.6686002737921
 20
92.54995532805139
 42
1.0
 10
116.2096918860391
 20
86.80337632888415
 42
-0.2852082275681938
 10
796.953594525159
 20
84.48133678206387
 42
-1.0
 10
795.7601904285496
 20
82.57390744859014
 42
0.2851180381184613
 10
117.5727073665502
 20
85.00035946139304
 42
1.0
 10
121.1118815629874
 20
79.25259937530075
 42
-0.2850533564952392
 10
792.0509063177396
 20
76.93235316419407
 42
-1.0
 10
790.8579586637192
 20
75.02463832838452
 42
0.2849605996412201
 10
122.4768819315787
 20
77.4507186901443
 42
1.0
 10
126.0140835561767
 20
71.7017444627761
 42
-0.2848940638129221
 10
787.1481911351452
 20
69.38334221504158
 42
-1.0
 10
785.9557131188685
 20
67.47533378196351
 42
0.2847986283274561
 10
127.3811269099558
 20
69.9010310478003
 42
1.0
 10
130.9162983921814
 20
64.15080821809545
 42
-0.2847301573966221
 10
782.2454477952811
 20
61.83430273590807
 42
-1.0
 10
781.0534531924586
 20
59.92599226147195
 42
0.2866535844666803
 10
128.3701862248013
 20
59.92599226146751
 42
-0.4090612889960757
 10
126.830684534455
 20
60.26742858428793
 10
80.95271810342968
 20
130.9133017015587
 42
-0.1989123673833629
 10
80.11585590669017
 20
135.4286060566341
 10
80.60518717161233
 20
137.7307286590024
  0
ENDSEC
  0
SECTION
  2
OBJECTS
  0
DICTIONARY
  5
9
330
0
100
AcDbDictionary
281
     1
  3
ACAD_COLOR
350
162
  3
ACAD_GROUP
350
15E
  3
ACAD_LAYOUT
350
147
  3
ACAD_MATERIAL
350
161
  3
ACAD_MLINESTYLE
350
15F
  3
ACAD_PLOTSETTINGS
350
160
  3
ACAD_PLOTSTYLENAME
350
8
  3
AcDbVariableDictionary
350
16B
  0
DICTIONARY
  5
3
330
2
100
AcDbDictionary
280
     1
281
     1
  3
ACAD_LAYOUTSELFREF
360
4
  0
DICTIONARY
  5
149
330
148
100
AcDbDictionary
280
     1
281
     1
  3
ACAD_LAYOUTSELFREF
360
14A
  0
DICTIONARY
  5
162
102
{ACAD_REACTORS
330
9
102
}
330
9
100
AcDbDictionary
281
     1
  0
DICTIONARY
  5
15E
102
{ACAD_REACTORS
330
9
102
}
330
9
100
AcDbDictionary
281
     1
  0
DICTIONARY
  5
147
102
{ACAD_REACTORS
330
9
102
}
330
9
100
AcDbDictionary
281
     1
  3
Layout1
350
14D
  3
Model
350
146
  0
DICTIONARY
  5
161
102
{ACAD_REACTORS
330
9
102
}
330
9
100
AcDbDictionary
281
     1
  0
DICTIONARY
  5
15F
102
{ACAD_REACTORS
330
9
102
}
330
9
100
AcDbDictionary
281
     1
  3
STANDARD
350
163
  0
DICTIONARY
  5
160
102
{ACAD_REACTORS
330
9
102
}
330
9
100
AcDbDictionary
281
     1
  0
ACDBDICTIONARYWDFLT
  5
8
102
{ACAD_REACTORS
330
9
102
}
330
9
100
AcDbDictionary
281
     1
  3
Normal
350
7
100
AcDbDictionaryWithDefault
340
7
  0
DICTIONARY
  5
16B
102
{ACAD_REACTORS
330
9
102
}
330
9
100
AcDbDictionary
281
     1
  3
DIMASSOC
350
16D
  3
HIDETEXT
350
16C
  3
PROJECTNAME
350
16E
  0
XRECORD
  5
4
102
{ACAD_REACTORS
330
3
102
}
330
3
100
AcDbXrecord
280
     1
340
2
  0
XRECORD
  5
14A
102
{ACAD_REACTORS
330
149
102
}
330
149
100
AcDbXrecord
280
     1
340
148
  0
LAYOUT
  5
14D
102
{ACAD_XDICTIONARY
360
169
102
}
102
{ACAD_REACTORS
330
147
102
}
330
147
100
AcDbPlotSettings
  1

  2
\\ris\laserc
  4

  6

 40
0.0
 41
0.0
 42
0.0
 43
0.0
 44
0.0
 45
0.0
 46
0.0
 47
0.0
 48
0.0
 49
0.0
140
0.0
141
0.0
142
1.0
143
1.0
 70
   688
 72
     0
 73
     0
 74
     5
  7
monochrome.ctb
 75
    16
147
1.0
148
0.0
149
0.0
100
AcDbLayout
  1
Layout1
 70
     0
 71
     1
 10
0.0
 20
0.0
 11
12.0
 21
9.0
 12
0.0
 22
0.0
 32
0.0
 14
1.000000000000000E+20
 24
1.000000000000000E+20
 34
1.000000000000000E+20
 15
-1.000000000000000E+20
 25
-1.000000000000000E+20
 35
-1.000000000000000E+20
146
0.0
 13
0.0
 23
0.0
 33
0.0
 16
1.0
 26
0.0
 36
0.0
 17
0.0
 27
1.0
 37
0.0
 76
     0
330
148
  0
LAYOUT
  5
146
102
{ACAD_XDICTIONARY
360
167
102
}
102
{ACAD_REACTORS
330
147
102
}
330
147
100
AcDbPlotSettings
  1

  2
\\ris\laserc
  4
A4
  6

 40
6.805083274841308
 41
5.069413185119628
 42
6.805084228515625
 43
5.027069091796875
 44
209.9733276367187
 45
296.9683227539062
 46
0.0
 47
0.0
 48
38.88398028674874
 49
33.28238553090727
140
872.933708229069
141
303.0700967741775
142
1.0
143
2.907394906922626
 70
 11952
 72
     1
 73
     1
 74
     4
  7
monochrome.ctb
 75
     0
147
0.3439505234115114
148
-38.88398028674874
149
-33.28238553090727
100
AcDbLayout
  1
Model
 70
     1
 71
     0
 10
0.0
 20
0.0
 11
12.0
 21
9.0
 12
0.0
 22
0.0
 32
0.0
 14
0.0
 24
0.0
 34
0.0
 15
0.0
 25
0.0
 35
0.0
146
0.0
 13
0.0
 23
0.0
 33
0.0
 16
1.0
 26
0.0
 36
0.0
 17
0.0
 27
1.0
 37
0.0
 76
     0
330
2
  0
MLINESTYLE
  5
163
102
{ACAD_REACTORS
330
15F
102
}
330
15F
100
AcDbMlineStyle
  2
STANDARD
 70
     0
  3

 62
     0
 51
90.0
 52
90.0
 71
     2
 49
0.5
 62
   256
  6
BYLAYER
 49
-0.5
 62
   256
  6
BYLAYER
  0
ACDBPLACEHOLDER
  5
7
102
{ACAD_REACTORS
330
8
102
}
330
8
  0
DICTIONARYVAR
  5
16D
102
{ACAD_REACTORS
330
16B
102
}
330
16B
100
DictionaryVariables
280
     0
  1
1
  0
DICTIONARYVAR
  5
16C
102
{ACAD_REACTORS
330
16B
102
}
330
16B
100
DictionaryVariables
280
     0
  1
1
  0
DICTIONARYVAR
  5
16E
102
{ACAD_REACTORS
330
16B
102
}
330
16B
100
DictionaryVariables
280
     0
  1

  0
DICTIONARY
  5
169
330
14D
100
AcDbDictionary
280
     1
281
     1
  3
ACAD_XREC_ROUNDTRIP
360
16A
  0
DICTIONARY
  5
167
330
146
100
AcDbDictionary
280
     1
281
     1
  3
ACAD_XREC_ROUNDTRIP
360
168
  0
XRECORD
  5
16A
102
{ACAD_REACTORS
330
169
102
}
330
169
100
AcDbXrecord
280
     1
102
SHADEPLOT
 70
     0
102
SHADEPLOTRESLEVEL
 70
     2
102
SHADEPLOTCUSTOMDPI
 70
   300
  0
XRECORD
  5
168
102
{ACAD_REACTORS
330
167
102
}
330
167
100
AcDbXrecord
280
     1
102
SHADEPLOT
 70
     0
102
SHADEPLOTRESLEVEL
 70
     2
102
SHADEPLOTCUSTOMDPI
 70
   300
  0
ENDSEC
  0
EOF
