  0
SECTION
  2
HEADER
  9
$ACADVER
  1
AC1015
  9
$ACADMAINTVER
 70
    20
  9
$DWGCODEPAGE
  3
ANSI_1250
  9
$INSBASE
 10
0.0
 20
0.0
 30
0.0
  9
$EXTMIN
 10
0.0
 20
0.0
 30
0.0
  9
$EXTMAX
 10
1156.299999999999
 20
417.565822928638
 30
0.0
  9
$LIMMIN
 10
0.0
 20
0.0
  9
$LIMMAX
 10
0.0
 20
0.0
  9
$ORTHOMODE
 70
     1
  9
$REGENMODE
 70
     1
  9
$FILLMODE
 70
     1
  9
$QTEXTMODE
 70
     0
  9
$MIRRTEXT
 70
     1
  9
$LTSCALE
 40
1.0
  9
$ATTMODE
 70
     1
  9
$TEXTSIZE
 40
0.2
  9
$TRACEWID
 40
0.05
  9
$TEXTSTYLE
  7
STANDARD
  9
$CLAYER
  8
0
  9
$CELTYPE
  6
BYLAYER
  9
$CECOLOR
 62
   256
  9
$CELTSCALE
 40
1.0
  9
$DISPSILH
 70
     0
  9
$DIMSCALE
 40
1.0
  9
$DIMASZ
 40
0.18
  9
$DIMEXO
 40
0.0625
  9
$DIMDLI
 40
0.38
  9
$DIMRND
 40
0.0
  9
$DIMDLE
 40
0.0
  9
$DIMEXE
 40
0.18
  9
$DIMTP
 40
0.0
  9
$DIMTM
 40
0.0
  9
$DIMTXT
 40
10.0
  9
$DIMCEN
 40
0.09
  9
$DIMTSZ
 40
0.0
  9
$DIMTOL
 70
     0
  9
$DIMLIM
 70
     0
  9
$DIMTIH
 70
     1
  9
$DIMTOH
 70
     1
  9
$DIMSE1
 70
     0
  9
$DIMSE2
 70
     0
  9
$DIMTAD
 70
     0
  9
$DIMZIN
 70
     0
  9
$DIMBLK
  1

  9
$DIMASO
 70
     1
  9
$DIMSHO
 70
     1
  9
$DIMPOST
  1

  9
$DIMAPOST
  1

  9
$DIMALT
 70
     0
  9
$DIMALTD
 70
     2
  9
$DIMALTF
 40
25.4
  9
$DIMLFAC
 40
1.0
  9
$DIMTOFL
 70
     0
  9
$DIMTVP
 40
0.0
  9
$DIMTIX
 70
     0
  9
$DIMSOXD
 70
     0
  9
$DIMSAH
 70
     0
  9
$DIMBLK1
  1

  9
$DIMBLK2
  1

  9
$DIMSTYLE
  2
STANDARD
  9
$DIMCLRD
 70
     0
  9
$DIMCLRE
 70
     0
  9
$DIMCLRT
 70
     0
  9
$DIMTFAC
 40
1.0
  9
$DIMGAP
 40
0.09
  9
$DIMJUST
 70
     0
  9
$DIMSD1
 70
     0
  9
$DIMSD2
 70
     0
  9
$DIMTOLJ
 70
     1
  9
$DIMTZIN
 70
     0
  9
$DIMALTZ
 70
     0
  9
$DIMALTTZ
 70
     0
  9
$DIMUPT
 70
     0
  9
$DIMDEC
 70
     4
  9
$DIMTDEC
 70
     4
  9
$DIMALTU
 70
     2
  9
$DIMALTTD
 70
     2
  9
$DIMTXSTY
  7
STANDARD
  9
$DIMAUNIT
 70
     0
  9
$DIMADEC
 70
     5
  9
$DIMALTRND
 40
0.0
  9
$DIMAZIN
 70
     0
  9
$DIMDSEP
 70
    46
  9
$DIMATFIT
 70
     3
  9
$DIMFRAC
 70
     0
  9
$DIMLDRBLK
  1

  9
$DIMLUNIT
 70
     2
  9
$DIMLWD
 70
    -2
  9
$DIMLWE
 70
    -2
  9
$DIMTMOVE
 70
     0
  9
$LUNITS
 70
     2
  9
$LUPREC
 70
     4
  9
$SKETCHINC
 40
0.1
  9
$FILLETRAD
 40
0.0
  9
$AUNITS
 70
     0
  9
$AUPREC
 70
     0
  9
$MENU
  1
acad
  9
$ELEVATION
 40
0.0
  9
$PELEVATION
 40
0.0
  9
$THICKNESS
 40
0.0
  9
$LIMCHECK
 70
     0
  9
$CHAMFERA
 40
0.0
  9
$CHAMFERB
 40
0.0
  9
$CHAMFERC
 40
0.0
  9
$CHAMFERD
 40
0.0
  9
$SKPOLY
 70
     0
  9
$TDCREATE
 40
2311946.475710706
  9
$TDUCREATE
 40
2311946.434044039
  9
$TDUPDATE
 40
2454141.495667917
  9
$TDUUPDATE
 40
2454141.454001250
  9
$TDINDWG
 40
1.3991173843
  9
$TDUSRTIMER
 40
1.3991172685
  9
$USRTIMER
 70
     1
  9
$ANGBASE
 50
0.0
  9
$ANGDIR
 70
     0
  9
$PDMODE
 70
     0
  9
$PDSIZE
 40
0.0
  9
$PLINEWID
 40
1.199999999999999
  9
$SPLFRAME
 70
     0
  9
$SPLINETYPE
 70
     6
  9
$SPLINESEGS
 70
     8
  9
$HANDSEED
  5
4680
  9
$SURFTAB1
 70
     6
  9
$SURFTAB2
 70
     6
  9
$SURFTYPE
 70
     6
  9
$SURFU
 70
     6
  9
$SURFV
 70
     6
  9
$UCSBASE
  2

  9
$UCSNAME
  2

  9
$UCSORG
 10
0.0
 20
0.0
 30
0.0
  9
$UCSXDIR
 10
1.0
 20
0.0
 30
0.0
  9
$UCSYDIR
 10
0.0
 20
1.0
 30
0.0
  9
$UCSORTHOREF
  2

  9
$UCSORTHOVIEW
 70
     1
  9
$UCSORGTOP
 10
0.0
 20
0.0
 30
0.0
  9
$UCSORGBOTTOM
 10
0.0
 20
0.0
 30
0.0
  9
$UCSORGLEFT
 10
0.0
 20
0.0
 30
0.0
  9
$UCSORGRIGHT
 10
0.0
 20
0.0
 30
0.0
  9
$UCSORGFRONT
 10
0.0
 20
0.0
 30
0.0
  9
$UCSORGBACK
 10
0.0
 20
0.0
 30
0.0
  9
$PUCSBASE
  2

  9
$PUCSNAME
  2

  9
$PUCSORG
 10
0.0
 20
0.0
 30
0.0
  9
$PUCSXDIR
 10
1.0
 20
0.0
 30
0.0
  9
$PUCSYDIR
 10
0.0
 20
1.0
 30
0.0
  9
$PUCSORTHOREF
  2

  9
$PUCSORTHOVIEW
 70
     0
  9
$PUCSORGTOP
 10
0.0
 20
0.0
 30
0.0
  9
$PUCSORGBOTTOM
 10
0.0
 20
0.0
 30
0.0
  9
$PUCSORGLEFT
 10
0.0
 20
0.0
 30
0.0
  9
$PUCSORGRIGHT
 10
0.0
 20
0.0
 30
0.0
  9
$PUCSORGFRONT
 10
0.0
 20
0.0
 30
0.0
  9
$PUCSORGBACK
 10
0.0
 20
0.0
 30
0.0
  9
$USERI1
 70
     0
  9
$USERI2
 70
     0
  9
$USERI3
 70
     0
  9
$USERI4
 70
     0
  9
$USERI5
 70
     0
  9
$USERR1
 40
0.0
  9
$USERR2
 40
0.0
  9
$USERR3
 40
0.0
  9
$USERR4
 40
0.0
  9
$USERR5
 40
0.0
  9
$WORLDVIEW
 70
     1
  9
$SHADEDGE
 70
     3
  9
$SHADEDIF
 70
    70
  9
$TILEMODE
 70
     1
  9
$MAXACTVP
 70
    16
  9
$PINSBASE
 10
0.0
 20
0.0
 30
0.0
  9
$PLIMCHECK
 70
     0
  9
$PEXTMIN
 10
114.7487361907958
 20
78.54526405334468
 30
0.0
  9
$PEXTMAX
 10
1032.738625717163
 20
706.9073764801025
 30
0.0
  9
$PLIMMIN
 10
-20.1082763671875
 20
-27.22033309936524
  9
$PLIMMAX
 10
1167.765014648437
 20
812.6729774475098
  9
$UNITMODE
 70
     0
  9
$VISRETAIN
 70
     0
  9
$PLINEGEN
 70
     1
  9
$PSLTSCALE
 70
     0
  9
$TREEDEPTH
 70
  3020
  9
$CMLSTYLE
  2
STANDARD
  9
$CMLJUST
 70
     0
  9
$CMLSCALE
 40
1.0
  9
$PROXYGRAPHICS
 70
     0
  9
$MEASUREMENT
 70
     1
  9
$CELWEIGHT
370
    -1
  9
$ENDCAPS
280
     0
  9
$JOINSTYLE
280
     0
  9
$LWDISPLAY
290
     0
  9
$INSUNITS
 70
     0
  9
$HYPERLINKBASE
  1

  9
$STYLESHEET
  1
monochrome.ctb
  9
$XEDIT
290
     1
  9
$CEPSNTYPE
380
     0
  9
$PSTYLEMODE
290
     1
  9
$FINGERPRINTGUID
  2
{44CFACF6-FF42-4479-A730-8E27374F1164}
  9
$VERSIONGUID
  2
{1087CA38-B573-4A85-A0D2-D78150D3BD97}
  9
$EXTNAMES
290
     1
  9
$PSVPSCALE
 40
0.0
  9
$OLESTARTUP
290
     0
  0
ENDSEC
  0
SECTION
  2
CLASSES
  0
CLASS
  1
IMAGE
  2
AcDbRasterImage
  3
ISM
 90
    34943
280
     0
281
     1
  0
CLASS
  1
DICTIONARYVAR
  2
AcDbDictionaryVar
  3
ObjectDBX Classes
 90
        0
280
     0
281
     0
  0
CLASS
  1
RASTERVARIABLES
  2
AcDbRasterVariables
  3
ISM
 90
    32768
280
     0
281
     0
  0
CLASS
  1
IMAGEDEF
  2
AcDbRasterImageDef
  3
ISM
 90
    32768
280
     0
281
     0
  0
CLASS
  1
IMAGEDEF_REACTOR
  2
AcDbRasterImageDefReactor
  3
ISM
 90
    32769
280
     0
281
     0
  0
CLASS
  1
IDBUFFER
  2
AcDbIdBuffer
  3
ObjectDBX Classes
 90
    32768
280
     0
281
     0
  0
CLASS
  1
SPATIAL_FILTER
  2
AcDbSpatialFilter
  3
ObjectDBX Classes
 90
    32768
280
     0
281
     0
  0
CLASS
  1
SORTENTSTABLE
  2
AcDbSortentsTable
  3
ObjectDBX Classes
 90
        0
280
     0
281
     0
  0
CLASS
  1
LAYER_INDEX
  2
AcDbLayerIndex
  3
ObjectDBX Classes
 90
    32768
280
     0
281
     0
  0
CLASS
  1
SPATIAL_INDEX
  2
AcDbSpatialIndex
  3
ObjectDBX Classes
 90
    32768
280
     0
281
     0
  0
CLASS
  1
OBJECT_PTR
  2
CAseDLPNTableRecord
  3
ASE-LPNTableRecord
 90
    32769
280
     0
281
     0
  0
CLASS
  1
LAYOUT
  2
AcDbLayout
  3
ObjectDBX Classes
 90
        0
280
     0
281
     0
  0
CLASS
  1
PLOTSETTINGS
  2
AcDbPlotSettings
  3
ObjectDBX Classes
 90
    32768
280
     0
281
     0
  0
CLASS
  1
ACDBDICTIONARYWDFLT
  2
AcDbDictionaryWithDefault
  3
ObjectDBX Classes
 90
        0
280
     0
281
     0
  0
CLASS
  1
ACDBPLACEHOLDER
  2
AcDbPlaceHolder
  3
ObjectDBX Classes
 90
        0
280
     0
281
     0
  0
CLASS
  1
VBA_PROJECT
  2
AcDbVbaProject
  3
acad
 90
    32768
280
     0
281
     0
  0
CLASS
  1
WIPEOUT
  2
AcDbWipeout
  3
"WipeOut|Product Desc: Object Enabler for WipeOut entity                        |Company: Autodesk, Inc.                        |WEB Address: www.autodesk.com"
 90
    34943
280
     0
281
     1
  0
CLASS
  1
WIPEOUTVARIABLES
  2
AcDbWipeoutVariables
  3
"WipeOut|Product Desc:     WipeOut Dbx Application|Company:          Autodesk, Inc.|WEB Address:      www.autodesk.com"
 90
    32768
280
     0
281
     0
  0
CLASS
  1
RTEXT
  2
RText
  3
RText|AutoCAD Express Tool|expresstools@autodesk.com
 90
    35839
280
     0
281
     1
  0
CLASS
  1
ARCALIGNEDTEXT
  2
AcDbArcAlignedText
  3
ATEXT|AutoCAD Express Tool|expresstools@autodesk.com
 90
    32768
280
     0
281
     1
  0
CLASS
  1
MATERIAL
  2
AcDbMaterial
  3
ObjectDBX Classes
 90
     1024
280
     0
281
     0
  0
CLASS
  1
VISUALSTYLE
  2
AcDbVisualStyle
  3
ObjectDBX Classes
 90
     4095
280
     0
281
     0
  0
CLASS
  1
TABLESTYLE
  2
AcDbTableStyle
  3
ObjectDBX Classes
 90
     4095
280
     0
281
     0
  0
CLASS
  1
DMMAPMANAGER
  2
AcMapDMMapManager
  3
AcMapDisplayManagement
 90
     1024
280
     0
281
     0
  0
CLASS
  1
DMSTYLELIBRARY
  2
AcMapDMStyleLibrary
  3
AcMapDisplayManagement
 90
     1024
280
     0
281
     0
  0
CLASS
  1
DMSTYLECATEGORY
  2
AcMapDMStyleCategory
  3
AcMapDisplayManagement
 90
     1024
280
     0
281
     0
  0
CLASS
  1
ACDBDATATABLE
  2
AcDbDataTable
  3
AcMapAnnotObj|Product Desc:     AutoCAD MAP DBX App for Annotation Entity|Company:          Autodesk,Inc.|WEB Address:      www.autodesk.com
 90
        0
280
     0
281
     0
  0
CLASS
  1
DMMAP
  2
AcMapDMMap
  3
AcMapDisplayManagement
 90
     1024
280
     0
281
     0
  0
CLASS
  1
DMBASEELEMENT
  2
AcMapDMBaseElement
  3
AcMapDisplayManagement
 90
     1024
280
     0
281
     0
  0
CLASS
  1
DMDEFAULTSTYLE
  2
AcMapDMDefaultStyle
  3
AcMapDisplayManagement
 90
     1024
280
     0
281
     0
  0
CLASS
  1
DMSTYLEREFERENCE
  2
AcMapDMStyleReference
  3
AcMapDisplayManagement
 90
     1024
280
     0
281
     0
  0
CLASS
  1
DMSURROGATESTYLESETS
  2
AcMapDMSurrogateStyleSets
  3
AcMapDisplayManagement
 90
     1153
280
     0
281
     0
  0
CLASS
  1
DMSTYLIZEDENTITIESTABLE
  2
AcMapDMStylizedEntitiesTable
  3
AcMapDisplayManagement
 90
     1024
280
     0
281
     0
  0
CLASS
  1
MAPGWSUNDOOBJECT
  2
AcMapGWSUndoRecorder
  3
AcMapFeatureSourceManager
 90
     1025
280
     0
281
     0
  0
ENDSEC
  0
SECTION
  2
TABLES
  0
TABLE
  2
VPORT
  5
157
330
0
100
AcDbSymbolTable
 70
     1
  0
VPORT
  5
16BF
330
157
100
AcDbSymbolTableRecord
100
AcDbViewportTableRecord
  2
*Active
 70
     0
 10
0.0
 20
0.0
 11
1.0
 21
1.0
 12
578.1499999999998
 22
208.782911464319
 13
0.0
 23
0.0
 14
1.0
 24
1.0
 15
0.0
 25
0.0
 16
0.0
 26
0.0
 36
1.0
 17
0.0
 27
0.0
 37
0.0
 40
747.7260212752311
 41
1.55400254129606
 42
50.0
 43
0.0
 44
0.0
 50
0.0
 51
0.0
 71
     0
 72
   100
 73
     1
 74
     1
 75
     0
 76
     0
 77
     0
 78
     0
281
     0
 65
     1
110
0.0
120
0.0
130
0.0
111
1.0
121
0.0
131
0.0
112
0.0
122
1.0
132
0.0
 79
     0
146
0.0
  0
ENDTAB
  0
TABLE
  2
LTYPE
  5
152
330
0
100
AcDbSymbolTable
 70
     1
  0
LTYPE
  5
153
330
152
100
AcDbSymbolTableRecord
100
AcDbLinetypeTableRecord
  2
BYBLOCK
 70
     0
  3

 72
    65
 73
     0
 40
0.0
  0
LTYPE
  5
154
330
152
100
AcDbSymbolTableRecord
100
AcDbLinetypeTableRecord
  2
BYLAYER
 70
     0
  3

 72
    65
 73
     0
 40
0.0
  0
LTYPE
  5
A
330
152
100
AcDbSymbolTableRecord
100
AcDbLinetypeTableRecord
  2
CONTINUOUS
 70
     0
  3
Solid line
 72
    65
 73
     0
 40
0.0
  0
ENDTAB
  0
TABLE
  2
LAYER
  5
14E
102
{ACAD_XDICTIONARY
360
18FA
102
}
330
0
100
AcDbSymbolTable
 70
     5
  0
LAYER
  5
6
330
14E
100
AcDbSymbolTableRecord
100
AcDbLayerTableRecord
  2
0
 70
     0
 62
     7
  6
CONTINUOUS
370
    -3
390
7
  0
LAYER
  5
C
330
14E
100
AcDbSymbolTableRecord
100
AcDbLayerTableRecord
  2
mechanical
 70
     0
 62
     6
  6
CONTINUOUS
370
    -3
390
7
  0
LAYER
  5
174
330
14E
100
AcDbSymbolTableRecord
100
AcDbLayerTableRecord
  2
copper
 70
     0
 62
     1
  6
CONTINUOUS
370
    -3
390
7
  0
LAYER
  5
41F
330
14E
100
AcDbSymbolTableRecord
100
AcDbLayerTableRecord
  2
Defpoints
 70
     0
 62
     7
  6
CONTINUOUS
290
     0
370
    -3
390
7
  0
LAYER
  5
794
330
14E
100
AcDbSymbolTableRecord
100
AcDbLayerTableRecord
  2
kapton
 70
     0
 62
     2
  6
CONTINUOUS
370
    -3
390
7
  0
ENDTAB
  0
TABLE
  2
STYLE
  5
14F
330
0
100
AcDbSymbolTable
 70
     1
  0
STYLE
  5
150
330
14F
100
AcDbSymbolTableRecord
100
AcDbTextStyleTableRecord
  2
STANDARD
 70
     0
 40
0.0
 41
1.0
 50
0.0
 71
     0
 42
0.2
  3
txt
  4

  0
ENDTAB
  0
TABLE
  2
VIEW
  5
155
330
0
100
AcDbSymbolTable
 70
     0
  0
ENDTAB
  0
TABLE
  2
UCS
  5
156
330
0
100
AcDbSymbolTable
 70
     0
  0
ENDTAB
  0
TABLE
  2
APPID
  5
159
330
0
100
AcDbSymbolTable
 70
     8
  0
APPID
  5
15A
330
159
100
AcDbSymbolTableRecord
100
AcDbRegAppTableRecord
  2
ACAD
 70
     0
  0
APPID
  5
189
330
159
100
AcDbSymbolTableRecord
100
AcDbRegAppTableRecord
  2
DCO15
 70
     0
  0
APPID
  5
16E2
330
159
100
AcDbSymbolTableRecord
100
AcDbRegAppTableRecord
  2
AcMapDMDisplayStyleRegapp
 70
     0
  0
APPID
  5
16E9
330
159
100
AcDbSymbolTableRecord
100
AcDbRegAppTableRecord
  2
ADE
 70
     0
  0
APPID
  5
16EC
330
159
100
AcDbSymbolTableRecord
100
AcDbRegAppTableRecord
  2
MapGWS
 70
     0
  0
APPID
  5
1738
330
159
100
AcDbSymbolTableRecord
100
AcDbRegAppTableRecord
  2
ACAD_PSEXT
 70
     0
  0
APPID
  5
18F8
330
159
100
AcDbSymbolTableRecord
100
AcDbRegAppTableRecord
  2
AcAecLayerStandard
 70
     0
  0
APPID
  5
3569
330
159
100
AcDbSymbolTableRecord
100
AcDbRegAppTableRecord
  2
ACAD_EXEMPT_FROM_CAD_STANDARDS
 70
     0
  0
ENDTAB
  0
TABLE
  2
DIMSTYLE
  5
15B
330
0
100
AcDbSymbolTable
 70
     1
100
AcDbDimStyleTable
 71
     1
340
15C
  0
DIMSTYLE
105
15C
330
15B
100
AcDbSymbolTableRecord
100
AcDbDimStyleTableRecord
  2
STANDARD
 70
     0
140
10.0
179
     5
340
150
  0
ENDTAB
  0
TABLE
  2
BLOCK_RECORD
  5
1
330
0
100
AcDbSymbolTable
 70
     1
  0
BLOCK_RECORD
  5
2
102
{ACAD_XDICTIONARY
360
3
102
}
330
1
100
AcDbSymbolTableRecord
100
AcDbBlockTableRecord
  2
*MODEL_SPACE
340
146
  0
BLOCK_RECORD
  5
148
102
{ACAD_XDICTIONARY
360
149
102
}
330
1
100
AcDbSymbolTableRecord
100
AcDbBlockTableRecord
  2
*PAPER_SPACE
340
14D
  0
ENDTAB
  0
ENDSEC
  0
SECTION
  2
BLOCKS
  0
BLOCK
  5
5
330
2
100
AcDbEntity
  8
0
100
AcDbBlockBegin
  2
*MODEL_SPACE
 70
     0
 10
0.0
 20
0.0
 30
0.0
  3
*MODEL_SPACE
  1

  0
ENDBLK
  5
145
330
2
100
AcDbEntity
  8
0
100
AcDbBlockEnd
  0
BLOCK
  5
14B
330
148
100
AcDbEntity
 67
     1
  8
0
100
AcDbBlockBegin
  2
*PAPER_SPACE
 70
     0
 10
0.0
 20
0.0
 30
0.0
  3
*PAPER_SPACE
  1

  0
ENDBLK
  5
14C
330
148
100
AcDbEntity
 67
     1
  8
0
100
AcDbBlockEnd
  0
ENDSEC
  0
SECTION
  2
ENTITIES
  0
LWPOLYLINE
  5
2736
330
2
100
AcDbEntity
  8
mechanical
  6
Continuous
100
AcDbPolyline
 90
        2
 70
   128
 43
0.25
 10
972.1921412540067
 20
10.00000000000045
 42
0.3846436892416937
 10
184.1078587459924
 20
10.00000000000045
  0
LWPOLYLINE
  5
2737
330
2
100
AcDbEntity
  8
mechanical
  6
Continuous
100
AcDbPolyline
 90
        2
 70
   128
 43
0.25
 10
1146.3
 20
184.1078587459928
 42
0.3933080422118196
 10
10.0
 20
184.1078587459928
  0
LWPOLYLINE
  5
2739
330
2
100
AcDbEntity
  8
mechanical
  6
Continuous
100
AcDbPolyline
 90
        2
 70
   128
 43
0.25
 10
10.0
 20
184.1078587459928
 10
184.1078587459924
 20
10.0
  0
LWPOLYLINE
  5
273A
330
2
100
AcDbEntity
  8
mechanical
  6
Continuous
100
AcDbPolyline
 90
        2
 70
   128
 43
0.25
 10
10.0
 20
184.1078587459928
 10
184.1078587459924
 20
10.0
  0
LWPOLYLINE
  5
273B
330
2
100
AcDbEntity
  8
mechanical
  6
Continuous
100
AcDbPolyline
 90
        2
 70
   128
 43
0.25
 10
10.0
 20
184.1078587459928
 10
184.1078587459924
 20
10.0
  0
LWPOLYLINE
  5
273C
330
2
100
AcDbEntity
  8
mechanical
  6
Continuous
100
AcDbPolyline
 90
        2
 70
   128
 43
0.25
 10
1146.3
 20
184.1078587459928
 10
972.1921412540067
 20
10.0
  0
LWPOLYLINE
  5
273D
330
2
100
AcDbEntity
  8
mechanical
  6
Continuous
100
AcDbPolyline
 90
        2
 70
   129
 43
0.25
 10
375.6499999999996
 20
209.0
 42
0.9999999999999998
 10
361.6499999999996
 20
209.0
 42
0.9999999999999998
  0
LWPOLYLINE
  5
273E
330
2
100
AcDbEntity
  8
mechanical
  6
Continuous
100
AcDbPolyline
 90
        2
 70
   129
 43
0.125
 10
1146.2375
 20
184.1078587459928
 42
1.0
 10
1146.362499999999
 20
184.1078587459928
 42
1.0
  0
LWPOLYLINE
  5
273F
330
2
100
AcDbEntity
  8
mechanical
  6
Continuous
100
AcDbPolyline
 90
        2
 70
   129
 43
0.125
 10
972.1296412540068
 20
10.0
 42
1.0
 10
972.2546412540069
 20
10.0
 42
1.0
  0
LWPOLYLINE
  5
2740
330
2
100
AcDbEntity
  8
mechanical
  6
Continuous
100
AcDbPolyline
 90
        2
 70
   129
 43
0.125
 10
184.0453587459924
 20
10.00000000000045
 42
1.0
 10
184.1703587459924
 20
10.00000000000045
 42
1.0
  0
LWPOLYLINE
  5
2741
330
2
100
AcDbEntity
  8
mechanical
  6
Continuous
100
AcDbPolyline
 90
        2
 70
   129
 43
0.125
 10
9.9375
 20
184.1078587459928
 42
1.0
 10
10.0625
 20
184.1078587459928
 42
1.0
  0
LWPOLYLINE
  5
2742
330
2
100
AcDbEntity
  8
mechanical
100
AcDbPolyline
 90
        3
 70
   128
 43
0.25
 10
12.82842712474576
 20
184.1078587459933
 10
17.29786983705708
 20
186.7094746531593
 10
14.6962539298911
 20
182.240031940848
  0
LWPOLYLINE
  5
2743
330
2
100
AcDbEntity
  8
mechanical
100
AcDbPolyline
 90
        2
 70
   128
 43
0.25
 10
14.29013165958986
 20
184.958701684186
 10
15.54709686808382
 20
183.7017364756921
  0
LWPOLYLINE
  5
2744
330
2
100
AcDbEntity
  8
mechanical
100
AcDbPolyline
 90
       17
 70
   128
 43
0.25
 10
20.51987153555183
 20
183.487472954665
 10
19.31912573224417
 20
184.6882187579722
 10
17.67365926104503
 20
183.309584687508
 10
17.96272769517418
 20
183.3318207209031
 10
18.49639249664415
 20
183.1539324537461
 10
18.85216903095806
 20
182.7981559194327
 10
19.0078212647204
 20
182.2867271513573
 10
18.94111316453654
 20
181.686354249704
 10
18.56310059682801
 20
181.0859813480501
 10
18.207324062515
 20
180.7302048137367
 10
17.58471512746655
 20
180.329956212634
 10
16.9621061924181
 20
180.2410120790555
 10
16.49514949113199
 20
180.441136379607
 10
16.13937295681899
 20
180.7969129139205
 10
15.91701262287279
 20
181.2861056486013
 10
15.98372072305665
 20
181.6196461495201
 10
16.20608105700284
 20
182.0643668174116
  0
LWPOLYLINE
  5
2745
330
2
100
AcDbEntity
  8
mechanical
  6
Continuous
100
AcDbPolyline
 90
        2
 70
   129
 43
0.25
 10
349.6499999999997
 20
293.0
 42
0.9999999999999998
 10
335.6499999999996
 20
293.0
 42
0.9999999999999998
  0
LWPOLYLINE
  5
2746
330
2
100
AcDbEntity
  8
mechanical
  6
Continuous
100
AcDbPolyline
 90
        2
 70
   129
 43
0.25
 10
780.6499999999996
 20
209.0
 42
-0.9999999999999998
 10
794.6499999999996
 20
209.0
 42
-0.9999999999999998
  0
LWPOLYLINE
  5
2747
330
2
100
AcDbEntity
  8
mechanical
  6
Continuous
100
AcDbPolyline
 90
        2
 70
   129
 43
0.25
 10
806.6499999999996
 20
293.0
 42
-0.9999999999999998
 10
820.6499999999996
 20
293.0
 42
-0.9999999999999998
  0
LWPOLYLINE
  5
27CD
330
2
100
AcDbEntity
  8
copper
  6
Continuous
100
AcDbPolyline
 90
        2
 70
   129
 43
2.25
 10
574.0249999999996
 20
402.8103881281931
 42
1.0
 10
576.2749999999996
 20
402.8103881281931
 42
1.0
  0
LWPOLYLINE
  5
27CE
330
2
100
AcDbEntity
  8
copper
  6
Continuous
100
AcDbPolyline
 90
        2
 70
   129
 43
2.25
 10
574.0249999999996
 20
400.3103881281931
 42
1.0
 10
576.2749999999996
 20
400.3103881281931
 42
1.0
  0
LWPOLYLINE
  5
27CF
330
2
100
AcDbEntity
  8
copper
  6
Continuous
100
AcDbPolyline
 90
        2
 70
   128
 43
4.5
 10
575.1499999999996
 20
402.8103881281931
 10
575.1499999999996
 20
400.3103881281931
  0
LWPOLYLINE
  5
27D0
330
2
100
AcDbEntity
  8
copper
  6
Continuous
100
AcDbPolyline
 90
        2
 70
   129
 43
2.25
 10
568.0249999999996
 20
402.7669084403369
 42
1.0
 10
570.2749999999996
 20
402.7669084403369
 42
1.0
  0
LWPOLYLINE
  5
27D1
330
2
100
AcDbEntity
  8
copper
  6
Continuous
100
AcDbPolyline
 90
        2
 70
   129
 43
2.25
 10
568.0249999999996
 20
400.2669084403369
 42
1.0
 10
570.2749999999996
 20
400.2669084403369
 42
1.0
  0
LWPOLYLINE
  5
27D2
330
2
100
AcDbEntity
  8
copper
  6
Continuous
100
AcDbPolyline
 90
        2
 70
   128
 43
4.5
 10
569.1499999999996
 20
402.7669084403369
 10
569.1499999999996
 20
400.2669084403369
  0
LWPOLYLINE
  5
27D3
330
2
100
AcDbEntity
  8
copper
  6
Continuous
100
AcDbPolyline
 90
        2
 70
   129
 43
2.25
 10
562.0249999999996
 20
402.6799422139228
 42
1.0
 10
564.2749999999996
 20
402.6799422139228
 42
1.0
  0
LWPOLYLINE
  5
27D4
330
2
100
AcDbEntity
  8
copper
  6
Continuous
100
AcDbPolyline
 90
        2
 70
   129
 43
2.25
 10
562.0249999999996
 20
399.6799422139229
 42
1.0
 10
564.2749999999996
 20
399.6799422139229
 42
1.0
  0
LWPOLYLINE
  5
27D5
330
2
100
AcDbEntity
  8
copper
  6
Continuous
100
AcDbPolyline
 90
        2
 70
   128
 43
4.5
 10
563.1499999999996
 20
402.6799422139228
 10
563.1499999999996
 20
399.6799422139229
  0
LWPOLYLINE
  5
27D6
330
2
100
AcDbEntity
  8
copper
  6
Continuous
100
AcDbPolyline
 90
        2
 70
   129
 43
2.25
 10
557.1499999999996
 20
403.6744757421506
 42
1.0
 10
557.1499999999996
 20
401.4244757421506
 42
1.0
  0
LWPOLYLINE
  5
27D7
330
2
100
AcDbEntity
  8
copper
  6
Continuous
100
AcDbPolyline
 90
        2
 70
   129
 43
2.25
 10
554.6499999999996
 20
403.6744757421506
 42
1.0
 10
554.6499999999996
 20
401.4244757421506
 42
1.0
  0
LWPOLYLINE
  5
27D8
330
2
100
AcDbEntity
  8
copper
  6
Continuous
100
AcDbPolyline
 90
        2
 70
   128
 43
4.5
 10
557.1499999999996
 20
402.5494757421506
 10
554.6499999999996
 20
402.5494757421506
  0
LWPOLYLINE
  5
27D9
330
2
100
AcDbEntity
  8
copper
  6
Continuous
100
AcDbPolyline
 90
        4
 70
   128
 10
571.7092123841939
 20
226.180040955559
 40
0.5
 41
0.5
 42
0.4113259762827774
 10
577.6499999999996
 20
232.1797487729082
 40
0.5
 41
0.5
 10
577.6499999999996
 20
394.2748542222603
 40
0.5
 41
0.5
 42
0.1989123673796574
 10
575.1499999999996
 20
400.3103881281931
 40
0.0
 41
0.0
  0
LWPOLYLINE
  5
2804
330
2
100
AcDbEntity
  8
copper
  6
Continuous
100
AcDbPolyline
 90
        4
 70
   128
 10
571.6993436534949
 20
227.1799922584505
 40
0.5
 41
0.5
 42
0.4113259762827774
 10
576.6499999999996
 20
232.1797487729082
 40
0.5
 41
0.5
 10
576.6499999999996
 20
388.494266611956
 40
0.5
 41
0.5
 42
0.2914734195860881
 10
569.1499999999996
 20
400.2669084403369
 40
0.0
 41
0.0
  0
LWPOLYLINE
  5
281B
330
2
100
AcDbEntity
  8
copper
100
AcDbPolyline
 90
        2
 70
   128
 43
0.5
 10
571.6993436534949
 20
227.1799922584505
 42
0.0373940479043851
 10
474.4153497368301
 20
218.9279039736739
 42
0.0373940479043851
  0
LWPOLYLINE
  5
281C
330
2
100
AcDbEntity
  8
copper
100
AcDbPolyline
 90
        2
 70
   128
 43
0.5
 10
571.7092123841939
 20
226.180040955559
 42
0.0373062883894825
 10
474.7999426179226
 20
217.9768462321836
 42
0.0373062883894825
  0
LWPOLYLINE
  5
285A
330
2
100
AcDbEntity
  8
copper
100
AcDbPolyline
 90
        2
 70
   128
 43
0.5
 10
577.0896891671136
 20
399.8229397360724
 42
0.1439278700963342
 10
577.2015865830167
 20
397.0050229453505
  0
LWPOLYLINE
  5
285B
330
2
100
AcDbEntity
  8
copper
100
AcDbPolyline
 90
        2
 70
   128
 43
0.5
 10
577.2238297128933
 20
396.9382281646472
 42
0.3360847324527215
 10
575.2368438113076
 20
398.3122744796647
  0
LWPOLYLINE
  5
285C
330
2
100
AcDbEntity
  8
copper
100
AcDbPolyline
 90
        2
 70
   128
 43
0.5
 10
571.1157847701356
 20
400.6352699984581
 42
0.1581394831193099
 10
572.5921853954246
 20
397.9257834881587
  0
LWPOLYLINE
  5
285D
330
2
100
AcDbEntity
  8
copper
100
AcDbPolyline
 90
        2
 70
   128
 43
0.5
 10
572.8812349185331
 20
397.6433901828818
 42
0.2863047326809761
 10
569.7906565488255
 20
398.3722952380063
  0
LWPOLYLINE
  5
285E
330
2
100
AcDbEntity
  8
copper
100
AcDbPolyline
 90
        2
 70
   128
 43
0.5
 10
570.3350389790139
 20
398.8763718273212
 10
571.464841806579
 20
398.8763718273212
  0
LWPOLYLINE
  5
285F
330
2
100
AcDbEntity
  8
copper
100
AcDbPolyline
 90
        2
 70
   128
 43
0.5
 10
571.2342735310885
 20
399.6484410573048
 10
571.2342735310885
 20
399.0492234818421
  0
LWPOLYLINE
  5
2860
330
2
100
AcDbEntity
  8
copper
100
AcDbPolyline
 90
        2
 70
   128
 43
0.5
 10
576.3183688478402
 20
398.1388818895093
 10
576.3183688478402
 20
398.6343839916253
  0
LWPOLYLINE
  5
2861
330
2
100
AcDbEntity
  8
copper
  6
Continuous
100
AcDbPolyline
 90
        2
 70
   128
 43
0.5
 10
469.8840658955551
 20
216.8142657005542
 42
0.0009581548465543
 10
467.4195413897236
 20
216.3946004051609
  0
LWPOLYLINE
  5
2862
330
2
100
AcDbEntity
  8
copper
  6
Continuous
100
AcDbPolyline
 90
        2
 70
   128
 43
0.5
 10
470.693067655573
 20
215.1249033780759
 42
0.0011529678845086
 10
467.7354341591176
 20
214.6225050295052
  0
LWPOLYLINE
  5
2863
330
2
100
AcDbEntity
  8
copper
100
AcDbPolyline
 90
        2
 70
   128
 43
1.199999999999999
 10
463.6765882499239
 20
215.7386264778861
 10
467.4195413897236
 20
216.3946004051609
  0
LWPOLYLINE
  5
2864
330
2
100
AcDbEntity
  8
copper
100
AcDbPolyline
 90
        2
 70
   128
 43
1.199999999999999
 10
463.9924757322178
 20
213.9665612706972
 10
467.735434159089
 20
214.6225050295002
  0
LWPOLYLINE
  5
2865
330
2
100
AcDbEntity
  8
copper
100
AcDbPolyline
 90
        2
 70
   129
 43
0.6
 10
463.4012618622464
 20
215.8577708450812
 42
1.0
 10
463.9519146376569
 20
215.619482110701
 42
1.0
  0
LWPOLYLINE
  5
2866
330
2
100
AcDbEntity
  8
copper
100
AcDbPolyline
 90
        2
 70
   129
 43
0.6
 10
463.7171493445261
 20
214.0857056378895
 42
1.0
 10
464.2678021199367
 20
213.8474169035089
 42
1.0
  0
LWPOLYLINE
  5
2867
330
2
100
AcDbEntity
  8
copper
100
AcDbPolyline
 90
        2
 70
   129
 43
0.6
 10
467.4601077713837
 20
214.7416493966912
 42
1.0
 10
468.0107605467942
 20
214.5033606623106
 42
1.0
  0
LWPOLYLINE
  5
2868
330
2
100
AcDbEntity
  8
copper
100
AcDbPolyline
 90
        2
 70
   129
 43
0.6
 10
467.1442150020184
 20
216.5137447723519
 42
1.0
 10
467.6948677774289
 20
216.2754560379712
 42
1.0
  0
LWPOLYLINE
  5
2869
330
2
100
AcDbEntity
  8
copper
100
AcDbPolyline
 90
        2
 70
   128
 43
0.5
 10
469.8840658955551
 20
216.8142657005542
 10
474.4153497368347
 20
218.9279039736762
  0
LWPOLYLINE
  5
286A
330
2
100
AcDbEntity
  8
copper
100
AcDbPolyline
 90
        2
 70
   128
 43
0.5
 10
474.7999426179258
 20
217.9768462321858
 10
470.693067655573
 20
215.1249033780759
  0
LWPOLYLINE
  5
286B
330
2
100
AcDbEntity
  8
copper
100
AcDbPolyline
 90
        2
 70
   129
 43
0.25
 10
470.5783483273626
 20
215.1745468644058
 42
1.0
 10
470.8077869837834
 20
215.0752598917466
 42
1.0
  0
LWPOLYLINE
  5
286C
330
2
100
AcDbEntity
  8
copper
100
AcDbPolyline
 90
        2
 70
   129
 43
0.25
 10
474.6852232897153
 20
218.0264897185152
 42
1.0
 10
474.9146619461362
 20
217.927202745856
 42
1.0
  0
LWPOLYLINE
  5
286D
330
2
100
AcDbEntity
  8
copper
100
AcDbPolyline
 90
        2
 70
   129
 43
0.25
 10
474.3006304086239
 20
218.9775474600051
 42
1.0
 10
474.5300690650451
 20
218.8782604873463
 42
1.0
  0
LWPOLYLINE
  5
286E
330
2
100
AcDbEntity
  8
copper
100
AcDbPolyline
 90
        2
 70
   129
 43
0.25
 10
469.7693465673446
 20
216.863909186884
 42
1.0
 10
469.9987852237654
 20
216.7646222142248
 42
1.0
  0
LWPOLYLINE
  5
28F9
330
2
100
AcDbEntity
  8
copper
  6
Continuous
100
AcDbPolyline
 90
        2
 70
   129
 43
2.25
 10
582.2749999999996
 20
402.8103881281931
 42
-1.0
 10
580.0249999999996
 20
402.8103881281931
 42
-1.0
  0
LWPOLYLINE
  5
28FA
330
2
100
AcDbEntity
  8
copper
  6
Continuous
100
AcDbPolyline
 90
        2
 70
   129
 43
2.25
 10
582.2749999999996
 20
400.3103881281931
 42
-1.0
 10
580.0249999999996
 20
400.3103881281931
 42
-1.0
  0
LWPOLYLINE
  5
28FB
330
2
100
AcDbEntity
  8
copper
  6
Continuous
100
AcDbPolyline
 90
        2
 70
   128
 43
4.5
 10
581.1499999999996
 20
402.8103881281931
 10
581.1499999999996
 20
400.3103881281931
  0
LWPOLYLINE
  5
28FC
330
2
100
AcDbEntity
  8
copper
  6
Continuous
100
AcDbPolyline
 90
        2
 70
   129
 43
2.25
 10
588.2749999999996
 20
402.7669084403369
 42
-1.0
 10
586.0249999999996
 20
402.7669084403369
 42
-1.0
  0
LWPOLYLINE
  5
28FD
330
2
100
AcDbEntity
  8
copper
  6
Continuous
100
AcDbPolyline
 90
        2
 70
   129
 43
2.25
 10
588.2749999999996
 20
400.2669084403369
 42
-1.0
 10
586.0249999999996
 20
400.2669084403369
 42
-1.0
  0
LWPOLYLINE
  5
28FE
330
2
100
AcDbEntity
  8
copper
  6
Continuous
100
AcDbPolyline
 90
        2
 70
   128
 43
4.5
 10
587.1499999999996
 20
402.7669084403369
 10
587.1499999999996
 20
400.2669084403369
  0
LWPOLYLINE
  5
28FF
330
2
100
AcDbEntity
  8
copper
  6
Continuous
100
AcDbPolyline
 90
        2
 70
   129
 43
2.25
 10
594.2749999999996
 20
402.6799422139228
 42
-1.0
 10
592.0249999999996
 20
402.6799422139228
 42
-1.0
  0
LWPOLYLINE
  5
2900
330
2
100
AcDbEntity
  8
copper
  6
Continuous
100
AcDbPolyline
 90
        2
 70
   129
 43
2.25
 10
594.2749999999996
 20
399.6799422139229
 42
-1.0
 10
592.0249999999996
 20
399.6799422139229
 42
-1.0
  0
LWPOLYLINE
  5
2901
330
2
100
AcDbEntity
  8
copper
  6
Continuous
100
AcDbPolyline
 90
        2
 70
   128
 43
4.5
 10
593.1499999999996
 20
402.6799422139228
 10
593.1499999999996
 20
399.6799422139229
  0
LWPOLYLINE
  5
2902
330
2
100
AcDbEntity
  8
copper
  6
Continuous
100
AcDbPolyline
 90
        2
 70
   129
 43
2.25
 10
599.1499999999996
 20
403.6744757421506
 42
-1.0
 10
599.1499999999996
 20
401.4244757421506
 42
-1.0
  0
LWPOLYLINE
  5
2903
330
2
100
AcDbEntity
  8
copper
  6
Continuous
100
AcDbPolyline
 90
        2
 70
   129
 43
2.25
 10
601.6499999999996
 20
403.6744757421506
 42
-1.0
 10
601.6499999999996
 20
401.4244757421506
 42
-1.0
  0
LWPOLYLINE
  5
2904
330
2
100
AcDbEntity
  8
copper
  6
Continuous
100
AcDbPolyline
 90
        2
 70
   128
 43
4.5
 10
599.1499999999996
 20
402.5494757421506
 10
601.6499999999996
 20
402.5494757421506
  0
LWPOLYLINE
  5
2905
330
2
100
AcDbEntity
  8
copper
  6
Continuous
100
AcDbPolyline
 90
        4
 70
   128
 10
584.5907876158053
 20
226.180040955559
 40
0.5
 41
0.5
 42
-0.4113259762827774
 10
578.6499999999996
 20
232.1797487729082
 40
0.5
 41
0.5
 10
578.6499999999996
 20
394.2748542222603
 40
0.5
 41
0.5
 42
-0.1989123673796574
 10
581.1499999999996
 20
400.3103881281931
 40
0.0
 41
0.0
  0
LWPOLYLINE
  5
2930
330
2
100
AcDbEntity
  8
copper
  6
Continuous
100
AcDbPolyline
 90
        4
 70
   128
 10
584.6006563465043
 20
227.1799922584505
 40
0.5
 41
0.5
 42
-0.4113259762827774
 10
579.6499999999996
 20
232.1797487729082
 40
0.5
 41
0.5
 10
579.6499999999996
 20
388.494266611956
 40
0.5
 41
0.5
 42
-0.2914734195860881
 10
587.1499999999996
 20
400.2669084403369
 40
0.0
 41
0.0
  0
LWPOLYLINE
  5
2947
330
2
100
AcDbEntity
  8
copper
100
AcDbPolyline
 90
        2
 70
   128
 43
0.5
 10
584.6006563465043
 20
227.1799922584505
 42
-0.0373940479043851
 10
681.884650263169
 20
218.9279039736739
 42
-0.0373940479043851
  0
LWPOLYLINE
  5
2948
330
2
100
AcDbEntity
  8
copper
100
AcDbPolyline
 90
        2
 70
   128
 43
0.5
 10
584.5907876158053
 20
226.180040955559
 42
-0.0373062883894825
 10
681.5000573820766
 20
217.9768462321836
 42
-0.0373062883894825
  0
LWPOLYLINE
  5
2985
330
2
100
AcDbEntity
  8
copper
100
AcDbPolyline
 90
        2
 70
   128
 43
0.5
 10
579.2103108328856
 20
399.8229397360724
 42
-0.1439278700963342
 10
579.098413416983
 20
397.0050229453505
  0
LWPOLYLINE
  5
2986
330
2
100
AcDbEntity
  8
copper
100
AcDbPolyline
 90
        2
 70
   128
 43
0.5
 10
579.0761702871058
 20
396.9382281646472
 42
-0.3360847324527215
 10
581.0631561886911
 20
398.3122744796647
  0
LWPOLYLINE
  5
2987
330
2
100
AcDbEntity
  8
copper
100
AcDbPolyline
 90
        2
 70
   128
 43
0.5
 10
585.1842152298636
 20
400.6352699984581
 42
-0.1581394831193099
 10
583.7078146045747
 20
397.9257834881587
  0
LWPOLYLINE
  5
2988
330
2
100
AcDbEntity
  8
copper
100
AcDbPolyline
 90
        2
 70
   128
 43
0.5
 10
583.418765081466
 20
397.6433901828818
 42
-0.2863047326809761
 10
586.5093434511736
 20
398.3722952380063
  0
LWPOLYLINE
  5
2989
330
2
100
AcDbEntity
  8
copper
100
AcDbPolyline
 90
        2
 70
   128
 43
0.5
 10
585.9649610209853
 20
398.8763718273212
 10
584.8351581934203
 20
398.8763718273212
  0
LWPOLYLINE
  5
298A
330
2
100
AcDbEntity
  8
copper
100
AcDbPolyline
 90
        2
 70
   128
 43
0.5
 10
585.0657264689107
 20
399.6484410573048
 10
585.0657264689107
 20
399.0492234818421
  0
LWPOLYLINE
  5
298B
330
2
100
AcDbEntity
  8
copper
100
AcDbPolyline
 90
        2
 70
   128
 43
0.5
 10
579.981631152159
 20
398.1388818895093
 10
579.981631152159
 20
398.6343839916253
  0
LWPOLYLINE
  5
298C
330
2
100
AcDbEntity
  8
copper
  6
Continuous
100
AcDbPolyline
 90
        2
 70
   128
 43
0.5
 10
686.4159341044442
 20
216.8142657005542
 42
-0.0009581548465543
 10
688.8804586102756
 20
216.3946004051609
  0
LWPOLYLINE
  5
298D
330
2
100
AcDbEntity
  8
copper
  6
Continuous
100
AcDbPolyline
 90
        2
 70
   128
 43
0.5
 10
685.6069323444262
 20
215.1249033780759
 42
-0.0011529678845086
 10
688.5645658408816
 20
214.6225050295052
  0
LWPOLYLINE
  5
298E
330
2
100
AcDbEntity
  8
copper
100
AcDbPolyline
 90
        2
 70
   128
 43
1.199999999999999
 10
692.6234117500753
 20
215.7386264778861
 10
688.8804586102756
 20
216.3946004051609
  0
LWPOLYLINE
  5
298F
330
2
100
AcDbEntity
  8
copper
100
AcDbPolyline
 90
        2
 70
   128
 43
1.199999999999999
 10
692.3075242677814
 20
213.9665612706972
 10
688.5645658409103
 20
214.6225050295002
  0
LWPOLYLINE
  5
2990
330
2
100
AcDbEntity
  8
copper
100
AcDbPolyline
 90
        2
 70
   129
 43
0.6
 10
692.8987381377528
 20
215.8577708450812
 42
-1.0
 10
692.3480853623423
 20
215.619482110701
 42
-1.0
  0
LWPOLYLINE
  5
2991
330
2
100
AcDbEntity
  8
copper
100
AcDbPolyline
 90
        2
 70
   129
 43
0.6
 10
692.582850655473
 20
214.0857056378895
 42
-1.0
 10
692.032197880063
 20
213.8474169035089
 42
-1.0
  0
LWPOLYLINE
  5
2992
330
2
100
AcDbEntity
  8
copper
100
AcDbPolyline
 90
        2
 70
   129
 43
0.6
 10
688.8398922286155
 20
214.7416493966912
 42
-1.0
 10
688.2892394532055
 20
214.5033606623106
 42
-1.0
  0
LWPOLYLINE
  5
2993
330
2
100
AcDbEntity
  8
copper
100
AcDbPolyline
 90
        2
 70
   129
 43
0.6
 10
689.1557849979808
 20
216.5137447723519
 42
-1.0
 10
688.6051322225703
 20
216.2754560379712
 42
-1.0
  0
LWPOLYLINE
  5
2994
330
2
100
AcDbEntity
  8
copper
100
AcDbPolyline
 90
        2
 70
   128
 43
0.5
 10
686.4159341044442
 20
216.8142657005542
 10
681.8846502631645
 20
218.9279039736762
  0
LWPOLYLINE
  5
2995
330
2
100
AcDbEntity
  8
copper
100
AcDbPolyline
 90
        2
 70
   128
 43
0.5
 10
681.5000573820734
 20
217.9768462321858
 10
685.6069323444262
 20
215.1249033780759
  0
LWPOLYLINE
  5
2996
330
2
100
AcDbEntity
  8
copper
100
AcDbPolyline
 90
        2
 70
   129
 43
0.25
 10
685.7216516726366
 20
215.1745468644058
 42
-1.0
 10
685.4922130162158
 20
215.0752598917466
 42
-1.0
  0
LWPOLYLINE
  5
2997
330
2
100
AcDbEntity
  8
copper
100
AcDbPolyline
 90
        2
 70
   129
 43
0.25
 10
681.6147767102838
 20
218.0264897185152
 42
-1.0
 10
681.385338053863
 20
217.927202745856
 42
-1.0
  0
LWPOLYLINE
  5
2998
330
2
100
AcDbEntity
  8
copper
100
AcDbPolyline
 90
        2
 70
   129
 43
0.25
 10
681.9993695913754
 20
218.9775474600051
 42
-1.0
 10
681.7699309349546
 20
218.8782604873463
 42
-1.0
  0
LWPOLYLINE
  5
2999
330
2
100
AcDbEntity
  8
copper
100
AcDbPolyline
 90
        2
 70
   129
 43
0.25
 10
686.5306534326546
 20
216.863909186884
 42
-1.0
 10
686.3012147762337
 20
216.7646222142248
 42
-1.0
  0
LWPOLYLINE
  5
3833
330
2
100
AcDbEntity
  8
copper
  6
Continuous
100
AcDbPolyline
 90
      274
 70
   128
 43
1.78
 10
593.1409140688079
 20
398.3816052699967
 42
-0.0025418837664526
 10
601.5263200423888
 20
398.1865539106347
 42
0.084120828272922
 10
602.9704727649664
 20
398.38933928804
 42
-0.0850164725982762
 10
604.4754008768609
 20
398.5979299236797
 42
-0.1779961507598451
 10
1132.607063611145
 20
185.079002603215
 42
-1.0
 10
1130.241332135495
 20
182.4698267591761
 42
0.1831521896420681
 10
587.9509964403223
 20
395.4373855032191
 42
1.0
 10
587.8250035596774
 20
384.8721367227099
 42
-0.1829321740648792
 10
1122.632104208968
 20
175.1061613035299
 42
-1.0
 10
1120.26859538799
 20
172.494971909181
 42
0.1828780898565997
 10
587.9521022703625
 20
381.348352917425
 42
1.0
 10
587.8238977296373
 20
370.7831307429637
 42
-0.1826502942275
 10
1112.656674132542
 20
165.1329243497462
 42
-1.0
 10
1110.295468594818
 20
162.5196519933665
 42
0.1825942827798992
 10
587.9532476172244
 20
367.2592831840193
 42
1.0
 10
587.8227523827763
 20
356.6940890545293
 42
-0.1823582867775101
 10
1102.680747812214
 20
155.1592702297266
 42
-1.0
 10
1100.321930652356
 20
152.5438418505955
 42
0.1823002431971128
 10
587.9544346376405
 20
353.1701742616974
 42
1.0
 10
587.8215653623592
 20
342.6050097217726
 42
-0.1820555956502689
 10
1092.704297790883
 20
145.1851758418629
 42
-1.0
 10
1090.347958905408
 20
142.5675144701813
 42
0.0992091469449852
 10
831.5587325287392
 20
295.9879214016714
 42
1.0
 10
828.0613532050137
 20
286.0175305434368
 42
-0.0989610765475567
 10
1082.727294546472
 20
135.2106163454086
 42
-1.0
 10
1080.373529001827
 20
132.5906408186433
 42
0.1001715779817542
 10
823.4928162748897
 20
283.8785164674123
 42
1.0
 10
820.0432797584216
 20
273.8914721688447
 42
-0.0999139889989555
 10
1072.749706293932
 20
125.2355649935439
 42
-1.0
 10
1070.398614730468
 20
122.6131896466081
 42
0.1028083506606694
 10
810.8904284267961
 20
273.275478842942
 42
-0.4128186527774905
 10
809.7726233174308
 20
275.4943075861234
 10
810.3779356005247
 20
277.3434895150394
 42
0.3517056221783432
 10
808.0477136350987
 20
283.5335123997524
 42
-0.4070135839703536
 10
804.0483344173617
 20
298.3673101307068
 42
0.4784976775869193
 10
800.9745546904387
 20
305.9993638803144
 42
0.0707476413686903
 10
587.9556656482027
 20
339.0810239568077
 42
1.0
 10
587.8203343517975
 20
328.5158906665833
 42
-0.0683680017908346
 10
791.0471371716517
 20
297.9399866921717
 42
-1.0
 10
790.0540089602873
 20
294.5609068831423
 42
0.0683072614227327
 10
587.9569431404411
 20
324.9918299088622
 42
1.0
 10
587.8190568595577
 20
314.4267296550288
 42
-0.0709176593982366
 10
794.4499001826311
 20
282.2143443812597
 42
-1.0
 10
793.4217134206378
 20
278.8457666424415
 42
0.0708545589242384
 10
587.9582697976702
 20
310.9025895743676
 42
1.0
 10
587.8177302023305
 20
300.3375242824659
 42
-0.1810772131062404
 10
1062.771498764036
 20
115.2599929468338
 42
-1.0
 10
1060.423187840186
 20
112.6351272731413
 42
0.1810098255225443
 10
587.9596485137827
 20
296.8133002087447
 42
1.0
 10
587.8163514862172
 20
286.2482719569184
 42
-0.1807253348661957
 10
1052.792634955669
 20
105.2838690643143
 42
-1.0
 10
1050.447217837258
 20
102.6564173443657
 42
0.1806552584468526
 10
587.9610824143433
 20
282.723958846052
 42
1.0
 10
587.8149175856565
 20
272.1589698804705
 42
-0.1803592841243156
 10
1042.813074857859
 20
95.30715966902063
 42
-1.0
 10
1040.47067175814
 20
92.67702056273174
 42
0.1802863546390056
 10
587.9625748802282
 20
268.6345622762092
 42
1.0
 10
587.8134251197716
 20
258.069615028402
 42
-0.0692245785806358
 10
774.2812319011477
 20
229.4403254494637
 42
-1.0
 10
773.2721719355695
 20
226.0659689203062
 42
0.0691506482781377
 10
587.9641295742467
 20
254.5451070193526
 42
1.0
 10
587.8118704257531
 20
243.980204125728
 42
-0.0673995626973952
 10
765.7618087001138
 20
217.2665324919208
 42
-1.0
 10
764.7762985458939
 20
213.8852230213256
 42
0.0673225030509408
 10
587.965750471149
 20
240.4555892968806
 42
1.0
 10
587.8102495288499
 20
229.8907336207753
 42
-0.0706060508524527
 10
770.0415001796518
 20
201.2865896512344
 42
0.5566183672635674
 10
776.7979038136477
 20
207.2022212699649
 42
-0.5012592784050498
 10
789.0066962403757
 20
219.9160146258309
 42
0.2688435467055692
 10
793.8833756711074
 20
221.9871397897082
 42
-0.323228455175099
 10
795.8517589736629
 20
222.5995411003328
 42
-0.1010347894385233
 10
1032.832775137131
 20
85.32982828423063
 42
-1.0
 10
1030.493513914012
 20
82.69689438266505
 42
0.0967631088119148
 10
805.6261165795303
 20
215.5032956515642
 42
1.0
 10
802.0969885452023
 20
205.5440983286207
 42
-0.0964491238067331
 10
1022.851688785038
 20
75.35183533605368
 42
-1.0
 10
1020.515705602889
 20
72.71599266762541
 42
0.0965197726984102
 10
800.7445862779263
 20
202.2867145838782
 42
1.0
 10
797.2182468483743
 20
192.3265295340111
 42
-0.096192264077594
 10
1012.869764719812
 20
65.37313781725652
 42
-1.0
 10
1010.537204784432
 20
62.73426530274036
 42
0.099075144362514
 10
788.998788214124
 20
191.4551725573851
 42
-0.3348795846407284
 10
787.8087672806064
 20
193.2109115913649
 42
0.762528756837166
 10
778.1319076944569
 20
196.4013318684765
 42
-0.3348795846406493
 10
776.1310170633856
 20
195.6976230791756
 42
0.0212344480748107
 10
722.6464257352581
 20
210.2488231931034
 42
1.0
 10
720.307920549998
 20
199.9448555350154
 42
-0.1254861869619379
 10
1002.88694733499
 20
55.39368890626565
 42
-1.0
 10
1000.557965711666
 20
52.75165775614232
 42
0.1322150213987736
 10
702.987920534244
 20
200.0345351503156
 42
-0.4138110066419304
 10
701.6045574443087
 20
202.1033567762452
 10
701.7760438672021
 20
202.5697832727328
 42
1.00412870152109
 10
691.405514275169
 20
204.5923007110978
 10
691.3077301723001
 20
204.0384926862071
 42
-0.9986263370616629
 10
687.8394289752963
 20
204.6511486810864
 10
688.0027517266407
 20
205.1241563533308
 42
1.00412870152883
 10
677.5904999837512
 20
206.9195600545677
 10
677.5027715298351
 20
206.3608023637967
 42
-0.9986263371617958
 10
674.0219100263762
 20
206.8975180752627
 10
674.6415090082846
 20
210.9160472624444
 42
1.004106238049805
 10
664.1820313104008
 20
212.411977614986
 10
663.6503594597302
 20
208.3808729563539
 42
-0.9986263371957109
 10
660.1586001982864
 20
208.8413920344838
 10
660.6902329177587
 20
212.8725018542718
 42
1.004106238019659
 10
650.2005619988763
 20
214.1395004121896
 10
649.7571102285656
 20
210.0977396254971
 42
-0.998626337089804
 10
646.2561209628589
 20
210.4818421152117
 10
646.6995334984867
 20
214.5236072063135
 42
1.004106238047513
 10
636.1846794940007
 20
215.5610688183883
 10
635.829659608054
 20
211.5105823527951
 42
-0.998626337150976
 10
632.3211125001667
 20
211.8180847965814
 10
632.6760930667514
 20
215.868574708335
 42
1.004106238068349
 10
622.1410781401855
 20
216.6760038564321
 10
621.8746597051717
 20
212.6187263278616
 42
-0.9986263371811983
 10
618.3602305270341
 20
212.8494818544614
 10
618.6266095768051
 20
216.9067619696948
 42
1.004106238025133
 10
608.0764655210405
 20
217.4837730049671
 10
607.8987757852033
 20
213.4216422726945
 42
-0.998626337092457
 10
604.3801431182355
 20
213.5755406682238
 10
604.5577934216794
 20
217.6376731252067
 42
1.004106238055529
 10
593.9975592556615
 20
217.9839904523101
 10
593.9087026721053
 20
213.9189462123527
 42
-0.9986263370784126
 10
590.3875471076816
 20
213.9959140778974
 10
590.476403649412
 20
218.0609583191654
 42
1.004106238030248
 10
579.9111232184486
 20
218.1764171746372
 10
579.9111275784643
 20
207.0663749715377
 42
0.4129928167094312
 10
585.1352576546592
 20
201.7469867464483
 42
-0.1793803282906192
 10
992.9031759866239
 20
45.41343753425326
 42
-1.0
 10
990.5779385127688
 20
42.76811058089151
 42
0.179315067076613
 10
585.2540783836357
 20
198.223427760533
 42
1.0
 10
585.1339216163633
 20
187.6581109952258
 42
-0.1789327911608688
 10
982.918384409049
 20
35.43232789180275
 42
-1.0
 10
980.5970687148843
 20
32.78355884788289
 42
0.1788645026937798
 10
585.2554766101629
 20
184.1344794302176
 42
1.0
 10
585.1325233898369
 20
173.5691948384219
 42
-0.1784642473462475
 10
972.9325000473385
 20
25.45029886510292
 42
-1.0
 10
970.6152967003067
 20
22.79793149829584
 42
0.3752940519039472
 10
185.6847032996929
 20
22.79793149829538
 42
-1.0
 10
183.3674999526602
 20
25.45029886510247
 42
-0.1784642473462477
 10
571.1674766101618
 20
173.5691948384228
 42
1.0
 10
571.0445233898371
 20
184.1344794302167
 42
0.1788645026937799
 10
175.702931285115
 20
32.78355884788334
 42
-1.0
 10
173.3816155909503
 20
35.43232789180275
 42
-0.1789327911608689
 10
571.1660783836359
 20
187.6581109952258
 42
1.0
 10
571.0459216163635
 20
198.2234277605335
 42
0.1793150670766133
 10
165.7220614872299
 20
42.76811058089196
 42
-1.0
 10
163.3968240133758
 20
45.41343753425326
 42
-0.179380328290619
 10
571.16474234534
 20
201.7469867464483
 42
0.4129928167094561
 10
576.3888724215348
 20
207.0663749715381
 10
576.3888767815505
 20
218.1764171746372
 42
1.004106238030248
 10
565.8235963505871
 20
218.0609583191654
 10
565.9124528923175
 20
213.9959140778978
 42
-0.9986263370650961
 10
562.3912973278984
 20
213.9189462121481
 10
562.3024407443359
 20
217.9839904523769
 42
1.004106238030326
 10
551.742206578318
 20
217.6376731252403
 10
551.9198568817778
 20
213.5755406678918
 42
-0.9986263369904513
 10
548.4012242148137
 20
213.4216422722907
 10
548.2235344789587
 20
217.4837730049671
 42
1.004106238025133
 10
537.6733904231941
 20
216.9067619696948
 10
537.9397694729864
 20
212.8494818541308
 42
-0.9986263370358622
 10
534.4253402948402
 20
212.6187263276734
 10
534.1589218598087
 20
216.6760038564985
 42
1.004106238050273
 10
523.6239069332387
 20
215.8685747084446
 10
523.9788874998326
 20
211.8180847965814
 42
-0.9986263370146913
 10
520.4703403919747
 20
211.5105823524654
 10
520.1153205059986
 20
215.5610688183883
 42
1.004106238047513
 10
509.6004665015125
 20
214.5236072063135
 10
510.0438790371404
 20
210.4818421152117
 42
-0.998626337089804
 10
506.5428897714337
 20
210.0977396254971
 10
506.0994380011216
 20
214.139500412205
 42
1.004106238012329
 10
495.6097670822428
 20
212.8725018542545
 10
496.1413998017128
 20
208.8413920344838
 42
-0.9986263371957109
 10
492.649640540269
 20
208.3808729563539
 10
492.1179686895966
 20
212.4119776149996
 42
1.004106238058539
 10
481.6584909917209
 20
210.916047262403
 10
482.2780899736231
 20
206.8975180752627
 42
-0.9986263371617958
 10
478.797228470164
 20
206.3608023637967
 10
478.7095000162412
 20
206.9195600546081
 42
1.004128701508184
 10
468.2972482733576
 20
205.1241563533317
 10
468.4605710247028
 20
204.6511486810864
 42
-0.9986263370989593
 10
464.9922698276404
 20
204.0384926865386
 10
464.8944857248302
 20
204.5923007110978
 42
1.00412870152109
 10
454.5239561327971
 20
202.5697832727328
 10
454.6954425556905
 20
202.1033567762447
 42
-0.4138110066419261
 10
453.3120794657552
 20
200.0345351503152
 42
0.1322150213987736
 10
155.7420342883329
 20
52.75165775614278
 42
-1.0
 10
153.4130526650092
 20
55.39368890626565
 42
-0.1254861869619379
 10
435.9920794500007
 20
199.9448555350159
 42
1.0
 10
433.6535742647411
 20
210.2488231931034
 42
0.0212344480748107
 10
380.1689829366137
 20
195.6976230791756
 42
-0.3348795846406519
 10
378.1680923055424
 20
196.4013318684765
 42
0.7625287568371684
 10
368.4912327193929
 20
193.2109115913649
 42
-0.3348795846407302
 10
367.3012117858752
 20
191.4551725573851
 42
0.099075144362514
 10
145.7627952155662
 20
62.73426530274083
 42
-1.0
 10
143.4302352801869
 20
65.37313781725607
 42
-0.096192264077594
 10
359.081753151625
 20
192.3265295340115
 42
1.0
 10
355.5554137220729
 20
202.2867145838782
 42
0.0965197726984102
 10
135.7842943971104
 20
72.71599266762541
 42
-1.0
 10
133.4483112149605
 20
75.35183533605368
 42
-0.0964491238067332
 10
354.203011454797
 20
205.5440983286207
 42
1.0
 10
350.6738834204689
 20
215.5032956515642
 42
0.0967631088119148
 10
125.8064860859872
 20
82.69689438266505
 42
-1.0
 10
123.467224862868
 20
85.32982828423063
 42
-0.1010347894385237
 10
360.4482410263368
 20
222.5995411003332
 42
-0.3232284551750631
 10
362.4166243288923
 20
221.9871397897091
 42
0.2688435467055823
 10
367.293303759624
 20
219.9160146258314
 42
-0.5012592784050487
 10
379.5020961863516
 20
207.2022212699649
 42
0.556618367263641
 10
386.2584998203479
 20
201.286589651234
 42
-0.0706060508524527
 10
568.4897504711498
 20
229.8907336207753
 42
1.0
 10
568.3342495288493
 20
240.4555892968811
 42
0.0673225030509407
 10
391.5237014541049
 20
213.8852230213265
 42
-1.0
 10
390.5381912998855
 20
217.2665324919203
 42
-0.0673995626973956
 10
568.4881295742465
 20
243.9802041257285
 42
1.0
 10
568.3358704257525
 20
254.5451070193526
 42
0.0691506482781376
 10
383.0278280644297
 20
226.0659689203058
 42
-1.0
 10
382.0187680988515
 20
229.4403254494637
 42
-0.0692245785806359
 10
568.486574880228
 20
258.069615028402
 42
1.0
 10
568.337425119772
 20
268.6345622762092
 42
0.1802863546390061
 10
115.8293282418581
 20
92.67702056273174
 42
-1.0
 10
113.4869251421387
 20
95.30715966902063
 42
-0.1803592841243165
 10
568.4850824143431
 20
272.1589698804705
 42
1.0
 10
568.3389175856559
 20
282.723958846052
 42
0.1806552584468524
 10
105.8527821627422
 20
102.6564173443653
 42
-1.0
 10
103.50736504433
 20
105.2838690643143
 42
-0.1807253348661956
 10
568.4836485137825
 20
286.248271956918
 42
1.0
 10
568.3403514862175
 20
296.8133002087447
 42
0.1810098255225448
 10
95.87681215981229
 20
112.6351272731408
 42
-1.0
 10
93.52850123596272
 20
115.2599929468338
 42
-0.1810772131062407
 10
568.4822697976692
 20
300.3375242824664
 42
1.0
 10
568.3417302023308
 20
310.9025895743676
 42
0.0708545589242389
 10
362.8782865793614
 20
278.845766642441
 42
-1.0
 10
361.8500998173681
 20
282.2143443812592
 42
-0.0709176593982366
 10
568.4809431404419
 20
314.4267296550288
 42
1.0
 10
568.3430568595572
 20
324.9918299088622
 42
0.0683072614227322
 10
366.2459910397124
 20
294.5609068831418
 42
-1.0
 10
365.2528628283481
 20
297.9399866921722
 42
-0.0683680017908346
 10
568.4796656482022
 20
328.5158906665833
 42
1.0
 10
568.344334351797
 20
339.0810239568077
 42
0.0707476413686906
 10
355.3254453095601
 20
305.9993638803144
 42
0.4784976775869026
 10
352.2516655826375
 20
298.3673101307068
 42
-0.407013583970331
 10
348.2522863649005
 20
283.5335123997529
 42
0.3517056221783653
 10
345.9220643994745
 20
277.3434895150399
 10
346.5273766825685
 20
275.4943075861234
 42
-0.4128186527774914
 10
345.4095715732033
 20
273.275478842942
 42
0.1028083506606693
 10
85.90138526953069
 20
122.6131896466086
 42
-1.0
 10
83.55029370606734
 20
125.2355649935434
 42
-0.0999139889989553
 10
336.2567202415771
 20
273.8914721688452
 42
1.0
 10
332.8071837251091
 20
283.8785164674123
 42
0.100171577981754
 10
75.92647099817168
 20
132.5906408186438
 42
-1.0
 10
73.57270545352822
 20
135.2106163454082
 42
-0.0989610765475567
 10
328.2386467949855
 20
286.0175305434368
 42
1.0
 10
324.74126747126
 20
295.9879214016714
 42
0.0992091469449852
 10
65.95204109459064
 20
142.5675144701818
 42
-1.0
 10
63.59570220911519
 20
145.1851758418634
 42
-0.1820555956502692
 10
568.4784346376404
 20
342.6050097217731
 42
1.0
 10
568.3455653623586
 20
353.1701742616979
 42
0.1823002431971129
 10
55.97806934764321
 20
152.5438418505955
 42
-1.0
 10
53.6192521877847
 20
155.1592702297262
 42
-0.1823582867775106
 10
568.4772476172233
 20
356.6940890545302
 42
1.0
 10
568.3467523827757
 20
367.2592831840193
 42
0.1825942827798994
 10
46.00453140518038
 20
162.519651993367
 42
-1.0
 10
43.64332586745695
 20
165.1329243497462
 42
-0.1826502942274998
 10
568.4761022703623
 20
370.7831307429637
 42
1.0
 10
568.3478977296367
 20
381.348352917425
 42
0.1828780898565997
 10
36.03140461200928
 20
172.494971909181
 42
-1.0
 10
33.6678957910317
 20
175.1061613035299
 42
-0.1829321740648791
 10
568.4749964403222
 20
384.8721367227099
 42
1.0
 10
568.3490035596774
 20
395.4373855032191
 42
0.1819379435019727
 10
28.92682137797237
 20
185.0581163913793
 42
-1.0
 10
26.57338004463964
 20
187.6783831508055
 42
-0.176784084934827
 10
551.8245991231383
 20
398.5979299236797
 42
-0.0850164725982757
 10
553.3295272350328
 20
398.38933928804
 42
0.0841208282729216
 10
554.7736799576105
 20
398.1865539106347
 42
-0.0025418837664525
 10
563.1590859311914
 20
398.3816052699967
  0
LWPOLYLINE
  5
394C
330
2
100
AcDbEntity
  8
copper
  6
Continuous
100
AcDbPolyline
 90
      268
 70
   128
 43
1.78
 10
554.650000000142
 20
402.2066635079645
 42
0.177698283993501
 10
24.21993871130508
 20
190.2986499102321
 42
1.0
 10
31.28026271130693
 20
182.4378496319514
 42
-0.1819379435019725
 10
568.3910011865591
 20
391.915635909716
 42
-1.0
 10
568.4329988134404
 20
388.3938863162129
 42
0.1829321740648788
 10
31.30438697005411
 20
177.7173506978783
 42
1.0
 10
38.39491343298687
 20
169.8837825148325
 42
-0.1828780898566001
 10
568.3906325765455
 20
377.8266121926045
 42
-1.0
 10
568.4333674234539
 20
374.3048714677843
 42
0.1826502942275001
 10
41.28212032973169
 20
167.7461967061267
 42
1.0
 10
48.36573694290564
 20
159.906379636986
 42
-0.1825942827798996
 10
568.390250794258
 20
363.7375518075232
 42
-1.0
 10
568.4337492057411
 20
360.2158204310263
 42
0.1823582867775104
 10
51.26043502792708
 20
157.7746986088568
 42
1.0
 10
58.33688650750082
 20
149.9284134714648
 42
-0.182300243197113
 10
568.3898551207862
 20
349.648452748389
 42
-1.0
 10
568.4341448792133
 20
346.126731235081
 42
0.1820555956502692
 10
61.23936332363974
 20
147.8028372135445
 42
1.0
 10
68.308379980067
 20
139.9498530984992
 42
-0.0992091469449854
 10
325.9070605791685
 20
292.6644577822599
 42
-1.0
 10
327.072853687077
 20
289.3409941628483
 42
0.0989610765475566
 10
71.21893990888384
 20
137.8305918721735
 42
1.0
 10
78.28023654281605
 20
129.9706652918785
 42
-0.100171577981754
 10
333.9570292305984
 20
280.5495017012231
 42
-1.0
 10
335.1068747360878
 20
277.2204869350339
 42
0.0999139889989553
 10
81.19920214260401
 20
127.8579403404792
 42
1.0
 10
88.25247683299403
 20
119.9908142996728
 42
-0.1028083506606694
 10
346.5211928990461
 20
269.9335060680783
 42
0.4128186527774751
 10
349.8746082271428
 20
276.5899922976214
 10
349.2692959440478
 20
278.4391742265388
 42
-0.3517056221783199
 10
350.0460365991903
 20
280.5025151881096
 42
0.4070135839703311
 10
355.3259443264606
 20
300.0858252471021
 42
-0.4784976775868718
 10
356.3505375687678
 20
302.6298431636378
 42
-0.0707476413686906
 10
568.389444783932
 20
335.5593128600663
 42
-1.0
 10
568.4345552160671
 20
332.0376017633253
 42
0.0683680017908347
 10
364.2597346169837
 20
301.3190665012021
 42
1.0
 10
367.2391192510768
 20
291.1818270741119
 42
-0.0683072614227322
 10
568.3890189531853
 20
321.4701298242512
 42
-1.0
 10
568.4349810468138
 20
317.9484297396398
 42
0.0709176593982366
 10
360.8219130553748
 20
285.5829221200779
 42
1.0
 10
363.9064733413547
 20
275.4771889036233
 42
-0.0708545589242388
 10
568.3885767341102
 20
307.3809011437338
 42
-1.0
 10
568.4354232658897
 20
303.8592127131001
 42
0.1810772131062406
 10
91.18019031211316
 20
117.8848586205267
 42
1.0
 10
98.22512308366185
 20
110.0102615994483
 42
-0.1810098255225443
 10
568.3881171620724
 20
293.2916241248022
 42
-1.0
 10
568.4358828379272
 20
289.769948040861
 42
0.1807253348661957
 10
101.1619479259179
 20
107.9113207842629
 42
1.0
 10
108.1981992811534
 20
100.0289656244172
 42
-0.180655258446853
 10
568.3876391952185
 20
279.2022958575253
 42
-1.0
 10
568.436360804781
 20
275.6806328689981
 42
0.1803592841243162
 10
111.1445220424211
 20
97.93729877530905
 42
1.0
 10
118.1717313415775
 20
90.04688145644285
 42
-0.1802863546390057
 10
568.3871417065907
 20
265.1129131936068
 42
-1.0
 10
568.4368582934093
 20
261.5912641110044
 42
0.0692245785806359
 10
381.0097081332733
 20
232.8146819786212
 42
1.0
 10
384.036888030008
 20
222.6916123911483
 42
-0.0691506482781378
 10
568.3866234752509
 20
251.0234727214779
 42
-1.0
 10
568.4373765247487
 20
247.5018384236027
 42
0.0673995626973954
 10
389.5526811456662
 20
220.6478419625146
 42
1.0
 10
392.5092116083242
 20
210.5039135507322
 42
-0.0673225030509408
 10
568.3860831762826
 20
236.9339707381791
 42
-1.0
 10
568.4379168237164
 20
233.4123521794772
 42
0.070606050852453
 10
385.228874619047
 20
204.6547280012496
 42
-0.5566183672634941
 10
382.9767400743817
 20
206.6266052074929
 42
0.5012592784050521
 10
366.8589142906599
 20
223.4111240360284
 42
-0.2688435467055809
 10
365.233354480416
 20
224.1014990906547
 42
0.3232284551750728
 10
359.3282045727497
 20
225.9387030225275
 42
0.1010347894385238
 10
121.1279636397494
 20
87.96276218579578
 42
1.0
 10
128.1457473091059
 20
80.06396048109991
 42
-0.0967631088119148
 10
351.8502594319116
 20
212.1835632105831
 42
-1.0
 10
353.0266354433543
 20
208.8638307696019
 42
0.0964491238067332
 10
131.1123280328102
 20
77.98767800448286
 42
1.0
 10
138.1202775792608
 20
70.08014999919623
 42
-0.0965197726984102
 10
356.7308601985901
 20
198.9666529005894
 42
-1.0
 10
357.9063066751078
 20
195.6465912173003
 42
0.0961922640775941
 10
141.0976753448076
 20
68.01201033177131
 42
1.0
 10
148.0953551509456
 20
60.09539278822558
 42
-0.0990751443625141
 10
368.4386585705388
 20
188.1219010694831
 42
0.3348795846406048
 10
372.0087213710908
 20
193.3891181714216
 42
-0.762528756837213
 10
375.2343412331407
 20
194.4525915971253
 42
0.3348795846406966
 10
381.2370131263565
 20
192.3414652292231
 42
-0.0212344480748104
 10
434.4330759931599
 20
206.8141673070804
 42
-1.0
 10
435.2125777215824
 20
203.3795114210388
 42
0.1254861869619377
 10
151.0840710416855
 20
58.03572005638852
 42
1.0
 10
158.0710159116565
 20
50.1096266060199
 42
-0.1322150213987736
 10
454.0003837744307
 20
196.5804475459458
 42
0.4130062354232665
 10
458.153272326681
 20
202.7726605875237
 10
457.9770826432736
 20
203.2629437847922
 42
-1.001374337309108
 10
461.4339519222612
 20
203.9371213508352
 10
461.5273765984998
 20
203.4067734232558
 42
0.9958846488087267
 10
471.9322015470324
 20
205.2447275160921
 10
471.764698007024
 20
205.7416889737929
 42
-1.001374337301747
 10
475.2354747745616
 20
206.3401613896012
 10
475.3193575244772
 20
205.8049534615852
 42
0.9958846488092191
 10
485.7618631076961
 20
207.4150884253181
 10
485.1422460647213
 20
211.433738313131
 42
-1.001366869997243
 10
488.6287646511577
 20
211.9323854853714
 10
489.1604529983546
 20
207.9011599022237
 42
0.9958846488177185
 10
499.6356516082305
 20
209.2827066950058
 10
499.1040034697307
 20
213.3139375811925
 42
-1.001366870131515
 10
502.6005865382699
 20
213.7362735857605
 10
503.0440521585087
 20
209.6943915434153
 42
0.9958846488133229
 10
513.5469405719559
 20
210.8466903031431
 10
513.1035152667022
 20
214.8885767685565
 42
-1.001366870039393
 10
516.6084927597535
 20
215.2343998868651
 10
516.9635238425098
 20
211.1837918915648
 42
0.9958846488056376
 10
527.4890856110892
 20
212.1062922508099
 10
527.134094930343
 20
216.1569037871764
 42
-1.001366870162957
 10
530.6457927809155
 20
216.4260488451537
 10
530.9122197542337
 20
212.3686495712391
 42
0.995884648815659
 10
541.4554276001308
 20
213.0609109201619
 10
541.1890410965497
 20
217.1183128515104
 42
-1.001366869957665
 10
544.70578202782
 20
217.3106512987365
 10
544.8834776393714
 20
213.2483986637753
 42
0.9958846488241281
 10
555.4392958565371
 20
213.7100903608525
 10
555.2616407631362
 20
217.7723447681128
 42
-1.001366869963281
 10
558.781745089595
 20
217.887784738673
 10
558.8706048864301
 20
213.8226183889533
 42
0.9958846488236055
 10
569.4339917387369
 20
214.0535202414967
 10
569.3451330714556
 20
218.1186866158146
 42
-1.001366869935723
 10
572.8669194987819
 20
218.1571731882272
 10
572.8669166503459
 20
207.0467934710723
 42
-0.4138065312229645
 10
571.1255807817792
 20
205.2687690185289
 42
0.1793803282906186
 10
161.0715865395209
 20
48.05876448761501
 42
1.0
 10
168.0472989610848
 20
40.12278362752977
 42
-0.1793150670766131
 10
571.085973872121
 20
194.7016555054306
 42
-1.0
 10
571.1260261278785
 20
191.1798832503282
 42
0.1789327911608687
 10
171.0602998967861
 20
38.08109693572169
 42
1.0
 10
178.0242469792792
 20
30.13478980396394
 42
-0.1788645026937801
 10
571.0855077966121
 20
180.6127178996185
 42
-1.0
 10
571.1264922033874
 20
177.0909563690211
 42
0.1784642473462478
 10
181.0502966056283
 20
28.1026662319091
 42
1.0
 10
188.0019066467252
 20
20.1455641314883
 42
-0.3752940519039472
 10
968.2980933532745
 20
20.14556413148875
 42
1.0
 10
975.2497033943713
 20
28.1026662319091
 42
0.1784642473462479
 10
585.1735077966118
 20
177.0909563690202
 42
-1.0
 10
585.2144922033871
 20
180.6127178996194
 42
-0.1788645026937801
 10
978.2757530207195
 20
30.13478980396349
 42
1.0
 10
985.2397001032136
 20
38.08109693572215
 42
0.1789327911608688
 10
585.1739738721208
 20
191.1798832503282
 42
-1.0
 10
585.2140261278782
 20
194.7016555054306
 42
-0.1793150670766131
 10
988.2527010389148
 20
40.12278362753022
 42
1.0
 10
995.2284134604779
 20
48.05876448761501
 42
0.1793803282906187
 10
585.1744192182199
 20
205.2687690185289
 42
-0.4138065312230405
 10
583.4330833496533
 20
207.0467934710728
 10
583.4330805012178
 20
218.157173188275
 42
-1.001366869843182
 10
586.9548669285445
 20
218.1186866158632
 10
586.8660082612623
 20
214.0535202414967
 42
0.9958846488244507
 10
597.4293951135696
 20
213.8226183889724
 10
597.5182549104052
 20
217.8877847387203
 42
-1.001366869902811
 10
601.0383592368616
 20
217.7723447680819
 10
600.860704143462
 20
213.7100903608525
 42
0.9958846488241281
 10
611.4165223606278
 20
213.2483986637753
 10
611.5942179721791
 20
217.3106512987365
 42
-1.001366869982021
 10
615.1109589034468
 20
217.1183128514627
 10
614.8445723998683
 20
213.0609109201623
 42
0.9958846488150442
 10
625.3877802457618
 20
212.3686495711845
 10
625.6542072190864
 20
216.426048845201
 42
-1.001366870065481
 10
629.1659050696539
 20
216.1569037871522
 10
628.8109143889101
 20
212.1062922508099
 42
0.9958846488147369
 10
639.3364761574994
 20
211.1837918916744
 10
639.6915072402457
 20
215.2343998868651
 42
-1.001366870039393
 10
643.1964847332969
 20
214.8885767685565
 10
642.7530594280433
 20
210.8466903031431
 42
0.9958846488133229
 10
653.2559478414905
 20
209.6943915434153
 10
653.6994134617294
 20
213.7362735857601
 42
-1.001366870036611
 10
657.1959965302739
 20
213.3139375812334
 10
656.6643483917687
 20
209.2827066950058
 42
0.9958846488177185
 10
667.1395470016445
 20
207.9011599022237
 10
667.6712353488414
 20
211.9323854853714
 42
-1.001366869997243
 10
671.1577539352779
 20
211.433738313131
 10
670.538136892303
 20
207.4150884253181
 42
0.9958846488092191
 10
680.980642475522
 20
205.8049534615852
 10
681.0645252254371
 20
206.3401613896012
 42
-1.001374337375358
 10
684.5353019929738
 20
205.7416889737897
 10
684.3677984529668
 20
205.2447275160921
 42
0.9958846488087267
 10
694.7726234014994
 20
203.4067734232558
 10
694.8660480777379
 20
203.9371213508352
 42
-1.001374337309108
 10
698.3229173567256
 20
203.2629437847922
 10
698.1467276733183
 20
202.7726605875237
 42
0.4130062354232697
 10
702.2996162255686
 20
196.5804475459458
 42
-0.1322150213987736
 10
998.2289840883423
 20
50.10962660601944
 42
1.0
 10
1005.215928958314
 20
58.03572005638852
 42
0.1254861869619379
 10
721.0874222784168
 20
203.3795114210388
 42
-1.0
 10
721.8669240068393
 20
206.8141673070804
 42
-0.0212344480748101
 10
775.0629868736427
 20
192.3414652292231
 42
0.3348795846406762
 10
781.0656587668582
 20
194.4525915971258
 42
-0.76252875683721
 10
784.291278628908
 20
193.3891181714221
 42
0.33487958464062
 10
787.8613414294605
 20
188.1219010694835
 42
-0.0990751443625143
 10
1008.204644849054
 20
60.09539278822558
 42
1.0
 10
1015.202324655192
 20
68.01201033177131
 42
0.0961922640775941
 10
798.3936933248915
 20
195.6465912173007
 42
-1.0
 10
799.5691398014091
 20
198.9666529005899
 42
-0.0965197726984104
 10
1018.179722420738
 20
70.08014999919623
 42
1.0
 10
1025.187671967189
 20
77.98767800448286
 42
0.0964491238067334
 10
803.273364556645
 20
208.8638307696019
 42
-1.0
 10
804.4497405680877
 20
212.1835632105831
 42
-0.0967631088119147
 10
1028.154252690893
 20
80.06396048109946
 42
1.0
 10
1035.17203636025
 20
87.96276218579578
 42
0.1010347894385237
 10
796.9717954272505
 20
225.938703022528
 42
0.3232284551751472
 10
791.0666455195833
 20
224.1014990906547
 42
-0.2688435467055894
 10
789.4410857093394
 20
223.4111240360284
 42
0.5012592784050534
 10
773.3232599256175
 20
206.6266052074929
 42
-0.5566183672634964
 10
771.0711253809522
 20
204.6547280012496
 42
0.0706060508524526
 10
587.8620831762832
 20
233.4123521794772
 42
-1.0
 10
587.9139168237165
 20
236.9339707381787
 42
-0.0673225030509405
 10
763.7907883916741
 20
210.5039135507318
 42
1.0
 10
766.7473188543326
 20
220.647841962515
 42
0.0673995626973949
 10
587.8626234752509
 20
247.5018384236027
 42
-1.0
 10
587.9133765247488
 20
251.0234727214775
 42
-0.0691506482781374
 10
772.2631119699908
 20
222.6916123911487
 42
1.0
 10
775.290291866726
 20
232.8146819786212
 42
0.0692245785806359
 10
587.8631417065903
 20
261.5912641110039
 42
-1.0
 10
587.9128582934095
 20
265.1129131936068
 42
-0.1802863546390053
 10
1038.128268658422
 20
90.04688145644331
 42
1.0
 10
1045.155477957577
 20
97.93729877530905
 42
0.1803592841243155
 10
587.8636391952186
 20
275.6806328689977
 42
-1.0
 10
587.9123608047811
 20
279.2022958575249
 42
-0.1806552584468525
 10
1048.101800718846
 20
100.0289656244172
 42
1.0
 10
1055.138052074081
 20
107.9113207842629
 42
0.1807253348661955
 10
587.8641171620724
 20
289.769948040861
 42
-1.0
 10
587.9118828379273
 20
293.2916241248022
 42
-0.1810098255225444
 10
1058.074876916337
 20
110.0102615994483
 42
1.0
 10
1065.119809687885
 20
117.8848586205267
 42
0.1810772131062402
 10
587.8645767341099
 20
303.8592127130996
 42
-1.0
 10
587.9114232658898
 20
307.3809011437338
 42
-0.0708545589242385
 10
792.3935266586445
 20
275.4771889036238
 42
1.0
 10
795.4780869446245
 20
285.5829221200779
 42
0.0709176593982365
 10
587.8650189531859
 20
317.9484297396403
 42
-1.0
 10
587.9109810468139
 20
321.4701298242512
 42
-0.0683072614227322
 10
789.0608807489225
 20
291.1818270741114
 42
1.0
 10
792.040265383016
 20
301.3190665012016
 42
0.0683680017908348
 10
587.8654447839326
 20
332.0376017633253
 42
-1.0
 10
587.9105552160672
 20
335.5593128600663
 42
-0.0707476413686906
 10
799.949462431231
 20
302.6298431636378
 42
-0.4784976775868725
 10
800.9740556735382
 20
300.0858252471021
 42
0.4070135839703533
 10
806.2539634008089
 20
280.5025151881091
 42
-0.3517056221784928
 10
807.0307040559514
 20
278.4391742265375
 10
806.4253917728569
 20
276.5899922976241
 42
0.4128186527775851
 10
809.7788071009526
 20
269.9335060680787
 42
-0.1028083506606696
 10
1068.047523167005
 20
119.9908142996733
 42
1.0
 10
1075.100797857395
 20
127.8579403404787
 42
0.0999139889989553
 10
821.1931252639114
 20
277.2204869350344
 42
-1.0
 10
822.3429707694007
 20
280.5495017012231
 42
-0.1001715779817543
 10
1078.019763457183
 20
129.970665291878
 42
1.0
 10
1085.081060091116
 20
137.830591872173
 42
0.0989610765475568
 10
829.2271463129223
 20
289.3409941628483
 42
-1.0
 10
830.3929394208307
 20
292.6644577822599
 42
-0.0992091469449853
 10
1087.991620019932
 20
139.9498530984997
 42
1.0
 10
1095.060636676359
 20
147.8028372135445
 42
0.1820555956502687
 10
587.8658551207863
 20
346.1267312350806
 42
-1.0
 10
587.9101448792134
 20
349.648452748389
 42
-0.1823002431971127
 10
1097.963113492498
 20
149.9284134714653
 42
1.0
 10
1105.039564972072
 20
157.7746986088568
 42
0.1823582867775102
 10
587.8662507942586
 20
360.2158204310263
 42
-1.0
 10
587.9097492057412
 20
363.7375518075232
 42
-0.1825942827798994
 10
1107.934263057093
 20
159.9063796369864
 42
1.0
 10
1115.017879670267
 20
167.7461967061263
 42
0.1826502942274999
 10
587.8666325765457
 20
374.3048714677843
 42
-1.0
 10
587.9093674234541
 20
377.8266121926045
 42
-0.1828780898565999
 10
1117.905086567012
 20
169.8837825148321
 42
1.0
 10
1124.995613029946
 20
177.7173506978788
 42
0.182932174064879
 10
587.8670011865592
 20
388.3938863162129
 42
-1.0
 10
587.9089988134405
 20
391.915635909716
 42
-0.1831521896420677
 10
1127.875600659844
 20
179.8606509151368
 42
1.0
 10
1134.972795086795
 20
187.6881784472543
 42
0.1789107320086342
 10
601.6499999998573
 20
402.2066635079645
  0
LWPOLYLINE
  5
3A75
330
2
100
AcDbEntity
  8
mechanical
  6
Continuous
100
AcDbPolyline
 90
        2
 70
   128
 43
2.0
 10
0.0
 20
416.5658229286379
 10
2.0
 20
416.5658229286379
  0
LWPOLYLINE
  5
3AA6
330
2
100
AcDbEntity
  8
mechanical
  6
Continuous
100
AcDbPolyline
 90
        2
 70
   128
 43
2.0
 10
0.0
 20
1.0
 10
2.0
 20
1.0
  0
LWPOLYLINE
  5
3AB6
330
2
100
AcDbEntity
  8
mechanical
  6
Continuous
100
AcDbPolyline
 90
        2
 70
   128
 43
2.0
 10
100.0
 20
416.5658229286379
 10
102.0
 20
416.5658229286379
  0
LWPOLYLINE
  5
3AB7
330
2
100
AcDbEntity
  8
mechanical
  6
Continuous
100
AcDbPolyline
 90
        2
 70
   128
 43
2.0
 10
100.0
 20
1.0
 10
102.0
 20
1.0
  0
LWPOLYLINE
  5
3AB8
330
2
100
AcDbEntity
  8
mechanical
  6
Continuous
100
AcDbPolyline
 90
        2
 70
   128
 43
2.0
 10
200.0
 20
416.5658229286379
 10
202.0
 20
416.5658229286379
  0
LWPOLYLINE
  5
3AB9
330
2
100
AcDbEntity
  8
mechanical
  6
Continuous
100
AcDbPolyline
 90
        2
 70
   128
 43
2.0
 10
200.0
 20
1.0
 10
202.0
 20
1.0
  0
LWPOLYLINE
  5
3ABA
330
2
100
AcDbEntity
  8
mechanical
  6
Continuous
100
AcDbPolyline
 90
        2
 70
   128
 43
2.0
 10
300.0
 20
416.5658229286379
 10
302.0
 20
416.5658229286379
  0
LWPOLYLINE
  5
3ABB
330
2
100
AcDbEntity
  8
mechanical
  6
Continuous
100
AcDbPolyline
 90
        2
 70
   128
 43
2.0
 10
300.0
 20
1.0
 10
302.0
 20
1.0
  0
LWPOLYLINE
  5
3ABC
330
2
100
AcDbEntity
  8
mechanical
  6
Continuous
100
AcDbPolyline
 90
        2
 70
   128
 43
2.0
 10
400.0
 20
416.5658229286379
 10
402.0
 20
416.5658229286379
  0
LWPOLYLINE
  5
3ABD
330
2
100
AcDbEntity
  8
mechanical
  6
Continuous
100
AcDbPolyline
 90
        2
 70
   128
 43
2.0
 10
400.0
 20
1.0
 10
402.0
 20
1.0
  0
LWPOLYLINE
  5
3ABE
330
2
100
AcDbEntity
  8
mechanical
  6
Continuous
100
AcDbPolyline
 90
        2
 70
   128
 43
2.0
 10
500.0
 20
416.5658229286379
 10
502.0
 20
416.5658229286379
  0
LWPOLYLINE
  5
3ABF
330
2
100
AcDbEntity
  8
mechanical
  6
Continuous
100
AcDbPolyline
 90
        2
 70
   128
 43
2.0
 10
500.0
 20
1.0
 10
502.0
 20
1.0
  0
LWPOLYLINE
  5
3AC0
330
2
100
AcDbEntity
  8
mechanical
  6
Continuous
100
AcDbPolyline
 90
        2
 70
   128
 43
2.0
 10
600.0
 20
416.5658229286379
 10
602.0
 20
416.5658229286379
  0
LWPOLYLINE
  5
3AC1
330
2
100
AcDbEntity
  8
mechanical
  6
Continuous
100
AcDbPolyline
 90
        2
 70
   128
 43
2.0
 10
600.0
 20
1.0
 10
602.0
 20
1.0
  0
LWPOLYLINE
  5
3AC2
330
2
100
AcDbEntity
  8
mechanical
  6
Continuous
100
AcDbPolyline
 90
        2
 70
   128
 43
2.0
 10
700.0
 20
416.5658229286379
 10
702.0
 20
416.5658229286379
  0
LWPOLYLINE
  5
3AC3
330
2
100
AcDbEntity
  8
mechanical
  6
Continuous
100
AcDbPolyline
 90
        2
 70
   128
 43
2.0
 10
700.0
 20
1.0
 10
702.0
 20
1.0
  0
LWPOLYLINE
  5
3AC4
330
2
100
AcDbEntity
  8
mechanical
  6
Continuous
100
AcDbPolyline
 90
        2
 70
   128
 43
2.0
 10
800.0
 20
416.5658229286379
 10
802.0
 20
416.5658229286379
  0
LWPOLYLINE
  5
3AC5
330
2
100
AcDbEntity
  8
mechanical
  6
Continuous
100
AcDbPolyline
 90
        2
 70
   128
 43
2.0
 10
800.0
 20
1.0
 10
802.0
 20
1.0
  0
LWPOLYLINE
  5
3AC6
330
2
100
AcDbEntity
  8
mechanical
  6
Continuous
100
AcDbPolyline
 90
        2
 70
   128
 43
2.0
 10
900.0
 20
416.5658229286379
 10
902.0
 20
416.5658229286379
  0
LWPOLYLINE
  5
3AC7
330
2
100
AcDbEntity
  8
mechanical
  6
Continuous
100
AcDbPolyline
 90
        2
 70
   128
 43
2.0
 10
900.0
 20
1.0
 10
902.0
 20
1.0
  0
LWPOLYLINE
  5
3AC8
330
2
100
AcDbEntity
  8
mechanical
  6
Continuous
100
AcDbPolyline
 90
        2
 70
   128
 43
2.0
 10
1000.0
 20
416.5658229286379
 10
1002.0
 20
416.5658229286379
  0
LWPOLYLINE
  5
3AC9
330
2
100
AcDbEntity
  8
mechanical
  6
Continuous
100
AcDbPolyline
 90
        2
 70
   128
 43
2.0
 10
1000.0
 20
1.0
 10
1002.0
 20
1.0
  0
LWPOLYLINE
  5
3ACA
330
2
100
AcDbEntity
  8
mechanical
  6
Continuous
100
AcDbPolyline
 90
        2
 70
   128
 43
2.0
 10
1100.0
 20
416.5658229286379
 10
1102.0
 20
416.5658229286379
  0
LWPOLYLINE
  5
3ACB
330
2
100
AcDbEntity
  8
mechanical
  6
Continuous
100
AcDbPolyline
 90
        2
 70
   128
 43
2.0
 10
1100.0
 20
1.0
 10
1102.0
 20
1.0
  0
LWPOLYLINE
  5
3ACE
330
2
100
AcDbEntity
  8
mechanical
  6
Continuous
100
AcDbPolyline
 90
        2
 70
   128
 43
2.0
 10
1154.3
 20
416.5658229286379
 10
1156.299999999999
 20
416.5658229286379
  0
LWPOLYLINE
  5
3ACF
330
2
100
AcDbEntity
  8
mechanical
  6
Continuous
100
AcDbPolyline
 90
        2
 70
   128
 43
2.0
 10
1154.3
 20
1.0
 10
1156.299999999999
 20
1.0
  0
LWPOLYLINE
  5
3AF4
330
2
100
AcDbEntity
  8
copper
100
AcDbPolyline
 90
        2
 70
   128
 43
0.5
 10
548.5188407653534
 20
402.6504889298957
 42
0.1346900899421399
 10
553.5686121237024
 20
404.2319145258802
  0
LWPOLYLINE
  5
3AF6
330
2
100
AcDbEntity
  8
copper
100
AcDbPolyline
 90
        2
 70
   128
 43
0.5
 10
553.9017181157669
 20
400.6947320343222
 42
0.1048012284961556
 10
549.8182760856029
 20
401.4151624681731
  0
LWPOLYLINE
  5
3AF8
330
2
100
AcDbEntity
  8
copper
100
AcDbPolyline
 90
        2
 70
   128
 43
1.199999999999999
 10
553.4522533091794
 20
403.5997724821767
 10
551.3158925826409
 20
402.6012050808085
  0
LWPOLYLINE
  5
3AF9
330
2
100
AcDbEntity
  8
copper
100
AcDbPolyline
 90
        2
 70
   128
 43
1.199999999999999
 10
553.9133416984696
 20
401.2032129881581
 10
551.8307709929477
 20
401.8177148406589
  0
LWPOLYLINE
  5
3B0D
330
2
100
AcDbEntity
  8
copper
100
AcDbPolyline
 90
        2
 70
   128
 43
0.5
 10
558.2224119952879
 20
398.9172884875967
 42
0.4071607595117997
 10
561.1499999999996
 20
401.9164144440944
  0
LWPOLYLINE
  5
3B0E
330
2
100
AcDbEntity
  8
copper
100
AcDbPolyline
 90
        2
 70
   128
 43
1.199999999999999
 10
561.7849164807558
 20
400.7170229469275
 10
559.7696420755656
 20
398.5169402047709
  0
LWPOLYLINE
  5
3B0F
330
2
100
AcDbEntity
  8
copper
100
AcDbPolyline
 90
        2
 70
   128
 43
0.5
 10
607.7811592346442
 20
402.6504889298956
 42
-0.1346900899421399
 10
602.7313878762953
 20
404.2319145258801
  0
LWPOLYLINE
  5
3B10
330
2
100
AcDbEntity
  8
copper
100
AcDbPolyline
 90
        2
 70
   128
 43
0.5
 10
602.3982818842307
 20
400.694732034322
 42
-0.1048012284961556
 10
606.4817239143948
 20
401.415162468173
  0
LWPOLYLINE
  5
3B11
330
2
100
AcDbEntity
  8
copper
100
AcDbPolyline
 90
        2
 70
   128
 43
1.199999999999999
 10
602.8477466908183
 20
403.5997724821767
 10
604.9841074173567
 20
402.6012050808084
  0
LWPOLYLINE
  5
3B12
330
2
100
AcDbEntity
  8
copper
100
AcDbPolyline
 90
        2
 70
   128
 43
1.199999999999999
 10
602.3866583015281
 20
401.203212988158
 10
604.4692290070501
 20
401.8177148406588
  0
LWPOLYLINE
  5
3B13
330
2
100
AcDbEntity
  8
copper
100
AcDbPolyline
 90
        2
 70
   128
 43
0.5
 10
598.0775880047096
 20
398.9172884875967
 42
-0.4071607595117997
 10
595.1499999999981
 20
401.9164144440944
  0
LWPOLYLINE
  5
3B14
330
2
100
AcDbEntity
  8
copper
100
AcDbPolyline
 90
        2
 70
   128
 43
1.199999999999999
 10
594.5150835192419
 20
400.7170229469274
 10
596.5303579244321
 20
398.5169402047708
  0
LWPOLYLINE
  5
3B29
330
2
100
AcDbEntity
  8
kapton
  6
Continuous
100
AcDbPolyline
 90
        2
 70
   128
 43
0.25
 10
972.1921412540067
 20
10.00000000000045
 42
0.3846436892416937
 10
184.1078587459924
 20
10.00000000000045
  0
LWPOLYLINE
  5
3B2A
330
2
100
AcDbEntity
  8
kapton
  6
Continuous
100
AcDbPolyline
 90
        2
 70
   128
 43
0.25
 10
1146.3
 20
184.1078587459928
 42
0.3933080422118196
 10
10.0
 20
184.1078587459928
  0
LWPOLYLINE
  5
3B2B
330
2
100
AcDbEntity
  8
kapton
  6
Continuous
100
AcDbPolyline
 90
        2
 70
   128
 43
0.25
 10
10.0
 20
184.1078587459928
 10
184.1078587459924
 20
10.0
  0
LWPOLYLINE
  5
3B2C
330
2
100
AcDbEntity
  8
kapton
  6
Continuous
100
AcDbPolyline
 90
        2
 70
   128
 43
0.25
 10
10.0
 20
184.1078587459928
 10
184.1078587459924
 20
10.0
  0
LWPOLYLINE
  5
3B2D
330
2
100
AcDbEntity
  8
kapton
  6
Continuous
100
AcDbPolyline
 90
        2
 70
   128
 43
0.25
 10
10.0
 20
184.1078587459928
 10
184.1078587459924
 20
10.0
  0
LWPOLYLINE
  5
3B2E
330
2
100
AcDbEntity
  8
kapton
  6
Continuous
100
AcDbPolyline
 90
        2
 70
   128
 43
0.25
 10
1146.3
 20
184.1078587459928
 10
972.1921412540067
 20
10.0
  0
LWPOLYLINE
  5
3B2F
330
2
100
AcDbEntity
  8
kapton
  6
Continuous
100
AcDbPolyline
 90
        2
 70
   129
 43
0.25
 10
375.6499999999996
 20
209.0
 42
0.9999999999999998
 10
361.6499999999996
 20
209.0
 42
0.9999999999999998
  0
LWPOLYLINE
  5
3B30
330
2
100
AcDbEntity
  8
kapton
  6
Continuous
100
AcDbPolyline
 90
        2
 70
   129
 43
0.125
 10
1146.2375
 20
184.1078587459928
 42
1.0
 10
1146.362499999999
 20
184.1078587459928
 42
1.0
  0
LWPOLYLINE
  5
3B31
330
2
100
AcDbEntity
  8
kapton
  6
Continuous
100
AcDbPolyline
 90
        2
 70
   129
 43
0.125
 10
972.1296412540068
 20
10.0
 42
1.0
 10
972.2546412540069
 20
10.0
 42
1.0
  0
LWPOLYLINE
  5
3B32
330
2
100
AcDbEntity
  8
kapton
  6
Continuous
100
AcDbPolyline
 90
        2
 70
   129
 43
0.125
 10
184.0453587459924
 20
10.00000000000045
 42
1.0
 10
184.1703587459924
 20
10.00000000000045
 42
1.0
  0
LWPOLYLINE
  5
3B33
330
2
100
AcDbEntity
  8
kapton
  6
Continuous
100
AcDbPolyline
 90
        2
 70
   129
 43
0.125
 10
9.9375
 20
184.1078587459928
 42
1.0
 10
10.0625
 20
184.1078587459928
 42
1.0
  0
LWPOLYLINE
  5
3B37
330
2
100
AcDbEntity
  8
kapton
  6
Continuous
100
AcDbPolyline
 90
        2
 70
   129
 43
0.25
 10
349.6499999999997
 20
293.0
 42
0.9999999999999998
 10
335.6499999999996
 20
293.0
 42
0.9999999999999998
  0
LWPOLYLINE
  5
3B38
330
2
100
AcDbEntity
  8
kapton
  6
Continuous
100
AcDbPolyline
 90
        2
 70
   129
 43
0.25
 10
780.6499999999996
 20
209.0
 42
-0.9999999999999998
 10
794.6499999999996
 20
209.0
 42
-0.9999999999999998
  0
LWPOLYLINE
  5
3B39
330
2
100
AcDbEntity
  8
kapton
  6
Continuous
100
AcDbPolyline
 90
        2
 70
   129
 43
0.25
 10
806.6499999999996
 20
293.0
 42
-0.9999999999999998
 10
820.6499999999996
 20
293.0
 42
-0.9999999999999998
  0
LWPOLYLINE
  5
3B7B
102
{ACAD_REACTORS
330
3B96
102
}
330
2
100
AcDbEntity
  8
kapton
100
AcDbPolyline
 90
        4
 70
     1
 43
0.25
 10
553.1500000000001
 20
405.065822928638
 10
603.1500000000001
 20
405.065822928638
 10
603.1500000000001
 20
400.0658229286379
 10
553.1500000000001
 20
400.0658229286379
  0
HATCH
  5
3B96
330
2
100
AcDbEntity
  8
kapton
100
AcDbHatch
 10
0.0
 20
0.0
 30
0.0
210
0.0
220
0.0
230
1.0
  2
ANSI37
 70
     0
 71
     1
 91
        1
 92
        7
 72
     0
 73
     1
 93
        4
 10
603.1500000000001
 20
405.065822928638
 10
553.1500000000001
 20
405.065822928638
 10
553.1500000000001
 20
400.0658229286379
 10
603.1500000000001
 20
400.0658229286379
 97
        1
330
3B7B
 75
     0
 76
     1
 52
0.0
 41
0.5
 77
     0
 78
     2
 53
45.0
 43
0.0
 44
0.0
 45
-1.122532015133643
 46
1.122532015133644
 79
     0
 53
135.0
 43
0.0
 44
0.0
 45
-1.122532015133644
 46
-1.122532015133643
 79
     0
 47
0.0646116985712494
 98
        1
 10
592.5226862862218
 20
403.6455137151715
1001
ACAD
1010
0.0
1020
0.0
1030
0.0
  0
POINT
  5
3EE4
330
2
100
AcDbEntity
  8
mechanical
100
AcDbPoint
 10
446.8082003038398
 20
50.03545815557675
 30
0.0
  0
LWPOLYLINE
  5
458F
330
2
100
AcDbEntity
  8
mechanical
100
AcDbPolyline
 90
        3
 70
   128
 43
0.5
 10
326.8707003038398
 20
56.59795815557675
 10
330.2457003038398
 20
69.09795815557675
 10
333.4957003038399
 20
56.59795815557675
  0
LWPOLYLINE
  5
4591
330
2
100
AcDbEntity
  8
mechanical
100
AcDbPolyline
 90
        2
 70
   128
 43
0.5
 10
328.1207003038399
 20
60.72295815557669
 10
332.2457003038398
 20
60.72295815557669
  0
LWPOLYLINE
  5
4592
330
2
100
AcDbEntity
  8
mechanical
100
AcDbPolyline
 90
        2
 70
   128
 43
0.5
 10
337.3082003038399
 20
69.09795815557675
 10
337.3082003038399
 20
56.59795815557675
  0
LWPOLYLINE
  5
4593
330
2
100
AcDbEntity
  8
mechanical
100
AcDbPolyline
 90
        2
 70
   128
 43
0.5
 10
334.3707003038399
 20
69.09795815557675
 10
340.1832003038399
 20
69.09795815557675
  0
LWPOLYLINE
  5
4594
330
2
100
AcDbEntity
  8
mechanical
100
AcDbPolyline
 90
        3
 70
   128
 43
0.5
 10
342.3082003038398
 20
69.09795815557675
 10
342.3082003038398
 20
56.59795815557675
 10
347.3082003038399
 20
56.59795815557675
  0
LWPOLYLINE
  5
4596
330
2
100
AcDbEntity
  8
mechanical
100
AcDbPolyline
 90
        2
 70
   128
 43
0.5
 10
349.3707003038398
 20
69.09795815557675
 10
349.3707003038398
 20
56.59795815557675
  0
LWPOLYLINE
  5
4597
330
2
100
AcDbEntity
  8
mechanical
100
AcDbPolyline
 90
       18
 70
   128
 43
0.5
 10
358.4957003038399
 20
66.09795815557664
 10
358.0582003038399
 20
67.28545815557669
 10
357.3082003038398
 20
68.47295815557675
 10
356.4957003038399
 20
69.09795815557675
 10
354.8082003038398
 20
69.09795815557675
 10
353.9332003038398
 20
68.47295815557675
 10
353.1207003038399
 20
67.28545815557669
 10
352.6832003038399
 20
66.09795815557664
 10
352.2457003038399
 20
64.34795815557652
 10
352.2457003038399
 20
61.34795815557669
 10
352.6832003038399
 20
59.53545815557664
 10
353.1207003038399
 20
58.28545815557664
 10
353.9332003038398
 20
57.09795815557658
 10
354.8082003038398
 20
56.59795815557675
 10
356.4957003038399
 20
56.59795815557675
 10
357.3082003038398
 20
57.09795815557658
 10
358.0582003038399
 20
58.28545815557664
 10
358.4957003038399
 20
59.53545815557664
  0
LWPOLYLINE
  5
45A8
330
2
100
AcDbEntity
  8
mechanical
100
AcDbPolyline
 90
        4
 70
   128
 43
0.5
 10
366.8707003038398
 20
56.59795815557675
 10
361.4332003038398
 20
56.59795815557675
 10
361.4332003038398
 20
69.09795815557675
 10
366.8707003038398
 20
69.09795815557675
  0
LWPOLYLINE
  5
45AA
330
2
100
AcDbEntity
  8
mechanical
100
AcDbPolyline
 90
        2
 70
   128
 43
0.5
 10
361.4332003038398
 20
63.03545815557658
 10
364.7457003038399
 20
63.03545815557658
  0
LWPOLYLINE
  5
45AC
330
2
100
AcDbEntity
  8
mechanical
100
AcDbPolyline
 90
       16
 70
   129
 43
0.5
 10
400.4332003038398
 20
69.09795815557675
 10
399.1207003038399
 20
68.47295815557675
 10
398.3082003038398
 20
66.66045815557669
 10
397.8707003038398
 20
63.72295815557652
 10
397.8707003038398
 20
61.91045815557675
 10
398.3082003038398
 20
58.91045815557664
 10
399.1207003038399
 20
57.16045815557652
 10
400.4332003038398
 20
56.59795815557675
 10
401.2457003038398
 20
56.59795815557675
 10
402.5582003038398
 20
57.16045815557652
 10
403.3082003038398
 20
58.91045815557664
 10
403.6832003038398
 20
61.91045815557675
 10
403.6832003038398
 20
63.72295815557652
 10
403.3082003038398
 20
66.66045815557669
 10
402.5582003038398
 20
68.47295815557675
 10
401.2457003038398
 20
69.09795815557675
  0
LWPOLYLINE
  5
45BC
330
2
100
AcDbEntity
  8
mechanical
100
AcDbPolyline
 90
        4
 70
   128
 43
0.5
 10
407.4957003038398
 20
66.66045815557669
 10
408.3707003038398
 20
67.28545815557669
 10
409.4957003038398
 20
69.09795815557675
 10
409.4957003038398
 20
56.59795815557675
  0
LWPOLYLINE
  5
45BF
330
2
100
AcDbEntity
  8
mechanical
100
AcDbPolyline
 90
       16
 70
   129
 43
0.5
 10
381.4957003038399
 20
69.09795815557675
 10
380.3082003038398
 20
68.47295815557675
 10
379.4957003038399
 20
66.66045815557669
 10
379.0582003038398
 20
63.66045815557658
 10
379.0582003038398
 20
61.91045815557675
 10
379.4957003038399
 20
58.91045815557664
 10
380.3082003038398
 20
57.09795815557658
 10
381.4957003038399
 20
56.59795815557675
 10
382.3082003038398
 20
56.59795815557675
 10
383.6207003038398
 20
57.09795815557658
 10
384.4332003038399
 20
58.91045815557664
 10
384.8707003038398
 20
61.91045815557675
 10
384.8707003038398
 20
63.66045815557658
 10
384.4332003038399
 20
66.66045815557669
 10
383.6207003038398
 20
68.47295815557675
 10
382.3082003038398
 20
69.09795815557675
  0
LWPOLYLINE
  5
45CF
330
2
100
AcDbEntity
  8
mechanical
100
AcDbPolyline
 90
       16
 70
   129
 43
0.5
 10
389.8082003038398
 20
69.09795815557675
 10
388.5582003038398
 20
68.47295815557675
 10
387.7457003038399
 20
66.66045815557669
 10
387.4332003038398
 20
63.66045815557658
 10
387.4332003038398
 20
61.91045815557675
 10
387.7457003038399
 20
58.91045815557664
 10
388.5582003038398
 20
57.09795815557658
 10
389.8082003038398
 20
56.59795815557675
 10
390.6832003038399
 20
56.59795815557675
 10
391.9332003038399
 20
57.09795815557658
 10
392.8082003038398
 20
58.91045815557664
 10
393.2457003038398
 20
61.91045815557675
 10
393.2457003038398
 20
63.66045815557658
 10
392.8082003038398
 20
66.66045815557669
 10
391.9332003038399
 20
68.47295815557675
 10
390.6832003038399
 20
69.09795815557675
  0
LWPOLYLINE
  5
45DF
330
2
100
AcDbEntity
  8
mechanical
100
AcDbPolyline
 90
       17
 70
   128
 43
0.5
 10
435.6832003038398
 20
67.84795815557675
 10
432.3082003038398
 20
67.84795815557675
 10
431.9332003038398
 20
63.59795815557664
 10
432.3082003038398
 20
64.03545815557652
 10
433.3082003038398
 20
64.53545815557664
 10
434.3082003038398
 20
64.53545815557664
 10
435.2457003038398
 20
64.03545815557652
 10
435.9957003038398
 20
63.09795815557652
 10
436.3082003038398
 20
61.72295815557664
 10
436.3082003038398
 20
60.72295815557669
 10
435.9957003038398
 20
59.28545815557658
 10
435.2457003038398
 20
58.28545815557664
 10
434.3082003038398
 20
57.91045815557669
 10
433.3082003038398
 20
57.91045815557669
 10
432.3082003038398
 20
58.28545815557664
 10
431.9332003038398
 20
58.84795815557669
 10
431.6207003038398
 20
59.78545815557669
  0
LWPOLYLINE
  5
45E2
330
2
100
AcDbEntity
  8
mechanical
100
AcDbPolyline
 90
        3
 70
   128
 43
0.5
 10
424.9957003038398
 20
57.91045815557669
 10
427.6207003038398
 20
67.84795815557675
 10
430.2457003038398
 20
57.91045815557669
  0
LWPOLYLINE
  5
45E4
330
2
100
AcDbEntity
  8
mechanical
100
AcDbPolyline
 90
        2
 70
   128
 43
0.5
 10
425.9332003038398
 20
61.16045815557658
 10
429.3082003038398
 20
61.16045815557658
  0
LWPOLYLINE
  5
4607
330
2
100
AcDbEntity
  8
mechanical
100
AcDbPolyline
 90
        4
 70
     1
 43
1.0
 10
318.5582003038399
 20
75.16045815557664
 10
446.8082003038398
 20
75.16045815557664
 10
446.8082003038398
 20
50.03545815557675
 10
318.5582003038399
 20
50.03545815557675
  0
VIEWPORT
  5
17F
102
{ACAD_XDICTIONARY
360
4672
102
}
330
148
100
AcDbEntity
 67
     1
  8
0
  6
Continuous
100
AcDbViewport
 10
539.4629528462933
 20
436.6083350012517
 30
0.0
 40
1387.054359180414
 41
867.4927515749562
 68
     1
 69
     1
 12
539.4629528462933
 22
436.6083350012517
 13
0.0
 23
0.0
 14
10.0
 24
10.0
 15
10.0
 25
10.0
 16
0.0
 26
0.0
 36
1.0
 17
0.0
 27
0.0
 37
0.0
 42
50.0
 43
0.0
 44
0.0
 45
867.4927515749562
 50
0.0
 51
0.0
 72
   100
 90
    32800
  1

281
     0
 71
     1
 74
     0
110
0.0
120
0.0
130
0.0
111
1.0
121
0.0
131
0.0
112
0.0
122
1.0
132
0.0
 79
     0
146
0.0
  0
VIEWPORT
  5
181
102
{ACAD_XDICTIONARY
360
4674
102
}
330
148
100
AcDbEntity
 67
     1
  8
0
  6
Continuous
100
AcDbViewport
 10
573.7436809539794
 20
392.7263202667236
 30
0.0
 40
917.9898895263672
 41
628.3621124267579
 68
     2
 69
     2
 12
454.7134502953538
 22
167.0708391774632
 13
0.0
 23
0.0
 14
1.0
 24
1.0
 15
0.0
 25
0.0
 16
0.0
 26
0.0
 36
1.0
 17
0.0
 27
0.0
 37
0.0
 42
50.0
 43
0.0
 44
0.0
 45
558.6397812350369
 50
0.0
 51
0.0
 72
   100
 90
    32800
  1

281
     0
 71
     1
 74
     0
110
0.0
120
0.0
130
0.0
111
1.0
121
0.0
131
0.0
112
0.0
122
1.0
132
0.0
 79
     1
146
0.0
  0
ENDSEC
  0
SECTION
  2
OBJECTS
  0
DICTIONARY
  5
9
330
0
100
AcDbDictionary
281
     1
  3
ACAD_COLOR
350
162
  3
ACAD_GROUP
350
15E
  3
ACAD_LAYOUT
350
147
  3
ACAD_MATERIAL
350
161
  3
ACAD_MLINESTYLE
350
15F
  3
ACAD_PLOTSETTINGS
350
160
  3
ACAD_PLOTSTYLENAME
350
8
  3
ACAD_TABLESTYLE
350
16D5
  3
ACAD_VISUALSTYLE
350
16C4
  3
AcDbVariableDictionary
350
16B
  3
ADE_QUERY_LIBRARY
350
16EA
  3
ASE_INDEX_DICTIONARY
350
6DB
  3
Autodesk_MAP
350
16D9
  3
DWGPROPS
350
466D
1001
ADE
1000
ADE02C004
1000
[Query]
1000
CaseSensitiveMatch=0
1000
SaveCurrQueryInSession=1
1000
MkSelSetWithQryObj=0
1000
ShowBlockAsInsPt=0
1000
CreateAssociativeHatchObjects=0
1000
ReferenceBoundaryForAreaLocation=1
1000
ShowImageAsBoundary=1
1000
DefaultJoinOperator=2
1000
ColorForAdd=red
1000
ColorForRemove=red
1000
BlockLocnForQuery=1
1000
TextLocnForQuery=1
1000
IncludeAllObjectsInGroups=0
1000
AlwaysUseLibraryDefinitions=0
1000
PreviewDefinitionsFrom=2
1000
[Save Back]
1000
RedefineBlockDefinitions=1
1000
RedefineLayerDefinitions=1
1000
RedefineTextStyleDefinitions=1
1000
RemoveUnusedGroups=1
1000
EraseSavedBackObjects=1
1000
RemoveLockAfterSave=1
1000
CreateHistoryFileOfChanges=0
1000
CreateBackupFileOfSourceDwg=1
1000
DontAddObjectsToSaveSet=0
1000
MarkObjectsForEditingWithoutPrompting=0
1000
FdoDontAddObjsToSvSet=0
1000
FdoEditWithoutPrompt=1
1000
FdoRemUnusedGrps=1
1000
FdoEraseSvdBkObjs=1
1000
FdoRemoveLockOnSave=1
1000
FdoTesselationMaxPointsDistance=0
1000
FdoTesselationMaxCurvesDistance=0
1000
[Coordinate Transformation]
1000
RestoreLastActiveDwgsOnStartup=1
1000
ActivateDwgsOnAttach=1
1000
AdjustSizesAndScalesForChangesInUnits=1
1000
AdjustRotationsForMapDistortions=1
1000
AdjustSizesAndScalesForMapDistortions=1
1000
AdjustElevations=1
1000
AdjustZeroRotationObjects=1
1000
ReconnectDbOnWSOpen=1
1000
NoOfSQLConditionsInHistory=10
  0
DICTIONARY
  5
18FA
330
14E
100
AcDbDictionary
280
     1
281
     1
  3
ACAD_LAYERFILTERS
360
3BAB
  3
ACLYDICTIONARY
360
3BAA
  0
DICTIONARY
  5
3
330
2
100
AcDbDictionary
280
     1
281
     1
  3
ACAD_LAYOUTSELFREF
360
4
  3
ACAD_SORTENTS
360
1703
  0
DICTIONARY
  5
149
330
148
100
AcDbDictionary
280
     1
281
     1
  3
ACAD_LAYOUTSELFREF
360
14A
  0
DICTIONARY
  5
4672
330
17F
100
AcDbDictionary
280
     1
281
     1
  3
ACAD_XREC_ROUNDTRIP
360
4673
  0
DICTIONARY
  5
4674
330
181
100
AcDbDictionary
280
     1
281
     1
  3
ACAD_XREC_ROUNDTRIP
360
4675
  0
DICTIONARY
  5
162
102
{ACAD_REACTORS
330
9
102
}
330
9
100
AcDbDictionary
281
     1
  0
DICTIONARY
  5
15E
102
{ACAD_REACTORS
330
9
102
}
330
9
100
AcDbDictionary
281
     1
  0
DICTIONARY
  5
147
102
{ACAD_REACTORS
330
9
102
}
330
9
100
AcDbDictionary
281
     1
  3
Layout1
350
14D
  3
Model
350
146
  0
DICTIONARY
  5
161
102
{ACAD_REACTORS
330
9
102
}
330
9
100
AcDbDictionary
281
     1
  3
ByBlock
350
16C2
  3
ByLayer
350
16C1
  3
Global
350
16C3
  0
DICTIONARY
  5
15F
102
{ACAD_REACTORS
330
9
102
}
330
9
100
AcDbDictionary
281
     1
  3
STANDARD
350
163
  0
DICTIONARY
  5
160
102
{ACAD_REACTORS
330
9
102
}
330
9
100
AcDbDictionary
281
     1
  0
ACDBDICTIONARYWDFLT
  5
8
102
{ACAD_REACTORS
330
9
102
}
330
9
100
AcDbDictionary
281
     1
  3
Normal
350
7
100
AcDbDictionaryWithDefault
340
7
  0
DICTIONARY
  5
16D5
102
{ACAD_REACTORS
330
9
102
}
330
9
100
AcDbDictionary
281
     1
  3
Legend
350
16DF
  3
Standard
350
16D6
  0
DICTIONARY
  5
16C4
102
{ACAD_REACTORS
330
9
102
}
330
9
100
AcDbDictionary
281
     1
  3
2dWireframe
350
16CA
  3
3D Hidden
350
16CC
  3
3dWireframe
350
16CB
  3
Basic
350
16C9
  3
Brighten
350
16D0
  3
ColorChange
350
16D4
  3
Conceptual
350
16CD
  3
Dim
350
16CF
  3
Facepattern
350
16D3
  3
Flat
350
16C5
  3
FlatWithEdges
350
16C6
  3
Gouraud
350
16C7
  3
GouraudWithEdges
350
16C8
  3
Linepattern
350
16D2
  3
Realistic
350
16CE
  3
Thicken
350
16D1
  0
DICTIONARY
  5
16B
102
{ACAD_REACTORS
330
9
102
}
330
9
100
AcDbDictionary
281
     1
  3
CTABLESTYLE
350
16ED
  3
DIMASSOC
350
16D
  3
HIDETEXT
350
16C
  3
INDEXCTL
350
466C
  3
PROJECTNAME
350
16E
  3
SORTENTS
350
7B5
  0
DICTIONARY
  5
16EA
102
{ACAD_REACTORS
330
9
102
}
330
9
100
AcDbDictionary
281
     1
  3
_CurrQry
350
466B
  0
DICTIONARY
  5
6DB
102
{ACAD_REACTORS
330
9
102
}
330
9
100
AcDbDictionary
281
     1
  3
ASEBlockHierarchyIndexRecord
350
6DC
1001
DCO15
1040
1584427721.708
  0
DICTIONARY
  5
16D9
102
{ACAD_REACTORS
330
9
102
}
330
9
100
AcDbDictionary
281
     1
  3
AcMapDMStylizedEntities
350
16E6
  3
FSD_Dictionary
350
16E7
  3
MAP_DISPLAY_CUSTOMOBJ_REG_TABLE
350
16DD
  3
MAP_DISPLAY_MANAGEMENT_DICTIONARY
350
16DA
  3
MAP_DISPLAY_STYLELIBRARY_DICTIONARY
350
16DB
1001
MapGWS
1000
C:\Documents and Settings\All Users\Application Data\Autodesk\Autodesk Map 3D 2007\R17.0\MapCache\ATLICE-A5GWS1234567891011121314151617.xml
  0
XRECORD
  5
466D
102
{ACAD_REACTORS
330
9
102
}
330
9
100
AcDbXrecord
280
     1
  1
DWGPROPS COOKIE
  2

  3

  4

  6

  7

  8
janez
  9

300
=
301
=
302
=
303
=
304
=
305
=
306
=
307
=
308
=
309
=
 40
1.399117199074074
 41
2311946.475710706
 42
2454141.495667917
  1

 90
        0
  0
DICTIONARY
  5
3BAB
102
{ACAD_REACTORS
330
18FA
102
}
330
18FA
100
AcDbDictionary
281
     1
  0
DICTIONARY
  5
3BAA
102
{ACAD_REACTORS
330
18FA
102
}
330
18FA
100
AcDbDictionary
281
     1
1001
ACAD
1000
<All
  0
XRECORD
  5
4
102
{ACAD_REACTORS
330
3
102
}
330
3
100
AcDbXrecord
280
     1
340
2
  0
SORTENTSTABLE
  5
1703
102
{ACAD_REACTORS
330
3
102
}
330
3
100
AcDbSortentsTable
330
2
331
2740
  5
2741
331
298E
  5
3A47
331
2996
  5
3AB8
331
27D0
  5
2967
331
28FF
  5
3A33
331
27D8
  5
391D
331
3B2E
  5
3B2E
331
2947
  5
3A3C
331
2860
  5
3928
331
2739
  5
273A
331
2987
  5
3A40
331
3EE4
  5
44DB
331
4594
  5
4557
331
45AC
  5
3F00
331
3AB8
  5
3AC2
331
3B0F
  5
3B10
331
3AC0
  5
3ACA
331
3AC8
  5
3AE9
331
2868
  5
39C3
331
2741
  5
2742
331
298F
  5
3A48
331
2997
  5
3AB9
331
27D1
  5
3857
331
2900
  5
3A34
331
27D9
  5
391E
331
45BC
  5
3F02
331
3B2F
  5
3B2F
331
3B37
  5
3B37
331
2930
  5
3A3B
331
2948
  5
3A3D
331
2861
  5
3929
331
273A
  5
273B
331
3AF8
  5
3AF9
331
3B96
  5
3B91
331
3AB9
  5
3AC3
331
3AC1
  5
3ACB
331
3B10
  5
3B11
331
3AC9
  5
3AEA
331
2869
  5
39CA
331
2742
  5
2743
331
2988
  5
3A41
331
2990
  5
3A4D
331
28F9
  5
39D6
331
2998
  5
3ABA
331
27D2
  5
3858
331
2901
  5
3A36
331
3B30
  5
3B30
331
3B38
  5
3B38
331
285A
  5
3922
331
2862
  5
392A
331
273B
  5
273C
331
4596
  5
4559
331
3AF9
  5
3B0D
331
3ABA
  5
3AC4
331
3AC2
  5
3ACE
331
3B11
  5
3B12
331
3ACA
  5
3AEB
331
286A
  5
39CE
331
2743
  5
2744
331
2989
  5
3A42
331
2991
  5
3A4E
331
28FA
  5
39DA
331
2999
  5
3ABC
331
27D3
  5
3906
331
2902
  5
3A37
331
3B29
  5
3B29
331
3B31
  5
3B31
331
3B39
  5
3B39
331
281B
  5
3920
331
285B
  5
3923
331
2863
  5
392B
331
273C
  5
273D
331
458F
  5
4552
331
4597
  5
455A
331
3ABB
  5
3AC5
331
3AC3
  5
3ACF
331
3B12
  5
3B13
331
3ACB
  5
3AEC
331
286B
  5
39CF
331
2744
  5
2745
331
298A
  5
3A43
331
2992
  5
3A75
331
28FB
  5
39DE
331
27D4
  5
3907
331
2903
  5
3A38
331
45BF
  5
456F
331
45CF
  5
457F
331
45DF
  5
4517
331
3B2A
  5
3B2A
331
3B32
  5
3B32
331
2804
  5
391F
331
281C
  5
3921
331
285C
  5
3924
331
2864
  5
392C
331
273D
  5
273E
331
45A8
  5
456C
331
3A75
  5
3ABE
331
3ABC
  5
3AC6
331
3AC4
  5
3ADF
331
3B13
  5
3B14
331
286C
  5
39D0
331
2745
  5
2746
331
298B
  5
3A44
331
2993
  5
3AA6
331
27CD
  5
28F7
331
28FC
  5
3A02
331
27D5
  5
3908
331
2904
  5
3A39
331
3B2B
  5
3B2B
331
3B33
  5
3B33
331
3AF4
  5
3AF6
331
285D
  5
3925
331
2736
  5
2736
331
3833
  5
28D7
331
2865
  5
39BA
331
273E
  5
273F
331
45E2
  5
44F3
331
4591
  5
4554
331
3ABD
  5
3AC7
331
3AC5
  5
3AE0
331
3B14
  5
3B15
331
286D
  5
39D2
331
2746
  5
2747
331
298C
  5
3A45
331
2994
  5
3AB6
331
27CE
  5
28FB
331
28FD
  5
3A0E
331
27D6
  5
3909
331
2905
  5
3A3A
331
3B7B
  5
3B92
331
3B2C
  5
3B2C
331
3AA6
  5
3ABF
331
285E
  5
3926
331
2737
  5
2737
331
2866
  5
39BC
331
273F
  5
2740
331
2985
  5
3A3E
331
394C
  5
28D6
331
4592
  5
4555
331
3AB6
  5
3AC0
331
45AA
  5
456D
331
3B0D
  5
3B0E
331
3ABE
  5
3AC8
331
3AC6
  5
3AE1
331
3ACE
  5
3AEF
331
286E
  5
39D4
331
2747
  5
2761
331
298D
  5
3A46
331
2995
  5
3AB7
331
27CF
  5
28FF
331
28FE
  5
3A0F
331
27D7
  5
390B
331
3B2D
  5
3B2D
331
3AF6
  5
3AF8
331
285F
  5
3927
331
2867
  5
39BE
331
2986
  5
3A3F
331
45E4
  5
4505
331
4593
  5
4556
331
3AB7
  5
3AC1
331
3B0E
  5
3B0F
331
3ABF
  5
3AC9
331
3AC7
  5
3AE2
331
3ACF
  5
3AF3
  0
XRECORD
  5
14A
102
{ACAD_REACTORS
330
149
102
}
330
149
100
AcDbXrecord
280
     1
340
148
  0
XRECORD
  5
4673
102
{ACAD_REACTORS
330
4672
102
}
330
4672
100
AcDbXrecord
280
     1
102
SHADEPLOT
 70
     0
  0
XRECORD
  5
4675
102
{ACAD_REACTORS
330
4674
102
}
330
4674
100
AcDbXrecord
280
     1
102
SHADEPLOT
 70
     0
  0
LAYOUT
  5
14D
102
{ACAD_XDICTIONARY
360
4670
102
}
102
{ACAD_REACTORS
330
147
102
}
330
147
100
AcDbPlotSettings
  1

  2
\\ris\laserc
  4
A4
  6

 40
6.805083274841308
 41
5.069413185119628
 42
6.805084228515625
 43
5.027069091796875
 44
209.9733276367187
 45
296.9683227539062
 46
0.0
 47
0.0
 48
0.0
 49
0.0
140
0.0
141
0.0
142
1.0
143
4.0
 70
   688
 72
     1
 73
     1
 74
     5
  7
monochrome.ctb
 75
    18
147
0.25
148
0.0
149
0.0
100
AcDbLayout
  1
Layout1
 70
     0
 71
     1
 10
-20.1082763671875
 20
-27.22033309936524
 11
1167.765014648437
 21
812.6729774475098
 12
0.0
 22
0.0
 32
0.0
 14
114.7487361907958
 24
78.54526405334468
 34
0.0
 15
1032.738625717163
 25
706.9073764801025
 35
0.0
146
0.0
 13
0.0
 23
0.0
 33
0.0
 16
1.0
 26
0.0
 36
0.0
 17
0.0
 27
1.0
 37
0.0
 76
     0
330
148
331
17F
  0
LAYOUT
  5
146
102
{ACAD_XDICTIONARY
360
466E
102
}
102
{ACAD_REACTORS
330
147
102
}
330
147
100
AcDbPlotSettings
  1

  2
\\ris\laserc
  4
A4
  6

 40
6.805083274841308
 41
5.069413185119628
 42
6.805084228515625
 43
5.027069091796875
 44
209.9733276367187
 45
296.9683227539062
 46
11.4
 47
35.65
 48
36.08173645326978
 49
39.13963998603622
140
251.6490471755318
141
212.6978016188405
142
1.0
143
1.0
 70
 11956
 72
     1
 73
     1
 74
     4
  7
monochrome.ctb
 75
    16
147
1.0
148
-36.08173645326978
149
-39.13963998603622
100
AcDbLayout
  1
Model
 70
     1
 71
     0
 10
0.0
 20
0.0
 11
12.0
 21
9.0
 12
0.0
 22
0.0
 32
0.0
 14
0.0
 24
0.0
 34
0.0
 15
0.0
 25
0.0
 35
0.0
146
0.0
 13
0.0
 23
0.0
 33
0.0
 16
1.0
 26
0.0
 36
0.0
 17
0.0
 27
1.0
 37
0.0
 76
     0
330
2
331
16BF
  0
MATERIAL
  5
16C2
102
{ACAD_XDICTIONARY
360
4678
102
}
102
{ACAD_REACTORS
330
161
102
}
330
161
100
AcDbMaterial
  1
ByBlock
  0
MATERIAL
  5
16C1
102
{ACAD_XDICTIONARY
360
4676
102
}
102
{ACAD_REACTORS
330
161
102
}
330
161
100
AcDbMaterial
  1
ByLayer
  0
MATERIAL
  5
16C3
102
{ACAD_XDICTIONARY
360
467A
102
}
102
{ACAD_REACTORS
330
161
102
}
330
161
100
AcDbMaterial
  1
Global
  0
MLINESTYLE
  5
163
102
{ACAD_REACTORS
330
15F
102
}
330
15F
100
AcDbMlineStyle
  2
STANDARD
 70
     0
  3

 62
     0
 51
90.0
 52
90.0
 71
     2
 49
0.5
 62
   256
  6
BYLAYER
 49
-0.5
 62
   256
  6
BYLAYER
  0
ACDBPLACEHOLDER
  5
7
102
{ACAD_REACTORS
330
8
102
}
330
8
  0
TABLESTYLE
  5
16DF
102
{ACAD_XDICTIONARY
360
467E
102
}
102
{ACAD_REACTORS
330
16D5
102
}
330
16D5
100
AcDbTableStyle
  3

 70
     0
 71
     1
 40
0.06
 41
0.06
280
     0
281
     0
  7
STANDARD
140
0.4
170
     4
 62
     0
 63
     7
283
     0
274
    -2
284
     0
 64
     0
275
    -2
285
     0
 65
     0
276
    -2
286
     1
 66
     0
277
    -2
287
     1
 67
     0
278
    -2
288
     0
 68
     0
279
    -2
289
     1
 69
     0
  7
STANDARD
140
0.5
170
     5
 62
     0
 63
     7
283
     0
274
    -2
284
     1
 64
     0
275
    -2
285
     0
 65
     0
276
    -2
286
     1
 66
     0
277
    -2
287
     1
 67
     0
278
    -2
288
     0
 68
     0
279
    -2
289
     1
 69
     0
  7
STANDARD
140
0.4
170
     4
 62
     0
 63
     7
283
     0
274
    -2
284
     1
 64
     0
275
    -2
285
     0
 65
     0
276
    -2
286
     1
 66
     0
277
    -2
287
     1
 67
     0
278
    -2
288
     0
 68
     0
279
    -2
289
     1
 69
     0
  0
TABLESTYLE
  5
16D6
102
{ACAD_XDICTIONARY
360
467C
102
}
102
{ACAD_REACTORS
330
16D5
102
}
330
16D5
100
AcDbTableStyle
  3
Standard
 70
     0
 71
     0
 40
1.5
 41
1.5
280
     0
281
     0
  7
STANDARD
140
4.5
170
     2
 62
     0
 63
     7
283
     0
274
    -2
284
     1
 64
     0
275
    -2
285
     1
 65
     0
276
    -2
286
     1
 66
     0
277
    -2
287
     1
 67
     0
278
    -2
288
     1
 68
     0
279
    -2
289
     1
 69
     0
  7
STANDARD
140
6.0
170
     5
 62
     0
 63
     7
283
     0
274
    -2
284
     1
 64
     0
275
    -2
285
     1
 65
     0
276
    -2
286
     1
 66
     0
277
    -2
287
     1
 67
     0
278
    -2
288
     1
 68
     0
279
    -2
289
     1
 69
     0
  7
STANDARD
140
4.5
170
     5
 62
     0
 63
     7
283
     0
274
    -2
284
     1
 64
     0
275
    -2
285
     1
 65
     0
276
    -2
286
     1
 66
     0
277
    -2
287
     1
 67
     0
278
    -2
288
     1
 68
     0
279
    -2
289
     1
 69
     0
  0
VISUALSTYLE
  5
16CA
102
{ACAD_REACTORS
330
16C4
102
}
330
16C4
100
AcDbVisualStyle
  2
2dWireframe
 70
     4
 71
     0
 72
     2
 73
     0
 90
        0
 40
-0.6
 41
-30.0
 62
     5
 63
     7
 74
     1
 91
        4
 64
     7
 65
   257
 75
     1
175
     1
 42
1.0
 92
        0
 66
   257
 43
1.0
 76
     1
 77
     6
 78
     2
 67
     7
 79
     5
170
     0
171
     0
290
     0
174
     0
 93
        1
 44
0.0
173
     0
291
     0
 45
0.0
1001
ACAD
1000
AcDbSavedByObjectVersion
1070
     0
  0
VISUALSTYLE
  5
16CC
102
{ACAD_REACTORS
330
16C4
102
}
330
16C4
100
AcDbVisualStyle
  2
3D Hidden
 70
     6
 71
     1
 72
     2
 73
     2
 90
        0
 40
-0.6
 41
-30.0
 62
     5
 63
     7
 74
     2
 91
        2
 64
     7
 65
   257
 75
     2
175
     1
 42
40.0
 92
        0
 66
   257
 43
1.0
 76
     1
 77
     6
 78
     2
 67
     7
 79
     3
170
     0
171
     0
290
     0
174
     0
 93
        1
 44
0.0
173
     0
291
     0
 45
0.0
1001
ACAD
1000
AcDbSavedByObjectVersion
1070
     0
  0
VISUALSTYLE
  5
16CB
102
{ACAD_REACTORS
330
16C4
102
}
330
16C4
100
AcDbVisualStyle
  2
3dWireframe
 70
     5
 71
     0
 72
     2
 73
     0
 90
        0
 40
-0.6
 41
-30.0
 62
     5
 63
     7
 74
     1
 91
        4
 64
     7
 65
   257
 75
     1
175
     1
 42
1.0
 92
        0
 66
   257
 43
1.0
 76
     1
 77
     6
 78
     2
 67
     7
 79
     5
170
     0
171
     0
290
     0
174
     0
 93
        1
 44
0.0
173
     0
291
     0
 45
0.0
1001
ACAD
1000
AcDbSavedByObjectVersion
1070
     0
  0
VISUALSTYLE
  5
16C9
102
{ACAD_REACTORS
330
16C4
102
}
330
16C4
100
AcDbVisualStyle
  2
Basic
 70
     7
 71
     1
 72
     0
 73
     1
 90
        0
 40
-0.6
 41
-30.0
 62
     5
 63
     7
 74
     0
 91
        4
 64
     7
 65
   257
 75
     1
175
     1
 42
1.0
 92
        8
 66
     7
 43
1.0
 76
     1
 77
     6
 78
     2
 67
     7
 79
     5
170
     0
171
     0
290
     0
174
     0
 93
        1
 44
0.0
173
     0
291
     1
 45
0.0
1001
ACAD
1000
AcDbSavedByObjectVersion
1070
     0
  0
VISUALSTYLE
  5
16D0
102
{ACAD_REACTORS
330
16C4
102
}
330
16C4
100
AcDbVisualStyle
  2
Brighten
 70
    12
 71
     2
 72
     2
 73
     0
 90
        0
 40
-0.6
 41
-30.0
 62
     5
 63
     7
 74
     1
 91
        4
 64
     7
 65
   257
 75
     1
175
     1
 42
1.0
 92
        8
 66
     7
 43
1.0
 76
     1
 77
     6
 78
     2
 67
     7
 79
     5
170
     0
171
     0
290
     0
174
     0
 93
        1
 44
50.0
173
     0
291
     1
 45
0.0
1001
ACAD
1000
AcDbSavedByObjectVersion
1070
     0
  0
VISUALSTYLE
  5
16D4
102
{ACAD_REACTORS
330
16C4
102
}
330
16C4
100
AcDbVisualStyle
  2
ColorChange
 70
    16
 71
     2
 72
     2
 73
     3
 90
        0
 40
-0.6
 41
-30.0
 62
     5
 63
     8
 74
     1
 91
        4
 64
     7
 65
   257
 75
     1
175
     1
 42
1.0
 92
        8
 66
     8
 43
1.0
 76
     1
 77
     6
 78
     2
 67
     7
 79
     5
170
     0
171
     0
290
     0
174
     0
 93
        1
 44
0.0
173
     0
291
     1
 45
0.0
1001
ACAD
1000
AcDbSavedByObjectVersion
1070
     0
  0
VISUALSTYLE
  5
16CD
102
{ACAD_REACTORS
330
16C4
102
}
330
16C4
100
AcDbVisualStyle
  2
Conceptual
 70
     9
 71
     3
 72
     2
 73
     0
 90
        0
 40
-0.6
 41
-30.0
 62
     5
 63
     7
 74
     2
 91
        2
 64
     7
 65
   257
 75
     1
175
     1
 42
40.0
 92
        8
 66
     7
 43
1.0
 76
     1
 77
     6
 78
     2
 67
     7
 79
     3
170
     0
171
     0
290
     0
174
     0
 93
        1
 44
0.0
173
     0
291
     0
 45
0.0
1001
ACAD
1000
AcDbSavedByObjectVersion
1070
     0
  0
VISUALSTYLE
  5
16CF
102
{ACAD_REACTORS
330
16C4
102
}
330
16C4
100
AcDbVisualStyle
  2
Dim
 70
    11
 71
     2
 72
     2
 73
     0
 90
        0
 40
-0.6
 41
-30.0
 62
     5
 63
     7
 74
     1
 91
        4
 64
     7
 65
   257
 75
     1
175
     1
 42
1.0
 92
        8
 66
     7
 43
1.0
 76
     1
 77
     6
 78
     2
 67
     7
 79
     5
170
     0
171
     0
290
     0
174
     0
 93
        1
 44
-50.0
173
     0
291
     1
 45
0.0
1001
ACAD
1000
AcDbSavedByObjectVersion
1070
     0
  0
VISUALSTYLE
  5
16D3
102
{ACAD_REACTORS
330
16C4
102
}
330
16C4
100
AcDbVisualStyle
  2
Facepattern
 70
    15
 71
     2
 72
     2
 73
     0
 90
        0
 40
-0.6
 41
-30.0
 62
     5
 63
     7
 74
     1
 91
        4
 64
     7
 65
   257
 75
     1
175
     1
 42
1.0
 92
        8
 66
     7
 43
1.0
 76
     1
 77
     6
 78
     2
 67
     7
 79
     5
170
     0
171
     0
290
     0
174
     0
 93
        1
 44
0.0
173
     0
291
     1
 45
0.0
1001
ACAD
1000
AcDbSavedByObjectVersion
1070
     0
  0
VISUALSTYLE
  5
16C5
102
{ACAD_REACTORS
330
16C4
102
}
330
16C4
100
AcDbVisualStyle
  2
Flat
 70
     0
 71
     2
 72
     1
 73
     1
 90
        2
 40
-0.6
 41
30.0
 62
     5
 63
     7
 74
     0
 91
        4
 64
     7
 65
   257
 75
     1
175
     1
 42
1.0
 92
        8
 66
     7
 43
1.0
 76
     1
 77
     6
 78
     2
 67
     7
 79
     5
170
     0
171
     0
290
     0
174
     0
 93
       13
 44
0.0
173
     0
291
     1
 45
0.0
1001
ACAD
1000
AcDbSavedByObjectVersion
1070
     0
  0
VISUALSTYLE
  5
16C6
102
{ACAD_REACTORS
330
16C4
102
}
330
16C4
100
AcDbVisualStyle
  2
FlatWithEdges
 70
     1
 71
     2
 72
     1
 73
     1
 90
        2
 40
-0.6
 41
30.0
 62
     5
 63
     7
 74
     1
 91
        4
 64
     7
 65
   257
 75
     1
175
     1
 42
1.0
 92
        0
 66
   257
 43
1.0
 76
     1
 77
     6
 78
     2
 67
     7
 79
     5
170
     0
171
     0
290
     0
174
     0
 93
       13
 44
0.0
173
     0
291
     1
 45
0.0
1001
ACAD
1000
AcDbSavedByObjectVersion
1070
     0
  0
VISUALSTYLE
  5
16C7
102
{ACAD_REACTORS
330
16C4
102
}
330
16C4
100
AcDbVisualStyle
  2
Gouraud
 70
     2
 71
     2
 72
     2
 73
     1
 90
        2
 40
-0.6
 41
30.0
 62
     5
 63
     7
 74
     0
 91
        4
 64
     7
 65
   257
 75
     1
175
     1
 42
1.0
 92
        0
 66
     7
 43
1.0
 76
     1
 77
     6
 78
     2
 67
     7
 79
     5
170
     0
171
     0
290
     0
174
     0
 93
       13
 44
0.0
173
     0
291
     1
 45
0.0
1001
ACAD
1000
AcDbSavedByObjectVersion
1070
     0
  0
VISUALSTYLE
  5
16C8
102
{ACAD_REACTORS
330
16C4
102
}
330
16C4
100
AcDbVisualStyle
  2
GouraudWithEdges
 70
     3
 71
     2
 72
     2
 73
     1
 90
        2
 40
-0.6
 41
30.0
 62
     5
 63
     7
 74
     1
 91
        4
 64
     7
 65
   257
 75
     1
175
     1
 42
1.0
 92
        0
 66
   257
 43
1.0
 76
     1
 77
     6
 78
     2
 67
     7
 79
     5
170
     0
171
     0
290
     0
174
     0
 93
       13
 44
0.0
173
     0
291
     1
 45
0.0
1001
ACAD
1000
AcDbSavedByObjectVersion
1070
     0
  0
VISUALSTYLE
  5
16D2
102
{ACAD_REACTORS
330
16C4
102
}
330
16C4
100
AcDbVisualStyle
  2
Linepattern
 70
    14
 71
     2
 72
     2
 73
     0
 90
        0
 40
-0.6
 41
-30.0
 62
     5
 63
     7
 74
     1
 91
        4
 64
     7
 65
   257
 75
     7
175
     7
 42
1.0
 92
        8
 66
     7
 43
1.0
 76
     1
 77
     6
 78
     2
 67
     7
 79
     5
170
     0
171
     0
290
     0
174
     0
 93
        1
 44
0.0
173
     0
291
     1
 45
0.0
1001
ACAD
1000
AcDbSavedByObjectVersion
1070
     0
  0
VISUALSTYLE
  5
16CE
102
{ACAD_REACTORS
330
16C4
102
}
330
16C4
100
AcDbVisualStyle
  2
Realistic
 70
     8
 71
     2
 72
     2
 73
     0
 90
        0
 40
-0.6
 41
-30.0
 62
     5
 63
     7
 74
     1
 91
        0
 64
     7
 65
   257
 75
     1
175
     1
 42
1.0
 92
        8
 66
     8
 43
1.0
 76
     1
 77
     6
 78
     2
 67
     7
 79
     5
170
     0
171
     0
290
     0
174
     0
 93
       13
 44
0.0
173
     0
291
     0
 45
0.0
1001
ACAD
1000
AcDbSavedByObjectVersion
1070
     0
  0
VISUALSTYLE
  5
16D1
102
{ACAD_REACTORS
330
16C4
102
}
330
16C4
100
AcDbVisualStyle
  2
Thicken
 70
    13
 71
     2
 72
     2
 73
     0
 90
        0
 40
-0.6
 41
-30.0
 62
     5
 63
     7
 74
     1
 91
        4
 64
     7
 65
   257
 75
     1
175
     1
 42
1.0
 92
       12
 66
     7
 43
1.0
 76
     1
 77
     6
 78
     2
 67
     7
 79
     5
170
     0
171
     0
290
     0
174
     0
 93
        1
 44
0.0
173
     0
291
     1
 45
0.0
1001
ACAD
1000
AcDbSavedByObjectVersion
1070
     0
  0
DICTIONARYVAR
  5
16ED
102
{ACAD_REACTORS
330
16B
102
}
330
16B
100
DictionaryVariables
280
     0
  1
STANDARD
  0
DICTIONARYVAR
  5
16D
102
{ACAD_REACTORS
330
16B
102
}
330
16B
100
DictionaryVariables
280
     0
  1
1
  0
DICTIONARYVAR
  5
16C
102
{ACAD_REACTORS
330
16B
102
}
330
16B
100
DictionaryVariables
280
     0
  1
1
  0
DICTIONARYVAR
  5
466C
102
{ACAD_REACTORS
330
16B
102
}
330
16B
100
DictionaryVariables
280
     0
  1
0
  0
DICTIONARYVAR
  5
16E
102
{ACAD_REACTORS
330
16B
102
}
330
16B
100
DictionaryVariables
280
     0
  1

  0
DICTIONARYVAR
  5
7B5
102
{ACAD_REACTORS
330
16B
102
}
330
16B
100
DictionaryVariables
280
     0
  1
96
  0
XRECORD
  5
466B
102
{ACAD_REACTORS
330
16EA
102
}
330
16EA
100
AcDbXrecord
280
     1
1000
ADE02C001
1070
     1
1070
     0
1002
{
1002
}
1002
{
1002
}
1002
{
1002
}
1000

  0
XRECORD
  5
6DC
102
{ACAD_REACTORS
330
6DB
102
}
330
6DB
100
AcDbXrecord
280
     1
  0
DMSTYLIZEDENTITIESTABLE
  5
16E6
102
{ACAD_REACTORS
330
16D9
102
}
330
16D9
100
AcMapDMStylizedEntitiesTable
 70
     1
  0
DICTIONARY
  5
16E7
102
{ACAD_REACTORS
330
16D9
102
}
330
16D9
100
AcDbDictionary
280
     1
281
     1
  0
ACDBDATATABLE
  5
16DD
102
{ACAD_REACTORS
330
16D9
102
}
330
16D9
100
ACDBDATATABLE
 70
     2
 90
        4
 91
       15
  1

 92
        3
  2
OriginalClassName
  3
AcMapDMDefaultStyle
  3
AcMapDMEntityStyle
  3
AcMapDMRasterStyle
  3
AcMapDMSEAnnotationStyle
  3
AcMapDMSEHatchStyle
  3
AcMapDMSETextStyle
  3
AcMapDMThematicStyle
  3
AcMapDMBaseElement
  3
AcMapDMAttachedDwgsQueryElement
  3
AcMapDMFeatureElement
  3
AcMapDMLayerElement
  3
AcMapDMCurrentDwgQueryElement
  3
AcMapDMRasterElement
  3
AcMapDMTopoElement
  3
AcMapDMTopoQueryElement
 92
        3
  2
ProxyDisplayName
  3
Default
  3
Entity
  3
Raster
  3
Annotation
  3
Hatch
  3
Text
  3
Thematic
  3
Map Base
  3
Ade Query
  3
Feature Class
  3
Layer
  3
Ade Project Query
  3
Raster
  3
Topology
  3
Topology Query
 92
        1
  2
CustomObjectType
 93
        2
 93
        2
 93
        2
 93
        2
 93
        2
 93
        2
 93
        2
 93
        1
 93
        1
 93
        1
 93
        1
 93
        1
 93
        1
 93
        1
 93
        1
 92
        1
  2
StyleCoExistanceType
 93
        1
 93
        1
 93
        1
 93
        1
 93
        1
 93
        1
 93
        2
 93
        0
 93
        0
 93
        0
 93
        0
 93
        0
 93
        0
 93
        0
 93
        0
  0
DMMAPMANAGER
  5
16DA
102
{ACAD_REACTORS
330
16D9
102
}
330
16D9
100
AcDbDictionary
281
     1
  3
DisplayMap1
350
16DE
100
AcDbDictionaryWithDefault
340
16DE
100
AcMapDMMapManager
 70
     1
340
16DE
  0
DMSTYLELIBRARY
  5
16DB
102
{ACAD_REACTORS
330
16D9
102
}
330
16D9
100
AcMapDMStyleLibrary
 70
     1
 70
     1
360
16DC
  0
DICTIONARY
  5
4670
330
14D
100
AcDbDictionary
280
     1
281
     1
  3
ACAD_XREC_ROUNDTRIP
360
4671
  0
DICTIONARY
  5
466E
330
146
100
AcDbDictionary
280
     1
281
     1
  3
ACAD_XREC_ROUNDTRIP
360
466F
  0
DICTIONARY
  5
4678
330
16C2
100
AcDbDictionary
280
     1
281
     1
  3
ACAD_XREC_ROUNDTRIP
360
4679
  0
DICTIONARY
  5
4676
330
16C1
100
AcDbDictionary
280
     1
281
     1
  3
ACAD_XREC_ROUNDTRIP
360
4677
  0
DICTIONARY
  5
467A
330
16C3
100
AcDbDictionary
280
     1
281
     1
  3
ACAD_XREC_ROUNDTRIP
360
467B
  0
DICTIONARY
  5
467E
330
16DF
100
AcDbDictionary
280
     1
281
     1
  3
ACAD_XREC_ROUNDTRIP
360
467F
  0
DICTIONARY
  5
467C
330
16D6
100
AcDbDictionary
280
     1
281
     1
  3
ACAD_XREC_ROUNDTRIP
360
467D
  0
DMMAP
  5
16DE
102
{ACAD_REACTORS
330
16DA
330
16E0
102
}
330
16DA
100
AcMapDMMap
 70
     1
  1
Default
 70
     1
330
0
100
AcMapDMMap
 70
     1
 90
        1
360
16E0
 90
        1
 40
1.797693134862314E+99
 70
     1
100
AcMapDMMap
 70
     2
 70
     0
 40
1.797693134862314E+99
290
     1
290
     1
 40
1.0
 40
3.0
  1
Legend
 90
        1
 40
1.797693134862314E+99
  1

 70
     0
 40
1.0
 70
     1
 90
        0
 90
        1
360
16E1
  0
DMSTYLECATEGORY
  5
16DC
102
{ACAD_REACTORS
330
16DB
102
}
330
0
100
AcMapDMStyleCategory
 70
     1
  1
Display Styles
 70
     0
  0
XRECORD
  5
4671
102
{ACAD_REACTORS
330
4670
102
}
330
4670
100
AcDbXrecord
280
     1
102
SHADEPLOT
 70
     0
102
SHADEPLOTRESLEVEL
 70
     2
102
SHADEPLOTCUSTOMDPI
 70
   300
  0
XRECORD
  5
466F
102
{ACAD_REACTORS
330
466E
102
}
330
466E
100
AcDbXrecord
280
     1
102
SHADEPLOT
 70
     0
102
SHADEPLOTRESLEVEL
 70
     2
102
SHADEPLOTCUSTOMDPI
 70
   300
  0
XRECORD
  5
4679
102
{ACAD_REACTORS
330
4678
102
}
330
4678
100
AcDbXrecord
280
     1
102
MATERIAL
148
0.0
149
0.0
149
0.0
 93
        0
 94
       63
282
     0
 72
     1
 77
     1
171
     1
175
     1
179
     1
273
     0
  0
XRECORD
  5
4677
102
{ACAD_REACTORS
330
4676
102
}
330
4676
100
AcDbXrecord
280
     1
102
MATERIAL
148
0.0
149
0.0
149
0.0
 93
        0
 94
       63
282
     0
 72
     1
 77
     1
171
     1
175
     1
179
     1
273
     0
  0
XRECORD
  5
467B
102
{ACAD_REACTORS
330
467A
102
}
330
467A
100
AcDbXrecord
280
     1
102
MATERIAL
148
0.0
149
0.0
149
0.0
 93
        0
 94
       63
282
     0
 72
     1
 77
     1
171
     1
175
     1
179
     1
273
     0
  0
XRECORD
  5
467F
102
{ACAD_REACTORS
330
467E
102
}
330
467E
100
AcDbXrecord
280
     1
102
ACAD_ROUNDTRIP_PRE2007_TABLESTYLE
 90
      512
 91
        0
  1

 92
      512
 93
        0
  2

 94
      512
 95
        0
  3

  0
XRECORD
  5
467D
102
{ACAD_REACTORS
330
467C
102
}
330
467C
100
AcDbXrecord
280
     1
102
ACAD_ROUNDTRIP_PRE2007_TABLESTYLE
 90
      512
 91
        0
  1

 92
      512
 93
        0
  2

 94
      512
 95
        0
  3

  0
DMBASEELEMENT
  5
16E0
102
{ACAD_XDICTIONARY
360
16E4
102
}
102
{ACAD_REACTORS
330
16DE
102
}
330
16DE
100
AcMapDMBaseElement
 70
     1
  1
Map Base
 70
     1
330
16DE
100
AcMapDMBaseElement
 70
     1
  1

 70
     2
  1

 70
     1
 40
1.797693134862314E+99
 70
     1
 70
     1
 70
     1
 70
     1
360
16E3
100
AcMapDMBaseElement
 70
     1
  0
DMDEFAULTSTYLE
  5
16E1
102
{ACAD_REACTORS
330
16DE
102
}
330
16DE
100
AcMapDMDefaultStyle
 70
     1
 90
        1
  1
Default
100
AcMapDMDefaultStyle
 70
     1
280
   100
 90
     0
1001
AcMapDMDisplayStyleRegapp
1070
     2
1071
        1
1000
Default
1000

  0
DICTIONARY
  5
16E4
330
16E0
100
AcDbDictionary
280
     1
281
     1
  3
AcMapDMSurrogateStyleSets
360
16E5
  0
DMSTYLEREFERENCE
  5
16E3
330
16E0
100
AcMapDMStyleReference
 70
     1
 70
     0
340
16E1
330
16DE
  0
DMSURROGATESTYLESETS
  5
16E5
102
{ACAD_REACTORS
330
16E4
102
}
330
16E4
100
AcMapDMSurrogateStyleSets
 70
     1
  1
Map Base
 70
     1
 40
1.797693134862314E+99
 70
     1
 70
     1
 70
     1
 70
     1
330
16E3
 70
     0
  0
ENDSEC
  0
EOF
