  0
SECTION
  2
HEADER
  9
$ACADVER
  1
AC1015
  9
$ACADMAINTVER
 70
    20
  9
$DWGCODEPAGE
  3
ANSI_1250
  9
$INSBASE
 10
0.0
 20
0.0
 30
0.0
  9
$EXTMIN
 10
0.0
 20
0.0
 30
0.0
  9
$EXTMAX
 10
1156.299999999999
 20
417.565822928638
 30
0.0
  9
$LIMMIN
 10
0.0
 20
0.0
  9
$LIMMAX
 10
0.0
 20
0.0
  9
$ORTHOMODE
 70
     1
  9
$REGENMODE
 70
     1
  9
$FILLMODE
 70
     1
  9
$QTEXTMODE
 70
     0
  9
$MIRRTEXT
 70
     1
  9
$LTSCALE
 40
1.0
  9
$ATTMODE
 70
     1
  9
$TEXTSIZE
 40
0.2
  9
$TRACEWID
 40
0.05
  9
$TEXTSTYLE
  7
STANDARD
  9
$CLAYER
  8
copper
  9
$CELTYPE
  6
BYLAYER
  9
$CECOLOR
 62
   256
  9
$CELTSCALE
 40
1.0
  9
$DISPSILH
 70
     0
  9
$DIMSCALE
 40
1.0
  9
$DIMASZ
 40
0.18
  9
$DIMEXO
 40
0.0625
  9
$DIMDLI
 40
0.38
  9
$DIMRND
 40
0.0
  9
$DIMDLE
 40
0.0
  9
$DIMEXE
 40
0.18
  9
$DIMTP
 40
0.0
  9
$DIMTM
 40
0.0
  9
$DIMTXT
 40
10.0
  9
$DIMCEN
 40
0.09
  9
$DIMTSZ
 40
0.0
  9
$DIMTOL
 70
     0
  9
$DIMLIM
 70
     0
  9
$DIMTIH
 70
     1
  9
$DIMTOH
 70
     1
  9
$DIMSE1
 70
     0
  9
$DIMSE2
 70
     0
  9
$DIMTAD
 70
     0
  9
$DIMZIN
 70
     0
  9
$DIMBLK
  1

  9
$DIMASO
 70
     1
  9
$DIMSHO
 70
     1
  9
$DIMPOST
  1

  9
$DIMAPOST
  1

  9
$DIMALT
 70
     0
  9
$DIMALTD
 70
     2
  9
$DIMALTF
 40
25.4
  9
$DIMLFAC
 40
1.0
  9
$DIMTOFL
 70
     0
  9
$DIMTVP
 40
0.0
  9
$DIMTIX
 70
     0
  9
$DIMSOXD
 70
     0
  9
$DIMSAH
 70
     0
  9
$DIMBLK1
  1

  9
$DIMBLK2
  1

  9
$DIMSTYLE
  2
STANDARD
  9
$DIMCLRD
 70
     0
  9
$DIMCLRE
 70
     0
  9
$DIMCLRT
 70
     0
  9
$DIMTFAC
 40
1.0
  9
$DIMGAP
 40
0.09
  9
$DIMJUST
 70
     0
  9
$DIMSD1
 70
     0
  9
$DIMSD2
 70
     0
  9
$DIMTOLJ
 70
     1
  9
$DIMTZIN
 70
     0
  9
$DIMALTZ
 70
     0
  9
$DIMALTTZ
 70
     0
  9
$DIMUPT
 70
     0
  9
$DIMDEC
 70
     4
  9
$DIMTDEC
 70
     4
  9
$DIMALTU
 70
     2
  9
$DIMALTTD
 70
     2
  9
$DIMTXSTY
  7
STANDARD
  9
$DIMAUNIT
 70
     0
  9
$DIMADEC
 70
     5
  9
$DIMALTRND
 40
0.0
  9
$DIMAZIN
 70
     0
  9
$DIMDSEP
 70
    46
  9
$DIMATFIT
 70
     3
  9
$DIMFRAC
 70
     0
  9
$DIMLDRBLK
  1

  9
$DIMLUNIT
 70
     2
  9
$DIMLWD
 70
    -2
  9
$DIMLWE
 70
    -2
  9
$DIMTMOVE
 70
     0
  9
$LUNITS
 70
     2
  9
$LUPREC
 70
     4
  9
$SKETCHINC
 40
0.1
  9
$FILLETRAD
 40
0.0
  9
$AUNITS
 70
     0
  9
$AUPREC
 70
     0
  9
$MENU
  1
acad
  9
$ELEVATION
 40
0.0
  9
$PELEVATION
 40
0.0
  9
$THICKNESS
 40
0.0
  9
$LIMCHECK
 70
     0
  9
$CHAMFERA
 40
0.0
  9
$CHAMFERB
 40
0.0
  9
$CHAMFERC
 40
0.0
  9
$CHAMFERD
 40
0.0
  9
$SKPOLY
 70
     0
  9
$TDCREATE
 40
2311946.475710706
  9
$TDUCREATE
 40
2311946.434044039
  9
$TDUPDATE
 40
2454141.492545081
  9
$TDUUPDATE
 40
2454141.450878414
  9
$TDINDWG
 40
1.1752267824
  9
$TDUSRTIMER
 40
1.1752266667
  9
$USRTIMER
 70
     1
  9
$ANGBASE
 50
0.0
  9
$ANGDIR
 70
     0
  9
$PDMODE
 70
     0
  9
$PDSIZE
 40
0.0
  9
$PLINEWID
 40
1.199999999999999
  9
$SPLFRAME
 70
     0
  9
$SPLINETYPE
 70
     6
  9
$SPLINESEGS
 70
     8
  9
$HANDSEED
  5
3D20
  9
$SURFTAB1
 70
     6
  9
$SURFTAB2
 70
     6
  9
$SURFTYPE
 70
     6
  9
$SURFU
 70
     6
  9
$SURFV
 70
     6
  9
$UCSBASE
  2

  9
$UCSNAME
  2

  9
$UCSORG
 10
0.0
 20
0.0
 30
0.0
  9
$UCSXDIR
 10
1.0
 20
0.0
 30
0.0
  9
$UCSYDIR
 10
0.0
 20
1.0
 30
0.0
  9
$UCSORTHOREF
  2

  9
$UCSORTHOVIEW
 70
     1
  9
$UCSORGTOP
 10
0.0
 20
0.0
 30
0.0
  9
$UCSORGBOTTOM
 10
0.0
 20
0.0
 30
0.0
  9
$UCSORGLEFT
 10
0.0
 20
0.0
 30
0.0
  9
$UCSORGRIGHT
 10
0.0
 20
0.0
 30
0.0
  9
$UCSORGFRONT
 10
0.0
 20
0.0
 30
0.0
  9
$UCSORGBACK
 10
0.0
 20
0.0
 30
0.0
  9
$PUCSBASE
  2

  9
$PUCSNAME
  2

  9
$PUCSORG
 10
0.0
 20
0.0
 30
0.0
  9
$PUCSXDIR
 10
1.0
 20
0.0
 30
0.0
  9
$PUCSYDIR
 10
0.0
 20
1.0
 30
0.0
  9
$PUCSORTHOREF
  2

  9
$PUCSORTHOVIEW
 70
     0
  9
$PUCSORGTOP
 10
0.0
 20
0.0
 30
0.0
  9
$PUCSORGBOTTOM
 10
0.0
 20
0.0
 30
0.0
  9
$PUCSORGLEFT
 10
0.0
 20
0.0
 30
0.0
  9
$PUCSORGRIGHT
 10
0.0
 20
0.0
 30
0.0
  9
$PUCSORGFRONT
 10
0.0
 20
0.0
 30
0.0
  9
$PUCSORGBACK
 10
0.0
 20
0.0
 30
0.0
  9
$USERI1
 70
     0
  9
$USERI2
 70
     0
  9
$USERI3
 70
     0
  9
$USERI4
 70
     0
  9
$USERI5
 70
     0
  9
$USERR1
 40
0.0
  9
$USERR2
 40
0.0
  9
$USERR3
 40
0.0
  9
$USERR4
 40
0.0
  9
$USERR5
 40
0.0
  9
$WORLDVIEW
 70
     1
  9
$SHADEDGE
 70
     3
  9
$SHADEDIF
 70
    70
  9
$TILEMODE
 70
     1
  9
$MAXACTVP
 70
    16
  9
$PINSBASE
 10
0.0
 20
0.0
 30
0.0
  9
$PLIMCHECK
 70
     0
  9
$PEXTMIN
 10
114.7487361907958
 20
78.54526405334468
 30
0.0
  9
$PEXTMAX
 10
1032.738625717163
 20
706.9073764801025
 30
0.0
  9
$PLIMMIN
 10
-20.1082763671875
 20
-27.22033309936524
  9
$PLIMMAX
 10
1167.765014648437
 20
812.6729774475098
  9
$UNITMODE
 70
     0
  9
$VISRETAIN
 70
     0
  9
$PLINEGEN
 70
     1
  9
$PSLTSCALE
 70
     0
  9
$TREEDEPTH
 70
  3020
  9
$CMLSTYLE
  2
STANDARD
  9
$CMLJUST
 70
     0
  9
$CMLSCALE
 40
1.0
  9
$PROXYGRAPHICS
 70
     0
  9
$MEASUREMENT
 70
     1
  9
$CELWEIGHT
370
    -1
  9
$ENDCAPS
280
     0
  9
$JOINSTYLE
280
     0
  9
$LWDISPLAY
290
     0
  9
$INSUNITS
 70
     0
  9
$HYPERLINKBASE
  1

  9
$STYLESHEET
  1
monochrome.ctb
  9
$XEDIT
290
     1
  9
$CEPSNTYPE
380
     0
  9
$PSTYLEMODE
290
     1
  9
$FINGERPRINTGUID
  2
{44CFACF6-FF42-4479-A730-8E27374F1164}
  9
$VERSIONGUID
  2
{CC6C5F97-EB02-4810-91B4-8FF69B53D248}
  9
$EXTNAMES
290
     1
  9
$PSVPSCALE
 40
0.0
  9
$OLESTARTUP
290
     0
  0
ENDSEC
  0
SECTION
  2
CLASSES
  0
CLASS
  1
IMAGE
  2
AcDbRasterImage
  3
ISM
 90
    34943
280
     0
281
     1
  0
CLASS
  1
DICTIONARYVAR
  2
AcDbDictionaryVar
  3
ObjectDBX Classes
 90
        0
280
     0
281
     0
  0
CLASS
  1
RASTERVARIABLES
  2
AcDbRasterVariables
  3
ISM
 90
    32768
280
     0
281
     0
  0
CLASS
  1
IMAGEDEF
  2
AcDbRasterImageDef
  3
ISM
 90
    32768
280
     0
281
     0
  0
CLASS
  1
IMAGEDEF_REACTOR
  2
AcDbRasterImageDefReactor
  3
ISM
 90
    32769
280
     0
281
     0
  0
CLASS
  1
IDBUFFER
  2
AcDbIdBuffer
  3
ObjectDBX Classes
 90
    32768
280
     0
281
     0
  0
CLASS
  1
SPATIAL_FILTER
  2
AcDbSpatialFilter
  3
ObjectDBX Classes
 90
    32768
280
     0
281
     0
  0
CLASS
  1
SORTENTSTABLE
  2
AcDbSortentsTable
  3
ObjectDBX Classes
 90
        0
280
     0
281
     0
  0
CLASS
  1
LAYER_INDEX
  2
AcDbLayerIndex
  3
ObjectDBX Classes
 90
    32768
280
     0
281
     0
  0
CLASS
  1
SPATIAL_INDEX
  2
AcDbSpatialIndex
  3
ObjectDBX Classes
 90
    32768
280
     0
281
     0
  0
CLASS
  1
OBJECT_PTR
  2
CAseDLPNTableRecord
  3
ASE-LPNTableRecord
 90
    32769
280
     0
281
     0
  0
CLASS
  1
LAYOUT
  2
AcDbLayout
  3
ObjectDBX Classes
 90
        0
280
     0
281
     0
  0
CLASS
  1
PLOTSETTINGS
  2
AcDbPlotSettings
  3
ObjectDBX Classes
 90
    32768
280
     0
281
     0
  0
CLASS
  1
ACDBDICTIONARYWDFLT
  2
AcDbDictionaryWithDefault
  3
ObjectDBX Classes
 90
        0
280
     0
281
     0
  0
CLASS
  1
ACDBPLACEHOLDER
  2
AcDbPlaceHolder
  3
ObjectDBX Classes
 90
        0
280
     0
281
     0
  0
CLASS
  1
VBA_PROJECT
  2
AcDbVbaProject
  3
acad
 90
    32768
280
     0
281
     0
  0
CLASS
  1
WIPEOUT
  2
AcDbWipeout
  3
"WipeOut|Product Desc: Object Enabler for WipeOut entity                        |Company: Autodesk, Inc.                        |WEB Address: www.autodesk.com"
 90
    34943
280
     0
281
     1
  0
CLASS
  1
WIPEOUTVARIABLES
  2
AcDbWipeoutVariables
  3
"WipeOut|Product Desc:     WipeOut Dbx Application|Company:          Autodesk, Inc.|WEB Address:      www.autodesk.com"
 90
    32768
280
     0
281
     0
  0
CLASS
  1
RTEXT
  2
RText
  3
RText|AutoCAD Express Tool|expresstools@autodesk.com
 90
    35839
280
     0
281
     1
  0
CLASS
  1
ARCALIGNEDTEXT
  2
AcDbArcAlignedText
  3
ATEXT|AutoCAD Express Tool|expresstools@autodesk.com
 90
    32768
280
     0
281
     1
  0
CLASS
  1
MATERIAL
  2
AcDbMaterial
  3
ObjectDBX Classes
 90
     1024
280
     0
281
     0
  0
CLASS
  1
VISUALSTYLE
  2
AcDbVisualStyle
  3
ObjectDBX Classes
 90
     4095
280
     0
281
     0
  0
CLASS
  1
TABLESTYLE
  2
AcDbTableStyle
  3
ObjectDBX Classes
 90
     4095
280
     0
281
     0
  0
CLASS
  1
DMMAPMANAGER
  2
AcMapDMMapManager
  3
AcMapDisplayManagement
 90
     1024
280
     0
281
     0
  0
CLASS
  1
DMSTYLELIBRARY
  2
AcMapDMStyleLibrary
  3
AcMapDisplayManagement
 90
     1024
280
     0
281
     0
  0
CLASS
  1
DMSTYLECATEGORY
  2
AcMapDMStyleCategory
  3
AcMapDisplayManagement
 90
     1024
280
     0
281
     0
  0
CLASS
  1
ACDBDATATABLE
  2
AcDbDataTable
  3
AcMapAnnotObj|Product Desc:     AutoCAD MAP DBX App for Annotation Entity|Company:          Autodesk,Inc.|WEB Address:      www.autodesk.com
 90
        0
280
     0
281
     0
  0
CLASS
  1
DMMAP
  2
AcMapDMMap
  3
AcMapDisplayManagement
 90
     1024
280
     0
281
     0
  0
CLASS
  1
DMBASEELEMENT
  2
AcMapDMBaseElement
  3
AcMapDisplayManagement
 90
     1024
280
     0
281
     0
  0
CLASS
  1
DMDEFAULTSTYLE
  2
AcMapDMDefaultStyle
  3
AcMapDisplayManagement
 90
     1024
280
     0
281
     0
  0
CLASS
  1
DMSTYLEREFERENCE
  2
AcMapDMStyleReference
  3
AcMapDisplayManagement
 90
     1024
280
     0
281
     0
  0
CLASS
  1
DMSURROGATESTYLESETS
  2
AcMapDMSurrogateStyleSets
  3
AcMapDisplayManagement
 90
     1153
280
     0
281
     0
  0
CLASS
  1
DMSTYLIZEDENTITIESTABLE
  2
AcMapDMStylizedEntitiesTable
  3
AcMapDisplayManagement
 90
     1024
280
     0
281
     0
  0
CLASS
  1
MAPGWSUNDOOBJECT
  2
AcMapGWSUndoRecorder
  3
AcMapFeatureSourceManager
 90
     1025
280
     0
281
     0
  0
ENDSEC
  0
SECTION
  2
TABLES
  0
TABLE
  2
VPORT
  5
157
330
0
100
AcDbSymbolTable
 70
     1
  0
VPORT
  5
16BF
330
157
100
AcDbSymbolTableRecord
100
AcDbViewportTableRecord
  2
*Active
 70
     0
 10
0.0
 20
0.0
 11
1.0
 21
1.0
 12
578.1499999999998
 22
208.782911464319
 13
0.0
 23
0.0
 14
1.0
 24
1.0
 15
0.0
 25
0.0
 16
0.0
 26
0.0
 36
1.0
 17
0.0
 27
0.0
 37
0.0
 40
747.7260212752311
 41
1.55400254129606
 42
50.0
 43
0.0
 44
0.0
 50
0.0
 51
0.0
 71
     0
 72
   100
 73
     1
 74
     1
 75
     0
 76
     0
 77
     0
 78
     0
281
     0
 65
     1
110
0.0
120
0.0
130
0.0
111
1.0
121
0.0
131
0.0
112
0.0
122
1.0
132
0.0
 79
     0
146
0.0
  0
ENDTAB
  0
TABLE
  2
LTYPE
  5
152
330
0
100
AcDbSymbolTable
 70
     1
  0
LTYPE
  5
153
330
152
100
AcDbSymbolTableRecord
100
AcDbLinetypeTableRecord
  2
BYBLOCK
 70
     0
  3

 72
    65
 73
     0
 40
0.0
  0
LTYPE
  5
154
330
152
100
AcDbSymbolTableRecord
100
AcDbLinetypeTableRecord
  2
BYLAYER
 70
     0
  3

 72
    65
 73
     0
 40
0.0
  0
LTYPE
  5
A
330
152
100
AcDbSymbolTableRecord
100
AcDbLinetypeTableRecord
  2
CONTINUOUS
 70
     0
  3
Solid line
 72
    65
 73
     0
 40
0.0
  0
ENDTAB
  0
TABLE
  2
LAYER
  5
14E
102
{ACAD_XDICTIONARY
360
18FA
102
}
330
0
100
AcDbSymbolTable
 70
     5
  0
LAYER
  5
6
330
14E
100
AcDbSymbolTableRecord
100
AcDbLayerTableRecord
  2
0
 70
     0
 62
     7
  6
CONTINUOUS
370
    -3
390
7
  0
LAYER
  5
C
330
14E
100
AcDbSymbolTableRecord
100
AcDbLayerTableRecord
  2
mechanical
 70
     0
 62
     6
  6
CONTINUOUS
370
    -3
390
7
  0
LAYER
  5
174
330
14E
100
AcDbSymbolTableRecord
100
AcDbLayerTableRecord
  2
copper
 70
     0
 62
     1
  6
CONTINUOUS
370
    -3
390
7
  0
LAYER
  5
41F
330
14E
100
AcDbSymbolTableRecord
100
AcDbLayerTableRecord
  2
Defpoints
 70
     0
 62
     7
  6
CONTINUOUS
290
     0
370
    -3
390
7
  0
LAYER
  5
794
330
14E
100
AcDbSymbolTableRecord
100
AcDbLayerTableRecord
  2
kapton
 70
     0
 62
     2
  6
CONTINUOUS
370
    -3
390
7
  0
ENDTAB
  0
TABLE
  2
STYLE
  5
14F
330
0
100
AcDbSymbolTable
 70
     1
  0
STYLE
  5
150
330
14F
100
AcDbSymbolTableRecord
100
AcDbTextStyleTableRecord
  2
STANDARD
 70
     0
 40
0.0
 41
1.0
 50
0.0
 71
     0
 42
0.2
  3
txt
  4

  0
ENDTAB
  0
TABLE
  2
VIEW
  5
155
330
0
100
AcDbSymbolTable
 70
     0
  0
ENDTAB
  0
TABLE
  2
UCS
  5
156
330
0
100
AcDbSymbolTable
 70
     0
  0
ENDTAB
  0
TABLE
  2
APPID
  5
159
330
0
100
AcDbSymbolTable
 70
     8
  0
APPID
  5
15A
330
159
100
AcDbSymbolTableRecord
100
AcDbRegAppTableRecord
  2
ACAD
 70
     0
  0
APPID
  5
189
330
159
100
AcDbSymbolTableRecord
100
AcDbRegAppTableRecord
  2
DCO15
 70
     0
  0
APPID
  5
16E2
330
159
100
AcDbSymbolTableRecord
100
AcDbRegAppTableRecord
  2
AcMapDMDisplayStyleRegapp
 70
     0
  0
APPID
  5
16E9
330
159
100
AcDbSymbolTableRecord
100
AcDbRegAppTableRecord
  2
ADE
 70
     0
  0
APPID
  5
16EC
330
159
100
AcDbSymbolTableRecord
100
AcDbRegAppTableRecord
  2
MapGWS
 70
     0
  0
APPID
  5
1738
330
159
100
AcDbSymbolTableRecord
100
AcDbRegAppTableRecord
  2
ACAD_PSEXT
 70
     0
  0
APPID
  5
18F8
330
159
100
AcDbSymbolTableRecord
100
AcDbRegAppTableRecord
  2
AcAecLayerStandard
 70
     0
  0
APPID
  5
3569
330
159
100
AcDbSymbolTableRecord
100
AcDbRegAppTableRecord
  2
ACAD_EXEMPT_FROM_CAD_STANDARDS
 70
     0
  0
ENDTAB
  0
TABLE
  2
DIMSTYLE
  5
15B
330
0
100
AcDbSymbolTable
 70
     2
100
AcDbDimStyleTable
 71
     1
340
15C
  0
DIMSTYLE
105
15C
330
15B
100
AcDbSymbolTableRecord
100
AcDbDimStyleTableRecord
  2
STANDARD
 70
     0
140
10.0
179
     5
340
150
  0
DIMSTYLE
105
72E
330
15B
100
AcDbSymbolTableRecord
100
AcDbDimStyleTableRecord
  2
ISO-25
 70
     0
 41
2.5
 42
0.625
 43
3.75
 44
1.25
 73
     0
 74
     0
 77
     1
 78
     8
140
2.5
141
2.5
143
0.03937007874016
147
0.625
171
     3
172
     1
274
     3
279
     2
284
     8
285
     8
286
     8
340
150
  0
ENDTAB
  0
TABLE
  2
BLOCK_RECORD
  5
1
330
0
100
AcDbSymbolTable
 70
     1
  0
BLOCK_RECORD
  5
2
102
{ACAD_XDICTIONARY
360
3
102
}
330
1
100
AcDbSymbolTableRecord
100
AcDbBlockTableRecord
  2
*MODEL_SPACE
340
146
  0
BLOCK_RECORD
  5
148
102
{ACAD_XDICTIONARY
360
149
102
}
330
1
100
AcDbSymbolTableRecord
100
AcDbBlockTableRecord
  2
*PAPER_SPACE
340
14D
  0
BLOCK_RECORD
  5
1B94
330
1
100
AcDbSymbolTableRecord
100
AcDbBlockTableRecord
  2
$AUDIT_BAD_BLOCK_RECORD1
340
0
  0
ENDTAB
  0
ENDSEC
  0
SECTION
  2
BLOCKS
  0
BLOCK
  5
5
330
2
100
AcDbEntity
  8
0
100
AcDbBlockBegin
  2
*MODEL_SPACE
 70
     0
 10
0.0
 20
0.0
 30
0.0
  3
*MODEL_SPACE
  1

  0
ENDBLK
  5
145
330
2
100
AcDbEntity
  8
0
100
AcDbBlockEnd
  0
BLOCK
  5
14B
330
148
100
AcDbEntity
 67
     1
  8
0
100
AcDbBlockBegin
  2
*PAPER_SPACE
 70
     0
 10
0.0
 20
0.0
 30
0.0
  3
*PAPER_SPACE
  1

  0
ENDBLK
  5
14C
330
148
100
AcDbEntity
 67
     1
  8
0
100
AcDbBlockEnd
  0
BLOCK
  5
1B95
330
1B94
100
AcDbEntity
  8
0
100
AcDbBlockBegin
  2
$AUDIT_BAD_BLOCK_RECORD1
 70
     0
 10
0.0
 20
0.0
 30
0.0
  3
$AUDIT_BAD_BLOCK_RECORD1
  1

  0
LINE
  5
16F5
330
1B94
100
AcDbEntity
  8
0
  6
Continuous
 62
     0
370
    -2
100
AcDbLine
 10
-589.7270555095806
 20
589.7895555095806
 30
0.0
 11
-589.7270555095806
 21
650.4874973515719
 31
0.0
  0
LINE
  5
16F6
330
1B94
100
AcDbEntity
  8
0
  6
Continuous
 62
     0
370
    -2
100
AcDbLine
 10
589.7270555095806
 20
589.7895555095806
 30
0.0
 11
589.7270555095806
 21
650.4874973515719
 31
0.0
  0
LINE
  5
16F7
330
1B94
100
AcDbEntity
  8
0
  6
Continuous
 62
     0
370
    -2
100
AcDbLine
 10
-589.5470555095807
 20
650.307497351572
 30
0.0
 11
-35.09
 21
650.307497351572
 31
0.0
  0
LINE
  5
16F8
330
1B94
100
AcDbEntity
  8
0
  6
Continuous
 62
     0
370
    -2
100
AcDbLine
 10
589.5470555095807
 20
650.307497351572
 30
0.0
 11
35.09
 21
650.307497351572
 31
0.0
  0
SOLID
  5
16F9
330
1B94
100
AcDbEntity
  8
0
  6
Continuous
 62
     0
100
AcDbTrace
 10
-589.5470555095807
 20
650.3374973515719
 30
0.0
 11
-589.5470555095807
 21
650.277497351572
 31
0.0
 12
-589.7270555095806
 22
650.307497351572
 32
0.0
 13
-589.7270555095806
 23
650.307497351572
 33
0.0
  0
SOLID
  5
16FA
330
1B94
100
AcDbEntity
  8
0
  6
Continuous
 62
     0
100
AcDbTrace
 10
589.5470555095807
 20
650.3374973515719
 30
0.0
 11
589.5470555095807
 21
650.277497351572
 31
0.0
 12
589.7270555095806
 22
650.307497351572
 32
0.0
 13
589.7270555095806
 23
650.307497351572
 33
0.0
  0
MTEXT
  5
16FB
330
1B94
100
AcDbEntity
  8
0
  6
Continuous
 62
     0
100
AcDbMText
 10
0.0
 20
650.307497351572
 30
0.0
 40
10.0
 41
0.0
 71
     5
 72
     1
  1
\A1;1179.4541
 73
     1
 44
1.0
1001
ACAD
1000
MTEXTBEGIN
1070
    73
1070
     1
1070
    44
1040
1.0
1070
    74
1070
     0
1000
MTEXTEND
  0
POINT
  5
16FC
330
1B94
100
AcDbEntity
  8
Defpoints
  6
Continuous
 62
     0
100
AcDbPoint
 10
-589.7270555095806
 20
589.7270555095806
 30
0.0
  0
POINT
  5
16FD
330
1B94
100
AcDbEntity
  8
Defpoints
  6
Continuous
 62
     0
100
AcDbPoint
 10
589.7270555095806
 20
589.7270555095806
 30
0.0
  0
POINT
  5
16FE
330
1B94
100
AcDbEntity
  8
Defpoints
  6
Continuous
 62
     0
100
AcDbPoint
 10
589.7270555095806
 20
650.307497351572
 30
0.0
  0
LINE
  5
1707
330
1B94
100
AcDbEntity
  8
0
  6
Continuous
 62
     0
370
    -2
100
AcDbLine
 10
-589.7270555095806
 20
589.7895555095806
 30
0.0
 11
-589.7270555095806
 21
875.9163205468016
 31
0.0
  0
LINE
  5
1708
330
1B94
100
AcDbEntity
  8
0
  6
Continuous
 62
     0
370
    -2
100
AcDbLine
 10
589.7270555095806
 20
589.7895555095806
 30
0.0
 11
589.7270555095806
 21
875.9163205468016
 31
0.0
  0
LINE
  5
1709
330
1B94
100
AcDbEntity
  8
0
  6
Continuous
 62
     0
370
    -2
100
AcDbLine
 10
-589.5470555095807
 20
875.7363205468015
 30
0.0
 11
-35.09
 21
875.7363205468015
 31
0.0
  0
LINE
  5
170A
330
1B94
100
AcDbEntity
  8
0
  6
Continuous
 62
     0
370
    -2
100
AcDbLine
 10
589.5470555095807
 20
875.7363205468015
 30
0.0
 11
35.09
 21
875.7363205468015
 31
0.0
  0
SOLID
  5
170B
330
1B94
100
AcDbEntity
  8
0
  6
Continuous
 62
     0
100
AcDbTrace
 10
-589.5470555095807
 20
875.7663205468016
 30
0.0
 11
-589.5470555095807
 21
875.7063205468016
 31
0.0
 12
-589.7270555095806
 22
875.7363205468015
 32
0.0
 13
-589.7270555095806
 23
875.7363205468015
 33
0.0
  0
SOLID
  5
170C
330
1B94
100
AcDbEntity
  8
0
  6
Continuous
 62
     0
100
AcDbTrace
 10
589.5470555095807
 20
875.7663205468016
 30
0.0
 11
589.5470555095807
 21
875.7063205468016
 31
0.0
 12
589.7270555095806
 22
875.7363205468015
 32
0.0
 13
589.7270555095806
 23
875.7363205468015
 33
0.0
  0
MTEXT
  5
170D
330
1B94
100
AcDbEntity
  8
0
  6
Continuous
 62
     0
100
AcDbMText
 10
0.0
 20
875.7363205468015
 30
0.0
 40
10.0
 41
0.0
 71
     5
 72
     1
  1
\A1;1179.4541
 73
     1
 44
1.0
1001
ACAD
1000
MTEXTBEGIN
1070
    73
1070
     1
1070
    44
1040
1.0
1070
    74
1070
     0
1000
MTEXTEND
  0
POINT
  5
170E
330
1B94
100
AcDbEntity
  8
Defpoints
  6
Continuous
 62
     0
100
AcDbPoint
 10
-589.7270555095806
 20
589.7270555095806
 30
0.0
  0
POINT
  5
170F
330
1B94
100
AcDbEntity
  8
Defpoints
  6
Continuous
 62
     0
100
AcDbPoint
 10
589.7270555095806
 20
589.7270555095806
 30
0.0
  0
POINT
  5
1710
330
1B94
100
AcDbEntity
  8
Defpoints
  6
Continuous
 62
     0
100
AcDbPoint
 10
589.7270555095806
 20
875.7363205468015
 30
0.0
  0
LINE
  5
1715
330
1B94
100
AcDbEntity
  8
0
  6
Continuous
 62
     0
370
    -2
100
AcDbLine
 10
-262.4226507042429
 20
848.6545174457949
 30
0.0
 11
-262.2426507042429
 21
848.6545174457948
 31
0.0
  0
LINE
  5
1716
330
1B94
100
AcDbEntity
  8
0
  6
Continuous
 62
     0
370
    -2
100
AcDbLine
 10
-262.2426507042429
 20
848.6545174457948
 30
0.0
 11
-246.27965345745
 21
796.9959878775287
 31
0.0
  0
MTEXT
  5
1717
330
1B94
100
AcDbEntity
  8
0
  6
Continuous
 62
     0
100
AcDbMText
 10
-299.1793173709094
 20
848.6545174457949
 30
0.0
 40
10.0
 41
0.0
 71
     5
 72
     1
  1
\A1;R834.0000
 73
     1
 44
1.0
1001
ACAD
1000
MTEXTBEGIN
1070
    73
1070
     1
1070
    44
1040
1.0
1070
    74
1070
     0
1000
MTEXTEND
  0
SOLID
  5
1718
330
1B94
100
AcDbEntity
  8
0
  6
Continuous
 62
     0
100
AcDbTrace
 10
-246.2509907232244
 20
797.0048449462714
 30
0.0
 11
-246.3083161916756
 21
796.9871308087861
 31
0.0
 12
-246.2265110449942
 22
796.824011472175
 32
0.0
 13
-246.2265110449942
 23
796.824011472175
 33
0.0
  0
LINE
  5
1719
330
1B94
100
AcDbEntity
  8
0
  6
Continuous
 62
     0
370
    -2
100
AcDbLine
 10
-0.09
 20
0.0
 30
0.0
 11
0.09
 21
0.0
 31
0.0
  0
LINE
  5
171A
330
1B94
100
AcDbEntity
  8
0
  6
Continuous
 62
     0
370
    -2
100
AcDbLine
 10
0.0
 20
-0.09
 30
0.0
 11
0.0
 21
0.09
 31
0.0
  0
POINT
  5
171B
330
1B94
100
AcDbEntity
  8
Defpoints
  6
Continuous
 62
     0
100
AcDbPoint
 10
-246.2265110449942
 20
796.824011472175
 30
0.0
  0
POINT
  5
171C
330
1B94
100
AcDbEntity
  8
Defpoints
  6
Continuous
 62
     0
100
AcDbPoint
 10
0.0
 20
0.0
 30
0.0
  0
LINE
  5
1765
330
1B94
100
AcDbEntity
  8
mechanical
  6
Continuous
 62
     0
370
    -2
100
AcDbLine
 10
-548.8826027940656
 20
605.7189052264273
 30
0.0
 11
-559.7784913438573
 21
605.7189052264273
 31
0.0
  0
LINE
  5
1766
330
1B94
100
AcDbEntity
  8
mechanical
  6
Continuous
 62
     0
370
    -2
100
AcDbLine
 10
-547.8326027940656
 20
609.6939052264273
 30
0.0
 11
-559.7784913438573
 21
609.6939052264273
 31
0.0
  0
LINE
  5
1767
330
1B94
100
AcDbEntity
  8
mechanical
  6
Continuous
 62
     0
370
    -2
100
AcDbLine
 10
-559.5984913438574
 20
605.8989052264272
 30
0.0
 11
-559.5984913438574
 21
609.5139052264273
 31
0.0
  0
LINE
  5
1768
330
1B94
100
AcDbEntity
  8
mechanical
  6
Continuous
 62
     0
370
    -2
100
AcDbLine
 10
-559.5984913438574
 20
609.6939052264273
 30
0.0
 11
-559.5984913438574
 21
609.8739052264273
 31
0.0
  0
LINE
  5
1769
330
1B94
100
AcDbEntity
  8
mechanical
  6
Continuous
 62
     0
370
    -2
100
AcDbLine
 10
-559.5984913438574
 20
609.8739052264273
 30
0.0
 11
-559.4184913438574
 21
609.8739052264273
 31
0.0
  0
SOLID
  5
176A
330
1B94
100
AcDbEntity
  8
mechanical
  6
Continuous
 62
     0
100
AcDbTrace
 10
-559.6284913438573
 20
605.8989052264272
 30
0.0
 11
-559.5684913438573
 21
605.8989052264272
 31
0.0
 12
-559.5984913438574
 22
605.7189052264273
 32
0.0
 13
-559.5984913438574
 23
605.7189052264273
 33
0.0
  0
SOLID
  5
176B
330
1B94
100
AcDbEntity
  8
mechanical
  6
Continuous
 62
     0
100
AcDbTrace
 10
-559.6284913438573
 20
609.5139052264273
 30
0.0
 11
-559.5684913438573
 21
609.5139052264273
 31
0.0
 12
-559.5984913438574
 22
609.6939052264273
 32
0.0
 13
-559.5984913438574
 23
609.6939052264273
 33
0.0
  0
MTEXT
  5
176C
330
1B94
100
AcDbEntity
  8
mechanical
  6
Continuous
 62
     0
100
AcDbMText
 10
-535.1618246771908
 20
609.8739052264271
 30
0.0
 40
10.0
 41
0.0
 71
     5
 72
     1
  1
\A1;3.9750
 73
     1
 44
1.0
1001
ACAD
1000
MTEXTBEGIN
1070
    73
1070
     1
1070
    44
1040
1.0
1070
    74
1070
     0
1000
MTEXTEND
  0
POINT
  5
176D
330
1B94
100
AcDbEntity
  8
Defpoints
  6
Continuous
 62
     0
100
AcDbPoint
 10
-548.8201027940656
 20
605.7189052264273
 30
0.0
  0
POINT
  5
176E
330
1B94
100
AcDbEntity
  8
Defpoints
  6
Continuous
 62
     0
100
AcDbPoint
 10
-547.7701027940656
 20
609.6939052264273
 30
0.0
  0
POINT
  5
176F
330
1B94
100
AcDbEntity
  8
Defpoints
  6
Continuous
 62
     0
100
AcDbPoint
 10
-559.5984913438574
 20
609.6939052264273
 30
0.0
  0
LINE
  5
1774
330
1B94
100
AcDbEntity
  8
mechanical
  6
Continuous
 62
     0
370
    -2
100
AcDbLine
 10
-548.8826027940656
 20
605.7189052264273
 30
0.0
 11
-553.6147283857309
 21
605.7189052264273
 31
0.0
  0
LINE
  5
1775
330
1B94
100
AcDbEntity
  8
mechanical
  6
Continuous
 62
     0
370
    -2
100
AcDbLine
 10
-547.8326027940656
 20
609.6939052264273
 30
0.0
 11
-553.6147283857309
 21
609.6939052264273
 31
0.0
  0
LINE
  5
1776
330
1B94
100
AcDbEntity
  8
mechanical
  6
Continuous
 62
     0
370
    -2
100
AcDbLine
 10
-553.4347283857309
 20
605.8989052264272
 30
0.0
 11
-553.4347283857309
 21
609.5139052264273
 31
0.0
  0
LINE
  5
1777
330
1B94
100
AcDbEntity
  8
mechanical
  6
Continuous
 62
     0
370
    -2
100
AcDbLine
 10
-553.4347283857309
 20
609.6939052264273
 30
0.0
 11
-553.4347283857309
 21
609.8739052264273
 31
0.0
  0
LINE
  5
1778
330
1B94
100
AcDbEntity
  8
mechanical
  6
Continuous
 62
     0
370
    -2
100
AcDbLine
 10
-553.4347283857309
 20
609.8739052264273
 30
0.0
 11
-553.254728385731
 21
609.8739052264273
 31
0.0
  0
SOLID
  5
1779
330
1B94
100
AcDbEntity
  8
mechanical
  6
Continuous
 62
     0
100
AcDbTrace
 10
-553.4647283857309
 20
605.8989052264272
 30
0.0
 11
-553.404728385731
 21
605.8989052264272
 31
0.0
 12
-553.4347283857309
 22
605.7189052264273
 32
0.0
 13
-553.4347283857309
 23
605.7189052264273
 33
0.0
  0
SOLID
  5
177A
330
1B94
100
AcDbEntity
  8
mechanical
  6
Continuous
 62
     0
100
AcDbTrace
 10
-553.4647283857309
 20
609.5139052264273
 30
0.0
 11
-553.404728385731
 21
609.5139052264273
 31
0.0
 12
-553.4347283857309
 22
609.6939052264273
 32
0.0
 13
-553.4347283857309
 23
609.6939052264273
 33
0.0
  0
MTEXT
  5
177B
330
1B94
100
AcDbEntity
  8
mechanical
  6
Continuous
 62
     0
100
AcDbMText
 10
-528.9980617190645
 20
609.8739052264271
 30
0.0
 40
10.0
 41
0.0
 71
     5
 72
     1
  1
\A1;3.9750
 73
     1
 44
1.0
1001
ACAD
1000
MTEXTBEGIN
1070
    73
1070
     1
1070
    44
1040
1.0
1070
    74
1070
     0
1000
MTEXTEND
  0
POINT
  5
177C
330
1B94
100
AcDbEntity
  8
Defpoints
  6
Continuous
 62
     0
100
AcDbPoint
 10
-548.8201027940656
 20
605.7189052264273
 30
0.0
  0
POINT
  5
177D
330
1B94
100
AcDbEntity
  8
Defpoints
  6
Continuous
 62
     0
100
AcDbPoint
 10
-547.7701027940656
 20
609.6939052264273
 30
0.0
  0
POINT
  5
177E
330
1B94
100
AcDbEntity
  8
Defpoints
  6
Continuous
 62
     0
100
AcDbPoint
 10
-553.4347283857309
 20
609.6939052264273
 30
0.0
  0
LINE
  5
1783
330
1B94
100
AcDbEntity
  8
mechanical
  6
Continuous
 62
     0
370
    -2
100
AcDbLine
 10
-547.5618497940656
 20
610.7188987264273
 30
0.0
 11
-552.6044278990672
 21
610.7188987264273
 31
0.0
  0
LINE
  5
1784
330
1B94
100
AcDbEntity
  8
mechanical
  6
Continuous
 62
     0
370
    -2
100
AcDbLine
 10
-548.8826027940656
 20
605.7189052264273
 30
0.0
 11
-552.6044278990672
 21
605.7189052264273
 31
0.0
  0
LINE
  5
1785
330
1B94
100
AcDbEntity
  8
mechanical
  6
Continuous
 62
     0
370
    -2
100
AcDbLine
 10
-552.4244278990672
 20
610.5388987264274
 30
0.0
 11
-552.4244278990672
 21
605.8989052264272
 31
0.0
  0
LINE
  5
1786
330
1B94
100
AcDbEntity
  8
mechanical
  6
Continuous
 62
     0
370
    -2
100
AcDbLine
 10
-552.4244278990672
 20
605.7189052264273
 30
0.0
 11
-552.4244278990672
 21
605.5389052264273
 31
0.0
  0
LINE
  5
1787
330
1B94
100
AcDbEntity
  8
mechanical
  6
Continuous
 62
     0
370
    -2
100
AcDbLine
 10
-552.4244278990672
 20
605.5389052264273
 30
0.0
 11
-552.6044278990672
 21
605.5389052264273
 31
0.0
  0
SOLID
  5
1788
330
1B94
100
AcDbEntity
  8
mechanical
  6
Continuous
 62
     0
100
AcDbTrace
 10
-552.4544278990672
 20
610.5388987264274
 30
0.0
 11
-552.3944278990673
 21
610.5388987264274
 31
0.0
 12
-552.4244278990672
 22
610.7188987264273
 32
0.0
 13
-552.4244278990672
 23
610.7188987264273
 33
0.0
  0
SOLID
  5
1789
330
1B94
100
AcDbEntity
  8
mechanical
  6
Continuous
 62
     0
100
AcDbTrace
 10
-552.4544278990672
 20
605.8989052264272
 30
0.0
 11
-552.3944278990673
 21
605.8989052264272
 31
0.0
 12
-552.4244278990672
 22
605.7189052264273
 32
0.0
 13
-552.4244278990672
 23
605.7189052264273
 33
0.0
  0
MTEXT
  5
178A
330
1B94
100
AcDbEntity
  8
mechanical
  6
Continuous
 62
     0
100
AcDbMText
 10
-574.361094565734
 20
605.5389052264272
 30
0.0
 40
10.0
 41
0.0
 71
     5
 72
     1
  1
\A1;5.0000
 73
     1
 44
1.0
1001
ACAD
1000
MTEXTBEGIN
1070
    73
1070
     1
1070
    44
1040
1.0
1070
    74
1070
     0
1000
MTEXTEND
  0
POINT
  5
178B
330
1B94
100
AcDbEntity
  8
Defpoints
  6
Continuous
 62
     0
100
AcDbPoint
 10
-547.4993497940657
 20
610.7188987264273
 30
0.0
  0
POINT
  5
178C
330
1B94
100
AcDbEntity
  8
Defpoints
  6
Continuous
 62
     0
100
AcDbPoint
 10
-548.8201027940656
 20
605.7189052264273
 30
0.0
  0
POINT
  5
178D
330
1B94
100
AcDbEntity
  8
Defpoints
  6
Continuous
 62
     0
100
AcDbPoint
 10
-552.4244278990672
 20
605.7189052264273
 30
0.0
  0
LINE
  5
17B1
330
1B94
100
AcDbEntity
  8
mechanical
  6
Continuous
 62
     0
370
    -2
100
AcDbLine
 10
1040.063499999998
 20
383.3525
 30
0.0
 11
1040.063499999998
 21
404.8666648419491
 31
0.0
  0
LINE
  5
17B2
330
1B94
100
AcDbEntity
  8
mechanical
  6
Continuous
 62
     0
370
    -2
100
AcDbLine
 10
1140.063499999998
 20
383.3525
 30
0.0
 11
1140.063499999998
 21
404.8666648419491
 31
0.0
  0
LINE
  5
17B3
330
1B94
100
AcDbEntity
  8
mechanical
  6
Continuous
 62
     0
370
    -2
100
AcDbLine
 10
1040.243499999998
 20
404.6866648419491
 30
0.0
 11
1061.640166666665
 21
404.6866648419491
 31
0.0
  0
LINE
  5
17B4
330
1B94
100
AcDbEntity
  8
mechanical
  6
Continuous
 62
     0
370
    -2
100
AcDbLine
 10
1139.883499999998
 20
404.6866648419491
 30
0.0
 11
1118.486833333331
 21
404.6866648419491
 31
0.0
  0
SOLID
  5
17B5
330
1B94
100
AcDbEntity
  8
mechanical
  6
Continuous
 62
     0
100
AcDbTrace
 10
1040.243499999998
 20
404.716664841949
 30
0.0
 11
1040.243499999998
 21
404.656664841949
 31
0.0
 12
1040.063499999998
 22
404.6866648419491
 32
0.0
 13
1040.063499999998
 23
404.6866648419491
 33
0.0
  0
SOLID
  5
17B6
330
1B94
100
AcDbEntity
  8
mechanical
  6
Continuous
 62
     0
100
AcDbTrace
 10
1139.883499999998
 20
404.716664841949
 30
0.0
 11
1139.883499999998
 21
404.656664841949
 31
0.0
 12
1140.063499999998
 22
404.6866648419491
 32
0.0
 13
1140.063499999998
 23
404.6866648419491
 33
0.0
  0
MTEXT
  5
17B7
330
1B94
100
AcDbEntity
  8
mechanical
  6
Continuous
 62
     0
100
AcDbMText
 10
1090.063499999998
 20
404.6866648419491
 30
0.0
 40
10.0
 41
0.0
 71
     5
 72
     1
  1
\A1;100.0000
 73
     1
 44
1.0
1001
ACAD
1000
MTEXTBEGIN
1070
    73
1070
     1
1070
    44
1040
1.0
1070
    74
1070
     0
1000
MTEXTEND
  0
POINT
  5
17B8
330
1B94
100
AcDbEntity
  8
Defpoints
  6
Continuous
 62
     0
100
AcDbPoint
 10
1040.063499999998
 20
383.29
 30
0.0
  0
POINT
  5
17B9
330
1B94
100
AcDbEntity
  8
Defpoints
  6
Continuous
 62
     0
100
AcDbPoint
 10
1140.063499999998
 20
383.29
 30
0.0
  0
POINT
  5
17BA
330
1B94
100
AcDbEntity
  8
Defpoints
  6
Continuous
 62
     0
100
AcDbPoint
 10
1140.063499999998
 20
404.6866648419491
 30
0.0
  0
ENDBLK
  5
1B96
330
1B94
100
AcDbEntity
  8
0
100
AcDbBlockEnd
  0
ENDSEC
  0
SECTION
  2
ENTITIES
  0
LWPOLYLINE
  5
29A9
330
2
100
AcDbEntity
  8
mechanical
  6
Continuous
100
AcDbPolyline
 90
        2
 70
   128
 43
0.25
 10
972.1921412540067
 20
10.0
 42
0.3846436892416937
 10
184.1078587459924
 20
10.0
  0
LWPOLYLINE
  5
29AA
330
2
100
AcDbEntity
  8
mechanical
  6
Continuous
100
AcDbPolyline
 90
        2
 70
   128
 43
0.25
 10
1146.3
 20
184.1078587459926
 42
0.3933080422118196
 10
10.0
 20
184.1078587459926
  0
LWPOLYLINE
  5
29AB
330
2
100
AcDbEntity
  8
mechanical
  6
Continuous
100
AcDbPolyline
 90
        2
 70
   128
 43
0.25
 10
10.0
 20
184.1078587459926
 10
184.1078587459924
 20
10.0
  0
LWPOLYLINE
  5
29AC
330
2
100
AcDbEntity
  8
mechanical
  6
Continuous
100
AcDbPolyline
 90
        2
 70
   128
 43
0.25
 10
10.0
 20
184.1078587459926
 10
184.1078587459924
 20
10.0
  0
LWPOLYLINE
  5
29AD
330
2
100
AcDbEntity
  8
mechanical
  6
Continuous
100
AcDbPolyline
 90
        2
 70
   128
 43
0.25
 10
10.0
 20
184.1078587459926
 10
184.1078587459924
 20
10.0
  0
LWPOLYLINE
  5
29AE
330
2
100
AcDbEntity
  8
mechanical
  6
Continuous
100
AcDbPolyline
 90
        2
 70
   128
 43
0.25
 10
1146.3
 20
184.1078587459926
 10
972.1921412540067
 20
10.0
  0
LWPOLYLINE
  5
29AF
330
2
100
AcDbEntity
  8
mechanical
  6
Continuous
100
AcDbPolyline
 90
        2
 70
   129
 43
0.25
 10
375.6499999999996
 20
209.0
 42
0.9999999999999998
 10
361.6499999999996
 20
209.0
 42
0.9999999999999998
  0
LWPOLYLINE
  5
29B0
330
2
100
AcDbEntity
  8
mechanical
  6
Continuous
100
AcDbPolyline
 90
        2
 70
   129
 43
0.125
 10
1146.2375
 20
184.1078587459926
 42
1.0
 10
1146.362499999999
 20
184.1078587459926
 42
1.0
  0
LWPOLYLINE
  5
29B1
330
2
100
AcDbEntity
  8
mechanical
  6
Continuous
100
AcDbPolyline
 90
        2
 70
   129
 43
0.125
 10
972.1296412540068
 20
9.999999999999772
 42
1.0
 10
972.2546412540069
 20
9.999999999999772
 42
1.0
  0
LWPOLYLINE
  5
29B2
330
2
100
AcDbEntity
  8
mechanical
  6
Continuous
100
AcDbPolyline
 90
        2
 70
   129
 43
0.125
 10
184.0453587459924
 20
10.0
 42
1.0
 10
184.1703587459924
 20
10.0
 42
1.0
  0
LWPOLYLINE
  5
29B3
330
2
100
AcDbEntity
  8
mechanical
  6
Continuous
100
AcDbPolyline
 90
        2
 70
   129
 43
0.125
 10
9.9375
 20
184.1078587459926
 42
1.0
 10
10.0625
 20
184.1078587459926
 42
1.0
  0
LWPOLYLINE
  5
29B4
330
2
100
AcDbEntity
  8
mechanical
100
AcDbPolyline
 90
        3
 70
   128
 43
0.25
 10
12.82842712474576
 20
184.1078587459928
 10
17.29786983705708
 20
186.7094746531588
 10
14.6962539298911
 20
182.240031940848
  0
LWPOLYLINE
  5
29B5
330
2
100
AcDbEntity
  8
mechanical
100
AcDbPolyline
 90
        2
 70
   128
 43
0.25
 10
14.29013165958986
 20
184.9587016841856
 10
15.54709686808382
 20
183.7017364756916
  0
LWPOLYLINE
  5
29B7
330
2
100
AcDbEntity
  8
mechanical
  6
Continuous
100
AcDbPolyline
 90
        2
 70
   129
 43
0.25
 10
349.6499999999997
 20
293.0
 42
0.9999999999999998
 10
335.6499999999996
 20
293.0
 42
0.9999999999999998
  0
LWPOLYLINE
  5
29B8
330
2
100
AcDbEntity
  8
mechanical
  6
Continuous
100
AcDbPolyline
 90
        2
 70
   129
 43
0.25
 10
780.6499999999996
 20
209.0
 42
-0.9999999999999998
 10
794.6499999999996
 20
209.0
 42
-0.9999999999999998
  0
LWPOLYLINE
  5
29B9
330
2
100
AcDbEntity
  8
mechanical
  6
Continuous
100
AcDbPolyline
 90
        2
 70
   129
 43
0.25
 10
806.6499999999996
 20
293.0
 42
-0.9999999999999998
 10
820.6499999999996
 20
293.0
 42
-0.9999999999999998
  0
LWPOLYLINE
  5
29CE
330
2
100
AcDbEntity
  8
copper
  6
Continuous
100
AcDbPolyline
 90
        2
 70
   128
 43
0.5
 10
223.3236759706788
 20
120.9124693893982
 42
0.0009581548465543
 10
221.2285163921788
 20
119.5485389144035
  0
LWPOLYLINE
  5
29CF
330
2
100
AcDbEntity
  8
copper
  6
Continuous
100
AcDbPolyline
 90
        2
 70
   128
 43
0.5
 10
224.737067761012
 20
119.6833426459986
 42
0.0011529678845086
 10
222.2222123829556
 20
118.0476463332741
  0
LWPOLYLINE
  5
2A3F
330
2
100
AcDbEntity
  8
copper
  6
Continuous
100
AcDbPolyline
 90
        2
 70
   129
 43
2.25
 10
574.0249999999996
 20
402.8103881281928
 42
1.0
 10
576.2749999999996
 20
402.8103881281928
 42
1.0
  0
LWPOLYLINE
  5
2A40
330
2
100
AcDbEntity
  8
copper
  6
Continuous
100
AcDbPolyline
 90
        2
 70
   129
 43
2.25
 10
574.0249999999996
 20
400.3103881281929
 42
1.0
 10
576.2749999999996
 20
400.3103881281929
 42
1.0
  0
LWPOLYLINE
  5
2A41
330
2
100
AcDbEntity
  8
copper
  6
Continuous
100
AcDbPolyline
 90
        2
 70
   128
 43
4.5
 10
575.1499999999996
 20
402.8103881281928
 10
575.1499999999996
 20
400.3103881281929
  0
LWPOLYLINE
  5
2A42
330
2
100
AcDbEntity
  8
copper
  6
Continuous
100
AcDbPolyline
 90
        2
 70
   129
 43
2.25
 10
568.0249999999996
 20
402.7669084403364
 42
1.0
 10
570.2749999999996
 20
402.7669084403364
 42
1.0
  0
LWPOLYLINE
  5
2A43
330
2
100
AcDbEntity
  8
copper
  6
Continuous
100
AcDbPolyline
 90
        2
 70
   129
 43
2.25
 10
568.0249999999996
 20
400.2669084403364
 42
1.0
 10
570.2749999999996
 20
400.2669084403364
 42
1.0
  0
LWPOLYLINE
  5
2A44
330
2
100
AcDbEntity
  8
copper
  6
Continuous
100
AcDbPolyline
 90
        2
 70
   128
 43
4.5
 10
569.1499999999996
 20
402.7669084403364
 10
569.1499999999996
 20
400.2669084403364
  0
LWPOLYLINE
  5
2A45
330
2
100
AcDbEntity
  8
copper
  6
Continuous
100
AcDbPolyline
 90
        2
 70
   129
 43
2.25
 10
562.0249999999996
 20
402.6799422139227
 42
1.0
 10
564.2749999999996
 20
402.6799422139227
 42
1.0
  0
LWPOLYLINE
  5
2A46
330
2
100
AcDbEntity
  8
copper
  6
Continuous
100
AcDbPolyline
 90
        2
 70
   129
 43
2.25
 10
562.0249999999996
 20
399.6799422139227
 42
1.0
 10
564.2749999999996
 20
399.6799422139227
 42
1.0
  0
LWPOLYLINE
  5
2A47
330
2
100
AcDbEntity
  8
copper
  6
Continuous
100
AcDbPolyline
 90
        2
 70
   128
 43
4.5
 10
563.1499999999996
 20
402.6799422139227
 10
563.1499999999996
 20
399.6799422139227
  0
LWPOLYLINE
  5
2A48
330
2
100
AcDbEntity
  8
copper
  6
Continuous
100
AcDbPolyline
 90
        2
 70
   129
 43
2.25
 10
557.1499999999996
 20
403.6744757421502
 42
1.0
 10
557.1499999999996
 20
401.4244757421502
 42
1.0
  0
LWPOLYLINE
  5
2A49
330
2
100
AcDbEntity
  8
copper
  6
Continuous
100
AcDbPolyline
 90
        2
 70
   129
 43
2.25
 10
554.6499999999996
 20
403.6744757421502
 42
1.0
 10
554.6499999999996
 20
401.4244757421502
 42
1.0
  0
LWPOLYLINE
  5
2A4A
330
2
100
AcDbEntity
  8
copper
  6
Continuous
100
AcDbPolyline
 90
        2
 70
   128
 43
4.5
 10
557.1499999999996
 20
402.5494757421502
 10
554.6499999999996
 20
402.5494757421502
  0
LWPOLYLINE
  5
2A4B
330
2
100
AcDbEntity
  8
copper
  6
Continuous
100
AcDbPolyline
 90
        4
 70
   128
 10
571.7092123841939
 20
226.1800409555585
 40
0.5
 41
0.5
 42
0.4113259762827774
 10
577.6499999999996
 20
232.1797487729077
 40
0.5
 41
0.5
 10
577.6499999999996
 20
394.27485422226
 40
0.5
 41
0.5
 42
0.1989123673796574
 10
575.1499999999996
 20
400.3103881281929
 40
0.0
 41
0.0
  0
LWPOLYLINE
  5
2A76
330
2
100
AcDbEntity
  8
copper
  6
Continuous
100
AcDbPolyline
 90
        4
 70
   128
 10
571.6993436534949
 20
227.17999225845
 40
0.5
 41
0.5
 42
0.4113259762827774
 10
576.6499999999996
 20
232.1797487729077
 40
0.5
 41
0.5
 10
576.6499999999996
 20
388.4942666119555
 40
0.5
 41
0.5
 42
0.2914734195860881
 10
569.1499999999996
 20
400.2669084403364
 40
0.0
 41
0.0
  0
LWPOLYLINE
  5
2A87
330
2
100
AcDbEntity
  8
copper
100
AcDbPolyline
 90
        2
 70
   128
 43
0.5
 10
571.6993436534949
 20
227.17999225845
 42
0.1403899696948136
 10
226.6428556945648
 20
124.65186051101
 42
0.1403899696948136
  0
LWPOLYLINE
  5
2A88
330
2
100
AcDbEntity
  8
copper
100
AcDbPolyline
 90
        2
 70
   128
 43
0.5
 10
571.7092123841939
 20
226.1800409555588
 42
0.1403006062634337
 10
227.3735281660965
 20
123.9317631209433
 42
0.1403006062634337
  0
LWPOLYLINE
  5
2B57
330
2
100
AcDbEntity
  8
copper
100
AcDbPolyline
 90
        2
 70
   128
 43
0.5
 10
577.0896891671136
 20
399.8229397360719
 42
0.1439278700963342
 10
577.2015865830167
 20
397.00502294535
  0
LWPOLYLINE
  5
2B58
330
2
100
AcDbEntity
  8
copper
100
AcDbPolyline
 90
        2
 70
   128
 43
0.5
 10
577.2238297128933
 20
396.9382281646467
 42
0.3360847324527215
 10
575.2368438113076
 20
398.3122744796642
  0
LWPOLYLINE
  5
2B59
330
2
100
AcDbEntity
  8
copper
100
AcDbPolyline
 90
        2
 70
   128
 43
0.5
 10
571.1157847701356
 20
400.6352699984577
 42
0.1581394831193099
 10
572.5921853954246
 20
397.9257834881583
  0
LWPOLYLINE
  5
2B5A
330
2
100
AcDbEntity
  8
copper
100
AcDbPolyline
 90
        2
 70
   128
 43
0.5
 10
572.8812349185331
 20
397.6433901828816
 42
0.2863047326809761
 10
569.7906565488255
 20
398.3722952380058
  0
LWPOLYLINE
  5
2B5B
330
2
100
AcDbEntity
  8
copper
100
AcDbPolyline
 90
        2
 70
   128
 43
0.5
 10
570.3350389790139
 20
398.8763718273208
 10
571.464841806579
 20
398.8763718273208
  0
LWPOLYLINE
  5
2B5C
330
2
100
AcDbEntity
  8
copper
100
AcDbPolyline
 90
        2
 70
   128
 43
0.5
 10
571.2342735310885
 20
399.6484410573044
 10
571.2342735310885
 20
399.0492234818416
  0
LWPOLYLINE
  5
2B5D
330
2
100
AcDbEntity
  8
copper
100
AcDbPolyline
 90
        2
 70
   128
 43
0.5
 10
576.3183688478402
 20
398.1388818895089
 10
576.3183688478402
 20
398.6343839916249
  0
LWPOLYLINE
  5
2B60
330
2
100
AcDbEntity
  8
copper
100
AcDbPolyline
 90
        2
 70
   128
 43
1.199999999999999
 10
218.053922495938
 20
117.4600098641022
 10
221.2285163921788
 20
119.5485389144032
  0
LWPOLYLINE
  5
2B61
330
2
100
AcDbEntity
  8
copper
100
AcDbPolyline
 90
        2
 70
   128
 43
1.199999999999999
 10
219.0476016531111
 20
115.9591428704616
 10
222.2222123829311
 20
118.0476463332579
  0
LWPOLYLINE
  5
2B62
330
2
100
AcDbEntity
  8
copper
100
AcDbPolyline
 90
        2
 70
   129
 43
0.6
 10
217.753922495961
 20
117.4600098641176
 42
1.0
 10
218.3539224959613
 20
117.4600098641176
 42
1.0
  0
LWPOLYLINE
  5
2B63
330
2
100
AcDbEntity
  8
copper
100
AcDbPolyline
 90
        2
 70
   129
 43
0.6
 10
218.7476016531227
 20
115.9591428704693
 42
1.0
 10
219.3476016531227
 20
115.9591428704693
 42
1.0
  0
LWPOLYLINE
  5
2B64
330
2
100
AcDbEntity
  8
copper
100
AcDbPolyline
 90
        2
 70
   129
 43
0.6
 10
221.9222123829309
 20
118.0476463332579
 42
1.0
 10
222.5222123829308
 20
118.0476463332579
 42
1.0
  0
LWPOLYLINE
  5
2B65
330
2
100
AcDbEntity
  8
copper
100
AcDbPolyline
 90
        2
 70
   129
 43
0.6
 10
220.9285163921786
 20
119.5485389144032
 42
1.0
 10
221.5285163921785
 20
119.5485389144032
 42
1.0
  0
LWPOLYLINE
  5
2B66
330
2
100
AcDbEntity
  8
copper
100
AcDbPolyline
 90
        2
 70
   128
 43
0.5
 10
223.3236759706788
 20
120.9124693893982
 10
226.6428556945648
 20
124.65186051101
  0
LWPOLYLINE
  5
2B67
330
2
100
AcDbEntity
  8
copper
100
AcDbPolyline
 90
        2
 70
   128
 43
0.5
 10
227.3735281660965
 20
123.9317631209433
 10
224.737067761012
 20
119.6833426459986
  0
LWPOLYLINE
  5
2B68
330
2
100
AcDbEntity
  8
copper
100
AcDbPolyline
 90
        2
 70
   129
 43
0.25
 10
224.612067761012
 20
119.6833426459986
 42
1.0
 10
224.862067761012
 20
119.6833426459986
 42
1.0
  0
LWPOLYLINE
  5
2B69
330
2
100
AcDbEntity
  8
copper
100
AcDbPolyline
 90
        2
 70
   129
 43
0.25
 10
227.2485281660966
 20
123.931763120943
 42
1.0
 10
227.4985281660966
 20
123.931763120943
 42
1.0
  0
LWPOLYLINE
  5
2B6A
330
2
100
AcDbEntity
  8
copper
100
AcDbPolyline
 90
        2
 70
   129
 43
0.25
 10
226.5178556945648
 20
124.65186051101
 42
1.0
 10
226.7678556945648
 20
124.65186051101
 42
1.0
  0
LWPOLYLINE
  5
2B6B
330
2
100
AcDbEntity
  8
copper
100
AcDbPolyline
 90
        2
 70
   129
 43
0.25
 10
223.1986759706788
 20
120.9124693893982
 42
1.0
 10
223.4486759706788
 20
120.9124693893982
 42
1.0
  0
LWPOLYLINE
  5
2C01
330
2
100
AcDbEntity
  8
copper
  6
Continuous
100
AcDbPolyline
 90
        2
 70
   129
 43
2.25
 10
582.2749999999996
 20
402.8103881281928
 42
-1.0
 10
580.0249999999996
 20
402.8103881281928
 42
-1.0
  0
LWPOLYLINE
  5
2C02
330
2
100
AcDbEntity
  8
copper
  6
Continuous
100
AcDbPolyline
 90
        2
 70
   129
 43
2.25
 10
582.2749999999996
 20
400.3103881281929
 42
-1.0
 10
580.0249999999996
 20
400.3103881281929
 42
-1.0
  0
LWPOLYLINE
  5
2C03
330
2
100
AcDbEntity
  8
copper
  6
Continuous
100
AcDbPolyline
 90
        2
 70
   128
 43
4.5
 10
581.1499999999996
 20
402.8103881281928
 10
581.1499999999996
 20
400.3103881281929
  0
LWPOLYLINE
  5
2C04
330
2
100
AcDbEntity
  8
copper
  6
Continuous
100
AcDbPolyline
 90
        2
 70
   129
 43
2.25
 10
588.2749999999996
 20
402.7669084403367
 42
-1.0
 10
586.0249999999996
 20
402.7669084403367
 42
-1.0
  0
LWPOLYLINE
  5
2C05
330
2
100
AcDbEntity
  8
copper
  6
Continuous
100
AcDbPolyline
 90
        2
 70
   129
 43
2.25
 10
588.2749999999996
 20
400.2669084403366
 42
-1.0
 10
586.0249999999996
 20
400.2669084403366
 42
-1.0
  0
LWPOLYLINE
  5
2C06
330
2
100
AcDbEntity
  8
copper
  6
Continuous
100
AcDbPolyline
 90
        2
 70
   128
 43
4.5
 10
587.1499999999996
 20
402.7669084403367
 10
587.1499999999996
 20
400.2669084403366
  0
LWPOLYLINE
  5
2C07
330
2
100
AcDbEntity
  8
copper
  6
Continuous
100
AcDbPolyline
 90
        2
 70
   129
 43
2.25
 10
594.2749999999996
 20
402.6799422139227
 42
-1.0
 10
592.0249999999996
 20
402.6799422139227
 42
-1.0
  0
LWPOLYLINE
  5
2C08
330
2
100
AcDbEntity
  8
copper
  6
Continuous
100
AcDbPolyline
 90
        2
 70
   129
 43
2.25
 10
594.2749999999996
 20
399.6799422139227
 42
-1.0
 10
592.0249999999996
 20
399.6799422139227
 42
-1.0
  0
LWPOLYLINE
  5
2C09
330
2
100
AcDbEntity
  8
copper
  6
Continuous
100
AcDbPolyline
 90
        2
 70
   128
 43
4.5
 10
593.1499999999996
 20
402.6799422139227
 10
593.1499999999996
 20
399.6799422139227
  0
LWPOLYLINE
  5
2C0A
330
2
100
AcDbEntity
  8
copper
  6
Continuous
100
AcDbPolyline
 90
        2
 70
   129
 43
2.25
 10
599.1499999999996
 20
403.6744757421504
 42
-1.0
 10
599.1499999999996
 20
401.4244757421504
 42
-1.0
  0
LWPOLYLINE
  5
2C0B
330
2
100
AcDbEntity
  8
copper
  6
Continuous
100
AcDbPolyline
 90
        2
 70
   129
 43
2.25
 10
601.6499999999996
 20
403.6744757421504
 42
-1.0
 10
601.6499999999996
 20
401.4244757421504
 42
-1.0
  0
LWPOLYLINE
  5
2C0C
330
2
100
AcDbEntity
  8
copper
  6
Continuous
100
AcDbPolyline
 90
        2
 70
   128
 43
4.5
 10
599.1499999999996
 20
402.5494757421504
 10
601.6499999999996
 20
402.5494757421504
  0
LWPOLYLINE
  5
2C0D
330
2
100
AcDbEntity
  8
copper
  6
Continuous
100
AcDbPolyline
 90
        4
 70
   128
 10
584.5907876158053
 20
226.1800409555588
 40
0.5
 41
0.5
 42
-0.4113259762827774
 10
578.6499999999996
 20
232.1797487729079
 40
0.5
 41
0.5
 10
578.6499999999996
 20
394.27485422226
 40
0.5
 41
0.5
 42
-0.1989123673796574
 10
581.1499999999996
 20
400.3103881281929
 40
0.0
 41
0.0
  0
LWPOLYLINE
  5
2C38
330
2
100
AcDbEntity
  8
copper
  6
Continuous
100
AcDbPolyline
 90
        4
 70
   128
 10
584.6006563465043
 20
227.1799922584503
 40
0.5
 41
0.5
 42
-0.4113259762827774
 10
579.6499999999996
 20
232.1797487729079
 40
0.5
 41
0.5
 10
579.6499999999996
 20
388.4942666119557
 40
0.5
 41
0.5
 42
-0.2914734195860881
 10
587.1499999999996
 20
400.2669084403366
 40
0.0
 41
0.0
  0
LWPOLYLINE
  5
2C4F
330
2
100
AcDbEntity
  8
copper
100
AcDbPolyline
 90
        2
 70
   128
 43
0.5
 10
584.6006563465043
 20
227.1799922584503
 42
-0.0373940479043851
 10
681.884650263169
 20
218.9279039736736
 42
-0.0373940479043851
  0
LWPOLYLINE
  5
2C50
330
2
100
AcDbEntity
  8
copper
100
AcDbPolyline
 90
        2
 70
   128
 43
0.5
 10
584.5907876158053
 20
226.1800409555588
 42
-0.0373062883894825
 10
681.5000573820766
 20
217.9768462321833
 42
-0.0373062883894825
  0
LWPOLYLINE
  5
2C8D
330
2
100
AcDbEntity
  8
copper
100
AcDbPolyline
 90
        2
 70
   128
 43
0.5
 10
579.2103108328856
 20
399.8229397360722
 42
-0.1439278700963342
 10
579.098413416983
 20
397.0050229453502
  0
LWPOLYLINE
  5
2C8E
330
2
100
AcDbEntity
  8
copper
100
AcDbPolyline
 90
        2
 70
   128
 43
0.5
 10
579.0761702871058
 20
396.938228164647
 42
-0.3360847324527215
 10
581.0631561886911
 20
398.3122744796645
  0
LWPOLYLINE
  5
2C8F
330
2
100
AcDbEntity
  8
copper
100
AcDbPolyline
 90
        2
 70
   128
 43
0.5
 10
585.1842152298636
 20
400.6352699984579
 42
-0.1581394831193099
 10
583.7078146045747
 20
397.9257834881585
  0
LWPOLYLINE
  5
2C90
330
2
100
AcDbEntity
  8
copper
100
AcDbPolyline
 90
        2
 70
   128
 43
0.5
 10
583.418765081466
 20
397.6433901828816
 42
-0.2863047326809761
 10
586.5093434511736
 20
398.372295238006
  0
LWPOLYLINE
  5
2C91
330
2
100
AcDbEntity
  8
copper
100
AcDbPolyline
 90
        2
 70
   128
 43
0.5
 10
585.9649610209853
 20
398.876371827321
 10
584.8351581934203
 20
398.876371827321
  0
LWPOLYLINE
  5
2C92
330
2
100
AcDbEntity
  8
copper
100
AcDbPolyline
 90
        2
 70
   128
 43
0.5
 10
585.0657264689107
 20
399.6484410573046
 10
585.0657264689107
 20
399.0492234818418
  0
LWPOLYLINE
  5
2C93
330
2
100
AcDbEntity
  8
copper
100
AcDbPolyline
 90
        2
 70
   128
 43
0.5
 10
579.981631152159
 20
398.1388818895091
 10
579.981631152159
 20
398.6343839916251
  0
LWPOLYLINE
  5
2C94
330
2
100
AcDbEntity
  8
copper
  6
Continuous
100
AcDbPolyline
 90
        2
 70
   128
 43
0.5
 10
686.4159341044442
 20
216.814265700554
 42
-0.0009581548465543
 10
688.8804586102756
 20
216.3946004051606
  0
LWPOLYLINE
  5
2C95
330
2
100
AcDbEntity
  8
copper
  6
Continuous
100
AcDbPolyline
 90
        2
 70
   128
 43
0.5
 10
685.6069323444262
 20
215.1249033780757
 42
-0.0011529678845086
 10
688.5645658408816
 20
214.622505029505
  0
LWPOLYLINE
  5
2C96
330
2
100
AcDbEntity
  8
copper
100
AcDbPolyline
 90
        2
 70
   128
 43
1.199999999999999
 10
692.6234117500753
 20
215.7386264778859
 10
688.8804586102756
 20
216.3946004051606
  0
LWPOLYLINE
  5
2C97
330
2
100
AcDbEntity
  8
copper
100
AcDbPolyline
 90
        2
 70
   128
 43
1.199999999999999
 10
692.3075242677814
 20
213.9665612706969
 10
688.5645658409103
 20
214.6225050294999
  0
LWPOLYLINE
  5
2C98
330
2
100
AcDbEntity
  8
copper
100
AcDbPolyline
 90
        2
 70
   129
 43
0.6
 10
692.8987381377528
 20
215.857770845081
 42
-1.0
 10
692.3480853623423
 20
215.6194821107008
 42
-1.0
  0
LWPOLYLINE
  5
2C99
330
2
100
AcDbEntity
  8
copper
100
AcDbPolyline
 90
        2
 70
   129
 43
0.6
 10
692.582850655473
 20
214.0857056378893
 42
-1.0
 10
692.032197880063
 20
213.8474169035087
 42
-1.0
  0
LWPOLYLINE
  5
2C9A
330
2
100
AcDbEntity
  8
copper
100
AcDbPolyline
 90
        2
 70
   129
 43
0.6
 10
688.8398922286155
 20
214.7416493966909
 42
-1.0
 10
688.2892394532055
 20
214.5033606623103
 42
-1.0
  0
LWPOLYLINE
  5
2C9B
330
2
100
AcDbEntity
  8
copper
100
AcDbPolyline
 90
        2
 70
   129
 43
0.6
 10
689.1557849979808
 20
216.5137447723516
 42
-1.0
 10
688.6051322225703
 20
216.275456037971
 42
-1.0
  0
LWPOLYLINE
  5
2C9C
330
2
100
AcDbEntity
  8
copper
100
AcDbPolyline
 90
        2
 70
   128
 43
0.5
 10
686.4159341044442
 20
216.814265700554
 10
681.8846502631645
 20
218.927903973676
  0
LWPOLYLINE
  5
2C9D
330
2
100
AcDbEntity
  8
copper
100
AcDbPolyline
 90
        2
 70
   128
 43
0.5
 10
681.5000573820734
 20
217.9768462321856
 10
685.6069323444262
 20
215.1249033780757
  0
LWPOLYLINE
  5
2C9E
330
2
100
AcDbEntity
  8
copper
100
AcDbPolyline
 90
        2
 70
   129
 43
0.25
 10
685.7216516726366
 20
215.1745468644056
 42
-1.0
 10
685.4922130162158
 20
215.0752598917463
 42
-1.0
  0
LWPOLYLINE
  5
2C9F
330
2
100
AcDbEntity
  8
copper
100
AcDbPolyline
 90
        2
 70
   129
 43
0.25
 10
681.6147767102838
 20
218.026489718515
 42
-1.0
 10
681.385338053863
 20
217.9272027458558
 42
-1.0
  0
LWPOLYLINE
  5
2CA0
330
2
100
AcDbEntity
  8
copper
100
AcDbPolyline
 90
        2
 70
   129
 43
0.25
 10
681.9993695913754
 20
218.9775474600049
 42
-1.0
 10
681.7699309349546
 20
218.8782604873461
 42
-1.0
  0
LWPOLYLINE
  5
2CA1
330
2
100
AcDbEntity
  8
copper
100
AcDbPolyline
 90
        2
 70
   129
 43
0.25
 10
686.5306534326546
 20
216.8639091868838
 42
-1.0
 10
686.3012147762337
 20
216.7646222142246
 42
-1.0
  0
LWPOLYLINE
  5
3858
330
2
100
AcDbEntity
  8
mechanical
  6
Continuous
100
AcDbPolyline
 90
        2
 70
   128
 43
2.0
 10
0.0
 20
416.5658229286379
 10
2.0
 20
416.5658229286379
  0
LWPOLYLINE
  5
3859
330
2
100
AcDbEntity
  8
mechanical
  6
Continuous
100
AcDbPolyline
 90
        2
 70
   128
 43
2.0
 10
0.0
 20
1.0
 10
2.0
 20
1.0
  0
LWPOLYLINE
  5
385A
330
2
100
AcDbEntity
  8
mechanical
  6
Continuous
100
AcDbPolyline
 90
        2
 70
   128
 43
2.0
 10
100.0
 20
416.5658229286379
 10
102.0
 20
416.5658229286379
  0
LWPOLYLINE
  5
385B
330
2
100
AcDbEntity
  8
mechanical
  6
Continuous
100
AcDbPolyline
 90
        2
 70
   128
 43
2.0
 10
100.0
 20
1.0
 10
102.0
 20
1.0
  0
LWPOLYLINE
  5
385C
330
2
100
AcDbEntity
  8
mechanical
  6
Continuous
100
AcDbPolyline
 90
        2
 70
   128
 43
2.0
 10
200.0
 20
416.5658229286379
 10
202.0
 20
416.5658229286379
  0
LWPOLYLINE
  5
385D
330
2
100
AcDbEntity
  8
mechanical
  6
Continuous
100
AcDbPolyline
 90
        2
 70
   128
 43
2.0
 10
200.0
 20
1.0
 10
202.0
 20
1.0
  0
LWPOLYLINE
  5
385E
330
2
100
AcDbEntity
  8
mechanical
  6
Continuous
100
AcDbPolyline
 90
        2
 70
   128
 43
2.0
 10
300.0
 20
416.5658229286379
 10
302.0
 20
416.5658229286379
  0
LWPOLYLINE
  5
385F
330
2
100
AcDbEntity
  8
mechanical
  6
Continuous
100
AcDbPolyline
 90
        2
 70
   128
 43
2.0
 10
300.0
 20
1.0
 10
302.0
 20
1.0
  0
LWPOLYLINE
  5
3860
330
2
100
AcDbEntity
  8
mechanical
  6
Continuous
100
AcDbPolyline
 90
        2
 70
   128
 43
2.0
 10
400.0
 20
416.5658229286379
 10
402.0
 20
416.5658229286379
  0
LWPOLYLINE
  5
3861
330
2
100
AcDbEntity
  8
mechanical
  6
Continuous
100
AcDbPolyline
 90
        2
 70
   128
 43
2.0
 10
400.0
 20
1.0
 10
402.0
 20
1.0
  0
LWPOLYLINE
  5
3862
330
2
100
AcDbEntity
  8
mechanical
  6
Continuous
100
AcDbPolyline
 90
        2
 70
   128
 43
2.0
 10
500.0
 20
416.5658229286379
 10
502.0
 20
416.5658229286379
  0
LWPOLYLINE
  5
3863
330
2
100
AcDbEntity
  8
mechanical
  6
Continuous
100
AcDbPolyline
 90
        2
 70
   128
 43
2.0
 10
500.0
 20
1.0
 10
502.0
 20
1.0
  0
LWPOLYLINE
  5
3864
330
2
100
AcDbEntity
  8
mechanical
  6
Continuous
100
AcDbPolyline
 90
        2
 70
   128
 43
2.0
 10
600.0
 20
416.5658229286379
 10
602.0
 20
416.5658229286379
  0
LWPOLYLINE
  5
3865
330
2
100
AcDbEntity
  8
mechanical
  6
Continuous
100
AcDbPolyline
 90
        2
 70
   128
 43
2.0
 10
600.0
 20
1.0
 10
602.0
 20
1.0
  0
LWPOLYLINE
  5
3866
330
2
100
AcDbEntity
  8
mechanical
  6
Continuous
100
AcDbPolyline
 90
        2
 70
   128
 43
2.0
 10
700.0
 20
416.5658229286379
 10
702.0
 20
416.5658229286379
  0
LWPOLYLINE
  5
3867
330
2
100
AcDbEntity
  8
mechanical
  6
Continuous
100
AcDbPolyline
 90
        2
 70
   128
 43
2.0
 10
700.0
 20
1.0
 10
702.0
 20
1.0
  0
LWPOLYLINE
  5
3868
330
2
100
AcDbEntity
  8
mechanical
  6
Continuous
100
AcDbPolyline
 90
        2
 70
   128
 43
2.0
 10
800.0
 20
416.5658229286379
 10
802.0
 20
416.5658229286379
  0
LWPOLYLINE
  5
3869
330
2
100
AcDbEntity
  8
mechanical
  6
Continuous
100
AcDbPolyline
 90
        2
 70
   128
 43
2.0
 10
800.0
 20
1.0
 10
802.0
 20
1.0
  0
LWPOLYLINE
  5
386A
330
2
100
AcDbEntity
  8
mechanical
  6
Continuous
100
AcDbPolyline
 90
        2
 70
   128
 43
2.0
 10
900.0
 20
416.5658229286379
 10
902.0
 20
416.5658229286379
  0
LWPOLYLINE
  5
386B
330
2
100
AcDbEntity
  8
mechanical
  6
Continuous
100
AcDbPolyline
 90
        2
 70
   128
 43
2.0
 10
900.0
 20
1.0
 10
902.0
 20
1.0
  0
LWPOLYLINE
  5
386C
330
2
100
AcDbEntity
  8
mechanical
  6
Continuous
100
AcDbPolyline
 90
        2
 70
   128
 43
2.0
 10
1000.0
 20
416.5658229286379
 10
1002.0
 20
416.5658229286379
  0
LWPOLYLINE
  5
386D
330
2
100
AcDbEntity
  8
mechanical
  6
Continuous
100
AcDbPolyline
 90
        2
 70
   128
 43
2.0
 10
1000.0
 20
1.0
 10
1002.0
 20
1.0
  0
LWPOLYLINE
  5
386E
330
2
100
AcDbEntity
  8
mechanical
  6
Continuous
100
AcDbPolyline
 90
        2
 70
   128
 43
2.0
 10
1100.0
 20
416.5658229286379
 10
1102.0
 20
416.5658229286379
  0
LWPOLYLINE
  5
386F
330
2
100
AcDbEntity
  8
mechanical
  6
Continuous
100
AcDbPolyline
 90
        2
 70
   128
 43
2.0
 10
1100.0
 20
1.0
 10
1102.0
 20
1.0
  0
LWPOLYLINE
  5
3870
330
2
100
AcDbEntity
  8
mechanical
  6
Continuous
100
AcDbPolyline
 90
        2
 70
   128
 43
2.0
 10
1154.3
 20
416.5658229286379
 10
1156.299999999999
 20
416.5658229286379
  0
LWPOLYLINE
  5
3871
330
2
100
AcDbEntity
  8
mechanical
  6
Continuous
100
AcDbPolyline
 90
        2
 70
   128
 43
2.0
 10
1154.3
 20
1.0
 10
1156.299999999999
 20
1.0
  0
LWPOLYLINE
  5
3888
330
2
100
AcDbEntity
  8
kapton
  6
Continuous
100
AcDbPolyline
 90
        2
 70
   128
 43
0.25
 10
972.1921412540067
 20
10.00000000000045
 42
0.3846436892416937
 10
184.1078587459924
 20
10.00000000000045
  0
LWPOLYLINE
  5
3889
330
2
100
AcDbEntity
  8
kapton
  6
Continuous
100
AcDbPolyline
 90
        2
 70
   128
 43
0.25
 10
1146.3
 20
184.1078587459928
 42
0.3933080422118196
 10
10.0
 20
184.1078587459928
  0
LWPOLYLINE
  5
388A
330
2
100
AcDbEntity
  8
kapton
  6
Continuous
100
AcDbPolyline
 90
        2
 70
   128
 43
0.25
 10
10.0
 20
184.1078587459928
 10
184.1078587459924
 20
10.0
  0
LWPOLYLINE
  5
388B
330
2
100
AcDbEntity
  8
kapton
  6
Continuous
100
AcDbPolyline
 90
        2
 70
   128
 43
0.25
 10
10.0
 20
184.1078587459928
 10
184.1078587459924
 20
10.0
  0
LWPOLYLINE
  5
388C
330
2
100
AcDbEntity
  8
kapton
  6
Continuous
100
AcDbPolyline
 90
        2
 70
   128
 43
0.25
 10
10.0
 20
184.1078587459928
 10
184.1078587459924
 20
10.0
  0
LWPOLYLINE
  5
388D
330
2
100
AcDbEntity
  8
kapton
  6
Continuous
100
AcDbPolyline
 90
        2
 70
   128
 43
0.25
 10
1146.3
 20
184.1078587459928
 10
972.1921412540067
 20
10.0
  0
LWPOLYLINE
  5
388E
330
2
100
AcDbEntity
  8
kapton
  6
Continuous
100
AcDbPolyline
 90
        2
 70
   129
 43
0.25
 10
375.6499999999996
 20
209.0
 42
0.9999999999999998
 10
361.6499999999996
 20
209.0
 42
0.9999999999999998
  0
LWPOLYLINE
  5
388F
330
2
100
AcDbEntity
  8
kapton
  6
Continuous
100
AcDbPolyline
 90
        2
 70
   129
 43
0.125
 10
1146.2375
 20
184.1078587459928
 42
1.0
 10
1146.362499999999
 20
184.1078587459928
 42
1.0
  0
LWPOLYLINE
  5
3890
330
2
100
AcDbEntity
  8
kapton
  6
Continuous
100
AcDbPolyline
 90
        2
 70
   129
 43
0.125
 10
972.1296412540068
 20
10.0
 42
1.0
 10
972.2546412540069
 20
10.0
 42
1.0
  0
LWPOLYLINE
  5
3891
330
2
100
AcDbEntity
  8
kapton
  6
Continuous
100
AcDbPolyline
 90
        2
 70
   129
 43
0.125
 10
184.0453587459924
 20
10.00000000000045
 42
1.0
 10
184.1703587459924
 20
10.00000000000045
 42
1.0
  0
LWPOLYLINE
  5
3892
330
2
100
AcDbEntity
  8
kapton
  6
Continuous
100
AcDbPolyline
 90
        2
 70
   129
 43
0.125
 10
9.9375
 20
184.1078587459928
 42
1.0
 10
10.0625
 20
184.1078587459928
 42
1.0
  0
LWPOLYLINE
  5
3893
330
2
100
AcDbEntity
  8
kapton
  6
Continuous
100
AcDbPolyline
 90
        2
 70
   129
 43
0.25
 10
349.6499999999997
 20
293.0
 42
0.9999999999999998
 10
335.6499999999996
 20
293.0
 42
0.9999999999999998
  0
LWPOLYLINE
  5
3894
330
2
100
AcDbEntity
  8
kapton
  6
Continuous
100
AcDbPolyline
 90
        2
 70
   129
 43
0.25
 10
780.6499999999996
 20
209.0
 42
-0.9999999999999998
 10
794.6499999999996
 20
209.0
 42
-0.9999999999999998
  0
LWPOLYLINE
  5
3895
330
2
100
AcDbEntity
  8
kapton
  6
Continuous
100
AcDbPolyline
 90
        2
 70
   129
 43
0.25
 10
806.6499999999996
 20
293.0
 42
-0.9999999999999998
 10
820.6499999999996
 20
293.0
 42
-0.9999999999999998
  0
HATCH
  5
3896
330
2
100
AcDbEntity
  8
kapton
100
AcDbHatch
 10
0.0
 20
0.0
 30
0.0
210
0.0
220
0.0
230
1.0
  2
ANSI37
 70
     0
 71
     1
 91
        1
 92
        7
 72
     0
 73
     1
 93
        4
 10
603.1500000000001
 20
405.065822928638
 10
553.1500000000001
 20
405.065822928638
 10
553.1500000000001
 20
400.0658229286379
 10
603.1500000000001
 20
400.0658229286379
 97
        1
330
3897
 75
     0
 76
     1
 52
0.0
 41
0.5
 77
     0
 78
     2
 53
45.0
 43
0.0
 44
0.0
 45
-1.122532015133643
 46
1.122532015133644
 79
     0
 53
135.0
 43
0.0
 44
0.0
 45
-1.122532015133644
 46
-1.122532015133643
 79
     0
 47
0.0646116985712494
 98
        1
 10
592.5226862862218
 20
403.6455137151715
1001
ACAD
1010
0.0
1020
0.0
1030
0.0
  0
LWPOLYLINE
  5
3897
102
{ACAD_REACTORS
330
3896
102
}
330
2
100
AcDbEntity
  8
kapton
100
AcDbPolyline
 90
        4
 70
     1
 43
0.25
 10
553.1500000000001
 20
405.065822928638
 10
603.1500000000001
 20
405.065822928638
 10
603.1500000000001
 20
400.0658229286379
 10
553.1500000000001
 20
400.0658229286379
  0
LWPOLYLINE
  5
38A4
330
2
100
AcDbEntity
  8
copper
100
AcDbPolyline
 90
        2
 70
   128
 43
0.5
 10
607.7811592346442
 20
402.6404889298956
 42
-0.1346900899421399
 10
602.7313878762953
 20
404.2219145258801
  0
LWPOLYLINE
  5
38A5
330
2
100
AcDbEntity
  8
copper
100
AcDbPolyline
 90
        2
 70
   128
 43
0.5
 10
602.3982818842307
 20
400.694732034322
 42
-0.1048012284961556
 10
606.4817239143948
 20
401.415162468173
  0
LWPOLYLINE
  5
38A6
330
2
100
AcDbEntity
  8
copper
100
AcDbPolyline
 90
        2
 70
   128
 43
1.199999999999999
 10
602.8477466908183
 20
403.5997724821767
 10
604.9841074173567
 20
402.6012050808084
  0
LWPOLYLINE
  5
38A7
330
2
100
AcDbEntity
  8
copper
100
AcDbPolyline
 90
        2
 70
   128
 43
1.199999999999999
 10
602.3866583015281
 20
401.203212988158
 10
604.4692290070501
 20
401.8177148406588
  0
LWPOLYLINE
  5
38A8
330
2
100
AcDbEntity
  8
copper
100
AcDbPolyline
 90
        2
 70
   128
 43
0.5
 10
598.0775880047096
 20
398.9072884875966
 42
-0.4071607595117997
 10
595.1499999999981
 20
401.9064144440944
  0
LWPOLYLINE
  5
38A9
330
2
100
AcDbEntity
  8
copper
100
AcDbPolyline
 90
        2
 70
   128
 43
1.199999999999999
 10
594.5150835192419
 20
400.7170229469274
 10
596.5303579244321
 20
398.5169402047708
  0
LWPOLYLINE
  5
38AB
330
2
100
AcDbEntity
  8
copper
100
AcDbPolyline
 90
        2
 70
   128
 43
0.5
 10
548.5188407653549
 20
402.6404889298956
 42
0.1346900899421399
 10
553.5686121237039
 20
404.2219145258801
  0
LWPOLYLINE
  5
38AC
330
2
100
AcDbEntity
  8
copper
100
AcDbPolyline
 90
        2
 70
   128
 43
0.5
 10
553.9017181157685
 20
400.694732034322
 42
0.1048012284961556
 10
549.8182760856044
 20
401.415162468173
  0
LWPOLYLINE
  5
38AD
330
2
100
AcDbEntity
  8
copper
100
AcDbPolyline
 90
        2
 70
   128
 43
1.199999999999999
 10
553.4522533091809
 20
403.5997724821767
 10
551.3158925826425
 20
402.6012050808084
  0
LWPOLYLINE
  5
38AE
330
2
100
AcDbEntity
  8
copper
100
AcDbPolyline
 90
        2
 70
   128
 43
1.199999999999999
 10
553.9133416984712
 20
401.203212988158
 10
551.8307709929492
 20
401.8177148406588
  0
LWPOLYLINE
  5
38AF
330
2
100
AcDbEntity
  8
copper
100
AcDbPolyline
 90
        2
 70
   128
 43
0.5
 10
558.2224119952895
 20
398.9072884875966
 42
0.4071607595117997
 10
561.1500000000011
 20
401.9064144440944
  0
LWPOLYLINE
  5
38B0
330
2
100
AcDbEntity
  8
copper
100
AcDbPolyline
 90
        2
 70
   128
 43
1.199999999999999
 10
561.7849164807573
 20
400.7170229469274
 10
559.7696420755672
 20
398.5169402047708
  0
LWPOLYLINE
  5
38B1
330
2
100
AcDbEntity
  8
copper
  6
Continuous
100
AcDbPolyline
 90
      346
 70
   128
 43
1.769
 10
563.1590859308155
 20
398.3816052699893
 42
0.0025418837663383
 10
554.7736799576115
 20
398.1865539106336
 42
-0.0841208282729742
 10
553.3295272350329
 20
398.3893392880397
 42
0.0850164725982909
 10
551.8245991231383
 20
398.5979299236797
 42
0.1767840849348272
 10
26.57338004463916
 20
187.6783831508053
 42
1.0
 10
28.92682137797283
 20
185.0581163913784
 42
-0.1819379435019721
 10
568.3490035596762
 20
395.437385503218
 42
-1.0
 10
568.4749964403222
 20
384.8721367227099
 42
0.1829321740648791
 10
33.66789579103162
 20
175.1061613035294
 42
1.0
 10
36.03140461200928
 20
172.4949719091807
 42
-0.1828780898566002
 10
568.347897729638
 20
381.3483529174252
 42
-1.0
 10
568.4761022703624
 20
370.7831307429633
 42
0.1826502942275001
 10
43.64332586745642
 20
165.1329243497463
 42
1.0
 10
46.00453140518107
 20
162.5196519933662
 42
-0.182594282779899
 10
568.3467523827743
 20
367.2592831840187
 42
-1.0
 10
568.4772476172234
 20
356.6940890545295
 42
0.1823582867775104
 10
53.61925218778512
 20
155.1592702297259
 42
1.0
 10
55.97806934764287
 20
152.5438418505952
 42
-0.1823002431971133
 10
568.3455653623601
 20
353.170174261697
 42
-1.0
 10
568.4784346376403
 20
342.6050097217721
 42
0.182055595650269
 10
63.59570220911553
 20
145.1851758418626
 42
1.0
 10
65.95204109459143
 20
142.5675144701806
 42
-0.0992091469449851
 10
324.7412674712599
 20
295.9879214016713
 42
-1.0
 10
328.2386467949855
 20
286.0175305434361
 42
0.0989610765475566
 10
73.57270545352794
 20
135.2106163454079
 42
1.0
 10
75.92647099817185
 20
132.5906408186431
 42
-0.1001715779817542
 10
332.8071837251093
 20
283.8785164674123
 42
-1.0
 10
336.2567202415775
 20
273.8914721688444
 42
0.0999139889989553
 10
83.55029370606755
 20
125.2355649935431
 42
1.0
 10
85.90138526953053
 20
122.613189646608
 42
-0.1028083506606697
 10
345.4095715732037
 20
273.2754788429424
 42
0.4128186527775008
 10
346.5273766825691
 20
275.4943075861237
 10
345.9220643994744
 20
277.343489515039
 42
-0.3517056221783663
 10
348.2522863649005
 20
283.5335123997522
 42
0.4070135839703357
 10
352.2516655826375
 20
298.3673101307063
 42
-0.4784976775868848
 10
355.3254453095601
 20
305.9993638803141
 42
-0.0707476413686911
 10
568.3443343517982
 20
339.0810239568079
 42
-1.0
 10
568.4796656482022
 20
328.5158906665827
 42
0.0683680017908347
 10
365.2528628283482
 20
297.9399866921715
 42
1.0
 10
366.2459910397122
 20
294.5609068831416
 42
-0.0683072614227326
 10
568.3430568595582
 20
324.9918299088618
 42
-1.0
 10
568.480943140442
 20
314.4267296550284
 42
0.0709176593982366
 10
361.8500998173681
 20
282.2143443812595
 42
1.0
 10
362.8782865793615
 20
278.8457666424413
 42
-0.0708545589242384
 10
568.3417302023294
 20
310.9025895743674
 42
-1.0
 10
568.4822697976693
 20
300.3375242824656
 42
0.1810772131062408
 10
93.52850123596263
 20
115.2599929468332
 42
1.0
 10
95.87681215981247
 20
112.6351272731404
 42
-0.1810098255225447
 10
568.3403514862171
 20
296.8133002087448
 42
-1.0
 10
568.4836485137826
 20
286.2482719569182
 42
0.1807253348661959
 10
103.5073650443297
 20
105.2838690643136
 42
1.0
 10
105.8527821627415
 20
102.6564173443653
 42
-0.1806552584468522
 10
568.338917585655
 20
282.7239588460517
 42
-1.0
 10
568.4850824143429
 20
272.1589698804705
 42
0.1803592841243158
 10
113.48692514214
 20
95.30715966902006
 42
1.0
 10
115.8293282418584
 20
92.67702056273151
 42
-0.1802863546390054
 10
568.3374251197704
 20
268.6345622762092
 42
-1.0
 10
568.4865748802283
 20
258.0696150284014
 42
0.0692245785806361
 10
382.0187680988514
 20
229.440325449463
 42
1.0
 10
383.0278280644296
 20
226.0659689203054
 42
-0.0691506482781378
 10
568.3358704257527
 20
254.545107019352
 42
-1.0
 10
568.4881295742465
 20
243.980204125728
 42
0.0673995626973956
 10
390.538191299885
 20
217.2665324919202
 42
1.0
 10
391.5237014541049
 20
213.885223021326
 42
-0.0673225030509407
 10
568.3342495288494
 20
240.4555892968808
 42
-1.0
 10
568.4897504711496
 20
229.8907336207748
 42
0.070606050852453
 10
386.2584998203472
 20
201.2865896512337
 42
-0.5566183672636047
 10
379.5020961863515
 20
207.2022212699645
 42
0.5012592784050423
 10
367.2933037596238
 20
219.9160146258306
 42
-0.2688435467055747
 10
362.4166243288923
 20
221.9871397897082
 42
0.3232284551751073
 10
360.4482410263366
 20
222.5995411003324
 42
0.1010347894385235
 10
123.4672248628683
 20
85.32982828423023
 42
1.0
 10
125.8064860859871
 20
82.69689438266471
 42
-0.0967631088119148
 10
350.6738834204689
 20
215.5032956515637
 42
-1.0
 10
354.2030114547971
 20
205.5440983286205
 42
0.0964491238067332
 10
133.4483112149602
 20
75.35183533605392
 42
1.0
 10
135.7842943971108
 20
72.7159926676249
 42
-0.0965197726984102
 10
355.555413722073
 20
202.2867145838776
 42
-1.0
 10
359.0817531516249
 20
192.3265295340111
 42
0.0961922640775939
 10
143.4302352801871
 20
65.37313781725588
 42
1.0
 10
145.7627952155663
 20
62.73426530274043
 42
-0.0230748031179517
 10
192.6804263286127
 20
100.4981408306622
 42
-1.0
 10
198.9187993001382
 20
91.97035925113409
 42
0.0227358280918039
 10
153.413052665009
 20
55.39368890626533
 42
1.0
 10
155.742034288333
 20
52.75165775614232
 42
-0.027647994831536
 10
211.1939747494787
 20
96.43371191049137
 42
0.4138110066416865
 10
211.6251805146413
 20
98.88478880577537
 10
211.2686862853577
 20
99.32620600825163
 42
-1.004128701517848
 10
219.9830492548179
 20
105.3010146950826
 10
220.2662873760701
 20
104.8093710753513
 42
0.9986263370848625
 10
223.1926865660471
 20
106.7691282904418
 10
222.8459239134194
 20
107.2182306672938
 42
-1.00412870151822
 10
231.6887753214591
 20
113.0011745355205
 10
231.9612017454576
 20
112.5034586269377
 42
0.9986263370963063
 10
234.9297293192569
 20
114.3987962234601
 10
232.7416486260484
 20
117.8258624044068
 42
-1.004106238046374
 10
241.7087657247228
 20
123.4141798856212
 10
243.8214647493753
 20
119.9401357637131
 42
0.9986263370583337
 10
246.8307028621789
 20
121.7701484799659
 10
244.718037561366
 20
125.2442131101871
 42
-1.004106238046343
 10
253.8051366130015
 20
130.6352345493905
 10
255.8414116223228
 20
127.1158505385808
 42
0.9986263371386481
 10
258.8899229850318
 20
128.8796643135109
 10
256.8536821396899
 20
132.3990680907255
 42
-1.004106238046374
 10
266.0564229131476
 20
137.5902185979565
 10
268.0153013300915
 20
134.0271756461022
 42
0.998626337117113
 10
271.1016298956286
 20
135.7239480370693
 10
269.1427860664223
 20
139.2870100040924
 42
-1.004106238049353
 10
278.4567730971149
 20
144.2758101528528
 10
280.3373193111331
 20
140.6708100606134
 42
0.9986263371376079
 10
283.4599909699559
 20
142.2997306456585
 10
281.5794797509155
 20
145.9047489927543
 42
-1.004106238044269
 10
291.0002644400658
 20
150.6888160044986
 10
292.8015802543052
 20
147.0435806118918
 42
0.9986263370849146
 10
295.95910353834
 20
148.6038713770941
 10
294.1578231098029
 20
152.2491242551323
 42
-1.004106238048324
 10
303.6809058494049
 20
156.8261731369859
 10
305.4021309091428
 20
153.1424435021032
 42
0.9986263370786724
 10
308.59299770468
 20
154.6333592121068
 10
306.8718084041493
 20
158.3171055552918
 42
-1.004106238045158
 10
316.4926407261143
 20
162.6849501913589
 10
318.1329529301589
 20
158.9644857578794
 42
0.9986263371268924
 10
321.3556391974153
 20
160.3853143133483
 10
319.7153631090958
 20
164.1057946698505
 42
-1.004106238044971
 10
329.4293498575229
 20
168.2623488657643
 10
330.9879657509109
 20
164.506926622437
 42
0.9986263370601024
 10
334.2409322523087
 20
165.8569893994886
 10
332.6823528140352
 20
169.6124267726836
 42
-1.004106238047793
 10
342.4848543401235
 20
173.5557052517186
 10
343.961029487947
 20
169.7671188844708
 42
0.9986263370269675
 10
347.2427225234296
 20
171.0457710584652
 10
345.7665841526531
 20
174.8343717553009
 42
-1.004106238048776
 10
355.6529185306558
 20
178.5624911067306
 10
357.0459478738104
 20
174.742550141565
 42
0.9986263371280369
 10
360.3548000227265
 20
175.9491809955597
 10
358.9618077610182
 20
179.7691354830988
 42
-1.004106238044659
 10
368.927253024485
 20
183.2803150616783
 10
370.2364712165835
 20
179.4308439999457
 42
0.9986263370621308
 10
373.5709020864372
 20
180.5648772161097
 10
372.2617212624614
 20
184.4143609865674
 42
-1.004106238044066
 10
382.3015176595902
 20
187.7069237629449
 10
383.5262993844928
 20
183.8297612105921
 42
0.998626337022962
 10
386.8847163656663
 20
184.8906551457999
 10
385.6599722777494
 20
188.7678295870383
 42
-1.004106238046
 10
395.7693245447047
 20
191.8402029489184
 10
396.9090848151711
 20
187.9372007384661
 42
0.9986263370508952
 10
400.2898838419026
 20
188.924448682018
 10
399.1501614591401
 20
192.8274619563832
 42
-1.004106238049337
 10
409.3242411104049
 20
195.6781784596331
 10
410.3784355478127
 20
191.7512007646671
 42
0.9986263371581546
 10
413.7800018636959
 20
192.6643311824329
 10
412.7258455468158
 20
196.5913191103647
 42
-1.004106238041602
 10
422.9597931814429
 20
199.2190171797597
 10
423.9279182755541
 20
195.2699396253152
 42
0.9986263370250426
 10
427.3486272056463
 20
196.1085163819588
 10
426.3805404464889
 20
200.0576033342541
 42
-1.004106238046842
 10
436.6694680690256
 20
202.4610279139707
 10
437.551061418558
 20
198.4917366803616
 42
0.9986263370487106
 10
440.9892791444276
 20
199.2553592512123
 10
440.1077243261974
 20
203.2246590420994
 42
-1.004106238050226
 10
450.4467176813704
 20
205.4026621949604
 10
451.2413582146399
 20
201.4150531178889
 42
0.9986263371176333
 10
454.6954425556588
 20
202.1033567764052
 10
453.9008407314427
 20
206.0909735669328
 42
-1.004106238046936
 10
464.2849616512817
 20
208.0425150228973
 10
464.9922698276758
 20
204.0384926863388
 42
0.9986263371247597
 10
468.4605710246885
 20
204.6511486811674
 10
467.7533017166276
 20
208.6551778836504
 42
-1.004106238046811
 10
478.1775904791166
 20
210.3793255363854
 10
478.7972284701816
 20
206.3608023636813
 42
0.9986263371008837
 10
482.2780899736432
 20
206.8975180751313
 10
481.6584909917231
 20
210.9160472623877
 42
-1.004106238048776
 10
492.1179686895908
 20
212.411977615042
 10
492.6496405402894
 20
208.3808729561979
 42
0.9986263371611716
 10
496.1413998017308
 20
208.8413920343461
 10
495.6097670822471
 20
212.8725018542223
 42
-1.004106238044316
 10
506.0994380011315
 20
214.1395004121131
 10
506.5428897714367
 20
210.0977396254708
 42
0.9986263371222628
 10
510.0438790371328
 20
210.4818421152816
 10
509.6004665015145
 20
214.5236072062946
 42
-1.004106238050648
 10
520.1153205060007
 20
215.5610688183657
 10
520.4703403919737
 20
211.5105823524755
 42
0.9986263370499591
 10
523.9788874998363
 20
211.8180847965402
 10
523.6239069332364
 20
215.8685747084684
 42
-1.004106238040011
 10
534.1589218598086
 20
216.6760038565002
 10
534.4253402948435
 20
212.6187263276245
 42
0.9986263370230659
 10
537.9397694729624
 20
212.8494818544951
 10
537.6733904231984
 20
216.9067619696326
 42
-1.004106238044503
 10
548.223534478959
 20
217.4837730049564
 10
548.4012242148045
 20
213.4216422725018
 42
0.9986263370179162
 10
551.9198568817713
 20
213.5755406680404
 10
551.7422065783192
 20
217.6376731252185
 42
-1.004106238047996
 10
562.3024407443365
 20
217.9839904523349
 10
562.3912973278951
 20
213.9189462122865
 42
0.9986263371301694
 10
565.9124528923082
 20
213.995914078316
 10
565.8235963505868
 20
218.0609583191761
 42
-1.004106238041072
 10
576.3888767815505
 20
218.1764171745535
 10
576.3888724215348
 20
207.0663749715175
 42
-0.4129928167083535
 10
571.1647423453397
 20
201.7469867464481
 42
0.1793803282906188
 10
163.3968240133758
 20
45.41343753425324
 42
1.0
 10
165.7220614872303
 20
42.76811058089106
 42
-0.1793150670766127
 10
571.0459216163626
 20
198.2234277605325
 42
-1.0
 10
571.1660783836359
 20
187.6581109952256
 42
0.1789327911608691
 10
173.3816155909502
 20
35.4323278918019
 42
1.0
 10
175.702931285115
 20
32.78355884788272
 42
-0.1788645026937808
 10
571.0445233898385
 20
184.1344794302166
 42
-1.0
 10
571.1674766101626
 20
173.5691948384217
 42
0.1784642473462478
 10
183.3674999526604
 20
25.45029886510196
 42
1.0
 10
185.6847032996928
 20
22.79793149829499
 42
-0.3752940519039471
 10
970.6152967003065
 20
22.79793149829528
 42
1.0
 10
972.9325000473389
 20
25.45029886510202
 42
0.1784642473462481
 10
585.132523389836
 20
173.5691948384222
 42
-1.0
 10
585.2554766101623
 20
184.1344794302166
 42
-0.1788645026937799
 10
980.5970687148841
 20
32.78355884788305
 42
1.0
 10
982.9183844090488
 20
35.43232789180218
 42
0.1789327911608693
 10
585.1339216163624
 20
187.6581109952256
 42
-1.0
 10
585.2540783836357
 20
198.2234277605329
 42
-0.1793150670766132
 10
990.5779385127692
 20
42.76811058089132
 42
1.0
 10
992.9031759866234
 20
45.41343753425309
 42
0.1793803282906188
 10
585.1352576546595
 20
201.7469867464484
 42
-0.4129928167074671
 10
579.9111275784643
 20
207.066374971502
 10
579.9111232184486
 20
218.1764171745522
 42
-1.004106238043832
 10
590.4764036494121
 20
218.0609583191648
 10
590.3875471076836
 20
213.9959140779787
 42
0.9986263371317299
 10
593.908702672111
 20
213.9189462126041
 10
593.9975592556622
 20
217.9839904523372
 42
-1.004106238047856
 10
604.5577934216778
 20
217.6376731251651
 10
604.3801431182377
 20
213.5755406682722
 42
0.9986263371101948
 10
607.8987757851962
 20
213.4216422725359
 10
608.0764655210399
 20
217.4837730049519
 42
-1.004106238043941
 10
618.6266095768011
 20
216.906761969636
 10
618.3602305270596
 20
212.8494818548512
 42
0.9986263372165179
 10
621.8746597051788
 20
212.6187263279697
 10
622.1410781401898
 20
216.6760038564956
 42
-1.004106238053314
 10
632.6760930667518
 20
215.8685747083377
 10
632.3211125001577
 20
211.8180847964813
 42
0.9986263371548776
 10
635.8296596080582
 20
211.5105823528437
 10
636.184679494
 20
215.561068818384
 42
-1.004106238043442
 10
646.6995334984854
 20
214.5236072063017
 10
646.2561209628578
 20
210.4818421152035
 42
0.9986263371072299
 10
649.7571102285673
 20
210.0977396255141
 10
650.2005619988682
 20
214.1395004121173
 42
-1.00410623804547
 10
660.6902329177511
 20
212.8725018542144
 10
660.1586001982706
 20
208.8413920343631
 42
0.9986263371873365
 10
663.6503594597038
 20
208.3808729561522
 10
664.1820313104097
 20
212.4119776150513
 42
-1.004106238046733
 10
674.6415090082753
 20
210.9160472623825
 10
674.0219100263509
 20
206.8975180750981
 42
0.9986263371454624
 10
677.5027715298499
 20
206.3608023638896
 10
677.590499983749
 20
206.9195600545544
 42
-1.004128701525184
 10
688.002751726641
 20
205.124156353331
 10
687.8394289752966
 20
204.651148681087
 42
0.9986263371120152
 10
691.3077301723227
 20
204.038492686335
 10
691.4055142751696
 20
204.5923007110999
 42
-1.004128701516451
 10
701.7760438672025
 20
202.5697832727328
 10
701.6045574443088
 20
202.1033567762453
 42
0.4138110066420174
 10
702.987920534244
 20
200.0345351503152
 42
-0.1322150213987736
 10
1000.557965711666
 20
52.75165775614237
 42
1.0
 10
1002.88694733499
 20
55.39368890626525
 42
0.1254861869619397
 10
720.3079205500026
 20
199.9448555350339
 42
-1.0
 10
722.6464257352541
 20
210.2488231930845
 42
-0.0212344480748106
 10
776.1310170633862
 20
195.6976230791753
 42
0.3348795846405492
 10
778.1319076944575
 20
196.4013318684762
 42
-0.7625287568367242
 10
787.8087672806058
 20
193.2109115913648
 42
0.3348795846405829
 10
788.9987882141235
 20
191.4551725573857
 42
-0.0990751443625144
 10
1010.537204784433
 20
62.73426530274056
 42
1.0
 10
1012.869764719812
 20
65.37313781725561
 42
0.0961922640775942
 10
797.2182468483739
 20
192.3265295340114
 42
-1.0
 10
800.7445862779258
 20
202.2867145838779
 42
-0.0965197726984103
 10
1020.515705602888
 20
72.71599266762492
 42
1.0
 10
1022.851688785039
 20
75.3518353360538
 42
0.0964491238067332
 10
802.0969885452023
 20
205.5440983286206
 42
-1.0
 10
805.6261165795305
 20
215.5032956515641
 42
-0.0967631088119146
 10
1030.493513914012
 20
82.69689438266519
 42
1.0
 10
1032.832775137131
 20
85.32982828423024
 42
0.1010347894385233
 10
795.8517589736633
 20
222.599541100333
 42
0.3232284551751478
 10
793.8833756711074
 20
221.9871397897084
 42
-0.2688435467055881
 10
789.0066962403758
 20
219.9160146258305
 42
0.5012592784050394
 10
776.7979038136481
 20
207.2022212699644
 42
-0.5566183672636133
 10
770.0415001796523
 20
201.2865896512337
 42
0.070606050852453
 10
587.8102495288495
 20
229.8907336207749
 42
-1.0
 10
587.9657504711498
 20
240.4555892968809
 42
-0.0673225030509404
 10
764.7762985458937
 20
213.8852230213262
 42
1.0
 10
765.7618087001138
 20
217.2665324919206
 42
0.0673995626973953
 10
587.8118704257529
 20
243.9802041257284
 42
-1.0
 10
587.9641295742466
 20
254.5451070193522
 42
-0.0691506482781376
 10
773.2721719355692
 20
226.0659689203058
 42
1.0
 10
774.2812319011473
 20
229.4403254494629
 42
0.0692245785806361
 10
587.8134251197706
 20
258.0696150284016
 42
-1.0
 10
587.9625748802284
 20
268.6345622762093
 42
-0.1802863546390055
 10
1040.47067175814
 20
92.67702056273156
 42
1.0
 10
1042.813074857859
 20
95.3071596690204
 42
0.1803592841243162
 10
587.8149175856552
 20
272.1589698804704
 42
-1.0
 10
587.9610824143431
 20
282.7239588460518
 42
-0.1806552584468526
 10
1050.447217837257
 20
102.6564173443653
 42
1.0
 10
1052.792634955669
 20
105.283869064314
 42
0.1807253348661957
 10
587.8163514862173
 20
286.2482719569181
 42
-1.0
 10
587.9596485137827
 20
296.8133002087448
 42
-0.1810098255225443
 10
1060.423187840186
 20
112.6351272731412
 42
1.0
 10
1062.771498764035
 20
115.2599929468334
 42
0.1810772131062406
 10
587.8177302023296
 20
300.337524282466
 42
-1.0
 10
587.9582697976694
 20
310.9025895743676
 42
-0.0708545589242385
 10
793.4217134206378
 20
278.8457666424412
 42
1.0
 10
794.4499001826312
 20
282.2143443812596
 42
0.0709176593982363
 10
587.8190568595583
 20
314.4267296550288
 42
-1.0
 10
587.9569431404421
 20
324.9918299088619
 42
-0.0683072614227323
 10
790.0540089602874
 20
294.5609068831418
 42
1.0
 10
791.0471371716513
 20
297.9399866921713
 42
0.0683680017908352
 10
587.8203343517959
 20
328.515890666583
 42
-1.0
 10
587.9556656482022
 20
339.0810239568077
 42
-0.0707476413686906
 10
800.974554690439
 20
305.9993638803141
 42
-0.4784976775868938
 10
804.0483344173617
 20
298.3673101307063
 42
0.407013583970335
 10
808.0477136350987
 20
283.5335123997522
 42
-0.3517056221783714
 10
810.3779356005249
 20
277.3434895150389
 10
809.7726233174302
 20
275.4943075861241
 42
0.4128186527775423
 10
810.8904284267955
 20
273.2754788429426
 42
-0.1028083506606697
 10
1070.398614730469
 20
122.6131896466083
 42
1.0
 10
1072.749706293931
 20
125.2355649935432
 42
0.0999139889989552
 10
820.0432797584218
 20
273.8914721688445
 42
-1.0
 10
823.4928162748898
 20
283.8785164674123
 42
-0.1001715779817544
 10
1080.373529001828
 20
132.5906408186434
 42
1.0
 10
1082.727294546471
 20
135.2106163454081
 42
0.098961076547557
 10
828.0613532050132
 20
286.0175305434367
 42
-1.0
 10
831.5587325287387
 20
295.9879214016716
 42
-0.0992091469449853
 10
1090.347958905408
 20
142.567514470181
 42
1.0
 10
1092.704297790883
 20
145.1851758418626
 42
0.1820555956502686
 10
587.8215653623603
 20
342.6050097217724
 42
-1.0
 10
587.9544346376404
 20
353.1701742616972
 42
-0.1823002431971129
 10
1100.321930652356
 20
152.5438418505956
 42
1.0
 10
1102.680747812214
 20
155.1592702297258
 42
0.1823582867775108
 10
587.8227523827744
 20
356.6940890545301
 42
-1.0
 10
587.9532476172236
 20
367.2592831840189
 42
-0.1825942827798995
 10
1110.295468594818
 20
162.5196519933662
 42
1.0
 10
1112.656674132542
 20
165.1329243497459
 42
0.1826502942274997
 10
587.8238977296381
 20
370.7831307429633
 42
-1.0
 10
587.9521022703626
 20
381.3483529174254
 42
-0.1828780898565996
 10
1120.26859538799
 20
172.4949719091811
 42
1.0
 10
1122.632104208968
 20
175.1061613035294
 42
0.1829321740648795
 10
587.8250035596763
 20
384.8721367227103
 42
-1.0
 10
587.9509964403223
 20
395.437385503218
 42
-0.1831521896420677
 10
1130.241332135494
 20
182.4698267591756
 42
1.0
 10
1132.607063611145
 20
185.079002603215
 42
0.177996150759845
 10
604.475400876861
 20
398.5979299236798
 42
0.0850164725982931
 10
602.9704727649664
 20
398.3893392880398
 42
-0.0841208282729563
 10
601.5263200423881
 20
398.1865539106339
 42
0.0025418837663385
 10
593.1409140691837
 20
398.3816052699893
  0
LWPOLYLINE
  5
3A0E
330
2
100
AcDbEntity
  8
copper
  6
Continuous
100
AcDbPolyline
 90
      340
 70
   128
 43
1.769
 10
601.6499999998575
 20
402.2066635079641
 42
-0.178910732008634
 10
1134.972795086794
 20
187.6881784472548
 42
-1.0
 10
1127.875600659844
 20
179.8606509151366
 42
0.1831521896420676
 10
587.9089988134411
 20
391.9156359097156
 42
1.0
 10
587.8670011865591
 20
388.3938863162127
 42
-0.1829321740648794
 10
1124.995613029947
 20
177.7173506978775
 42
-1.0
 10
1117.905086567012
 20
169.8837825148319
 42
0.1828780898565999
 10
587.9093674234538
 20
377.8266121926045
 42
1.0
 10
587.8666325765457
 20
374.3048714677841
 42
-0.1826502942275
 10
1115.017879670267
 20
167.7461967061259
 42
-1.0
 10
1107.934263057094
 20
159.9063796369862
 42
0.1825942827798994
 10
587.9097492057417
 20
363.7375518075227
 42
1.0
 10
587.8662507942586
 20
360.2158204310259
 42
-0.1823582867775101
 10
1105.039564972071
 20
157.7746986088566
 42
-1.0
 10
1097.963113492498
 20
149.9284134714646
 42
0.1823002431971129
 10
587.9101448792131
 20
349.648452748389
 42
1.0
 10
587.8658551207863
 20
346.1267312350806
 42
-0.1820555956502689
 10
1095.060636676359
 20
147.8028372135444
 42
-1.0
 10
1087.991620019931
 20
139.9498530984994
 42
0.0992091469449852
 10
830.3929394208307
 20
292.66445778226
 42
1.0
 10
829.2271463129221
 20
289.340994162848
 42
-0.0989610765475568
 10
1085.081060091115
 20
137.8305918721729
 42
-1.0
 10
1078.019763457183
 20
129.9706652918779
 42
0.1001715779817542
 10
822.3429707694005
 20
280.5495017012229
 42
1.0
 10
821.1931252639113
 20
277.2204869350338
 42
-0.0999139889989554
 10
1075.100797857395
 20
127.8579403404782
 42
-1.0
 10
1068.047523167006
 20
119.990814299673
 42
0.1028083506606697
 10
809.7788071009526
 20
269.9335060680785
 42
-0.4128186527775542
 10
806.4253917728569
 20
276.5899922976233
 10
807.0307040559512
 20
278.4391742265377
 42
0.351705622178442
 10
806.2539634008093
 20
280.5025151881092
 42
-0.4070135839703453
 10
800.9740556735387
 20
300.0858252471019
 42
0.4784976775869115
 10
799.9494624312311
 20
302.6298431636378
 42
0.0707476413686903
 10
587.9105552160678
 20
335.5593128600661
 42
1.0
 10
587.8654447839324
 20
332.0376017633246
 42
-0.0683680017908344
 10
792.0402653830148
 20
301.3190665012016
 42
-1.0
 10
789.0608807489227
 20
291.1818270741119
 42
0.0683072614227323
 10
587.9109810468137
 20
321.4701298242508
 42
1.0
 10
587.8650189531859
 20
317.9484297396397
 42
-0.0709176593982364
 10
795.4780869446243
 20
285.5829221200778
 42
-1.0
 10
792.3935266586444
 20
275.4771889036233
 42
0.0708545589242384
 10
587.9114232658899
 20
307.3809011437337
 42
1.0
 10
587.86457673411
 20
303.8592127130997
 42
-0.1810772131062405
 10
1065.119809687885
 20
117.8848586205257
 42
-1.0
 10
1058.074876916337
 20
110.0102615994482
 42
0.1810098255225443
 10
587.9118828379275
 20
293.2916241248024
 42
1.0
 10
587.8641171620722
 20
289.7699480408604
 42
-0.1807253348661957
 10
1055.138052074081
 20
107.9113207842624
 42
-1.0
 10
1048.101800718846
 20
100.0289656244169
 42
0.1806552584468527
 10
587.912360804781
 20
279.2022958575246
 42
1.0
 10
587.8636391952183
 20
275.6806328689975
 42
-0.1803592841243158
 10
1045.155477957578
 20
97.93729877530905
 42
-1.0
 10
1038.128268658422
 20
90.04688145644291
 42
0.1802863546390056
 10
587.9128582934093
 20
265.1129131936067
 42
1.0
 10
587.8631417065901
 20
261.5912641110041
 42
-0.0692245785806359
 10
775.2902918667257
 20
232.8146819786206
 42
-1.0
 10
772.2631119699912
 20
222.6916123911483
 42
0.0691506482781376
 10
587.9133765247488
 20
251.0234727214776
 42
1.0
 10
587.8626234752508
 20
247.501838423603
 42
-0.0673995626973953
 10
766.7473188543333
 20
220.6478419625146
 42
-1.0
 10
763.7907883916739
 20
210.5039135507321
 42
0.0673225030509404
 10
587.9139168237165
 20
236.9339707381788
 42
1.0
 10
587.8620831762831
 20
233.4123521794768
 42
-0.0706060508524529
 10
771.0711253809527
 20
204.6547280012497
 42
0.5566183672636065
 10
773.3232599256179
 20
206.6266052074932
 42
-0.5012592784050387
 10
789.4410857093398
 20
223.4111240360282
 42
0.2688435467055704
 10
791.0666455195836
 20
224.1014990906542
 42
-0.3232284551751213
 10
796.9717954272506
 20
225.9387030225277
 42
-0.1010347894385234
 10
1035.17203636025
 20
87.9627621857959
 42
-1.0
 10
1028.154252690892
 20
80.06396048110032
 42
0.0967631088119143
 10
804.4497405680878
 20
212.1835632105828
 42
1.0
 10
803.2733645566448
 20
208.8638307696017
 42
-0.0964491238067333
 10
1025.187671967189
 20
77.98767800448263
 42
-1.0
 10
1018.179722420738
 20
70.08014999919609
 42
0.0965197726984103
 10
799.5691398014087
 20
198.966652900589
 42
1.0
 10
798.3936933248913
 20
195.6465912173002
 42
-0.0961922640775941
 10
1015.202324655191
 20
68.01201033177074
 42
-1.0
 10
1008.204644849054
 20
60.0953927882252
 42
0.0990751443625144
 10
787.8613414294603
 20
188.1219010694837
 42
-0.3348795846405733
 10
784.2912786289077
 20
193.3891181714212
 42
0.7625287568366003
 10
781.0656587668582
 20
194.4525915971247
 42
-0.3348795846405436
 10
775.0629868736448
 20
192.3414652292225
 42
0.0212344480748106
 10
721.8669240068354
 20
206.8141673070615
 42
1.0
 10
721.0874222784211
 20
203.3795114210569
 42
-0.1254861869619398
 10
1005.215928958314
 20
58.03572005638807
 42
-1.0
 10
998.2289840883423
 20
50.10962660601956
 42
0.1322150213987734
 10
702.2996162255686
 20
196.5804475459456
 42
-0.4130062354232917
 10
698.1467276733183
 20
202.7726605875234
 10
698.322917356726
 20
203.2629437847934
 42
1.001374337209133
 10
694.8660480777381
 20
203.9371213508358
 10
694.7726234014942
 20
203.4067734232245
 42
-0.9958846488119393
 10
684.3677984529665
 20
205.2447275160915
 10
684.5353019929749
 20
205.741688973792
 42
1.001374337235654
 10
681.0645252254371
 20
206.3401613896016
 10
680.980642475522
 20
205.804953461586
 42
-0.9958846488122315
 10
670.5381368922903
 20
207.4150884252356
 10
671.1577539352763
 20
211.4337383131205
 42
1.001366870024748
 10
667.6712353488504
 20
211.9323854854372
 10
667.1395470016443
 20
207.9011599022229
 42
-0.9958846488099874
 10
656.6643483917649
 20
209.2827066949762
 10
657.195996530272
 20
213.3139375812193
 42
1.001366870017767
 10
653.6994134617328
 20
213.736273585791
 10
653.2559478414817
 20
209.6943915433347
 42
-0.9958846488125235
 10
642.7530594280424
 20
210.8466903031349
 10
643.1964847332992
 20
214.8885767685747
 42
1.00136687001425
 10
639.6915072402452
 20
215.234399886858
 10
639.3364761575033
 20
211.1837918917195
 42
-0.995884648817273
 10
628.8109143889113
 20
212.1062922508253
 10
629.1659050696532
 20
216.1569037871439
 42
1.001366870064169
 10
625.6542072190848
 20
216.4260488451777
 10
625.3877802457671
 20
212.368649571264
 42
-0.9958846488148907
 10
614.8445723998701
 20
213.0609109201865
 10
615.1109589034472
 20
217.1183128514701
 42
1.001366870024486
 10
611.5942179721795
 20
217.3106512987423
 10
611.4165223606289
 20
213.2483986637998
 42
-0.99588464881861
 10
600.8607041434617
 20
213.7100903608405
 10
601.0383592368598
 20
217.7723447680401
 42
1.001366869988687
 10
597.518254910405
 20
217.8877847387072
 10
597.4293951135702
 20
213.8226183889966
 42
-0.9958846488178878
 10
586.8660082612595
 20
214.0535202413623
 10
586.9548669285441
 20
218.1186866158391
 42
1.001366869998398
 10
583.4330805012178
 20
218.1571731882242
 10
583.4330833496533
 20
207.0467934710474
 42
0.4138065312188001
 10
585.1744192182194
 20
205.2687690185288
 42
-0.1793803282906189
 10
995.2284134604781
 20
48.05876448761512
 42
-1.0
 10
988.2527010389152
 20
40.12278362752917
 42
0.1793150670766135
 10
585.2140261278782
 20
194.7016555054305
 42
1.0
 10
585.1739738721204
 20
191.1798832503279
 42
-0.178932791160869
 10
985.2397001032132
 20
38.08109693572146
 42
-1.0
 10
978.2757530207193
 20
30.13478980396401
 42
0.1788645026937798
 10
585.214492203387
 20
180.6127178996183
 42
1.0
 10
585.1735077966117
 20
177.0909563690205
 42
-0.178464247346248
 10
975.2497033943713
 20
28.10266623190893
 42
-1.0
 10
968.2980933532739
 20
20.14556413148842
 42
0.3752940519039471
 10
188.0019066467252
 20
20.14556413148818
 42
-1.0
 10
181.0502966056282
 20
28.10266623190899
 42
-0.1784642473462476
 10
571.1264922033873
 20
177.0909563690201
 42
1.0
 10
571.0855077966126
 20
180.6127178996184
 42
0.1788645026937804
 10
178.0242469792795
 20
30.13478980396326
 42
-1.0
 10
171.0602998967853
 20
38.08109693572094
 42
-0.1789327911608691
 10
571.1260261278785
 20
191.1798832503278
 42
1.0
 10
571.0859738721207
 20
194.7016555054301
 42
0.179315067076613
 10
168.0472989610848
 20
40.12278362752931
 42
-1.0
 10
161.0715865395216
 20
48.05876448761541
 42
-0.1793803282906187
 10
571.1255807817798
 20
205.2687690185287
 42
0.413806531218772
 10
572.8669166503459
 20
207.0467934710472
 10
572.8669194987819
 20
218.1571731881792
 42
1.001366870004329
 10
569.3451330714551
 20
218.1186866158383
 10
569.4339917387375
 20
214.0535202414654
 42
-0.9958846488176725
 10
558.8706048864317
 20
213.8226183888754
 10
558.7817450895953
 20
217.8877847386548
 42
1.001366870000865
 10
555.2616407631374
 20
217.7723447680866
 10
555.4392958565389
 20
213.71009036081
 42
-0.9958846488210539
 10
544.8834776393716
 20
213.2483986637695
 10
544.7057820278193
 20
217.3106512987491
 42
1.001366869991049
 10
541.1890410965492
 20
217.1183128515197
 10
541.4554276001281
 20
213.0609109202023
 42
-0.9958846488165505
 10
530.9122197542325
 20
212.3686495712582
 10
530.645792780913
 20
216.4260488451915
 42
1.001366870022596
 10
527.1340949303421
 20
216.1569037871878
 10
527.489085611088
 20
212.1062922508235
 42
-0.9958846488066519
 10
516.9635238425085
 20
211.1837918915818
 10
516.6084927597531
 20
215.2343998868672
 42
1.001366869989264
 10
513.1035152666993
 20
214.8885767685827
 10
513.5469405719569
 20
210.846690303133
 42
-0.9958846488124157
 10
503.0440521585175
 20
209.6943915433354
 10
502.6005865382658
 20
213.736273585796
 42
1.001366870003542
 10
499.104003469728
 20
213.3139375812129
 10
499.6356516082345
 20
209.2827066949751
 42
-0.9958846488088191
 10
489.1604529983515
 20
207.901159902248
 10
488.6287646511497
 20
211.93238548543
 42
1.001366870008528
 10
485.1422460647222
 20
211.4337383131247
 10
485.7618631077073
 20
207.4150884252451
 42
-0.9958846488129077
 10
475.3193575244734
 20
205.8049534616093
 10
474.6997003982894
 20
209.8235971689763
 42
1.00136687003131
 10
471.224911544535
 20
209.2488769955211
 10
471.9322015470455
 20
205.244727516018
 42
-0.9958846488030861
 10
461.527376598506
 20
203.4067734232197
 10
460.8200466574328
 20
207.4109158477392
 42
1.001366870005589
 10
457.3586471844863
 20
206.760397174188
 10
458.1532723266787
 20
202.7726605875354
 42
-0.9958846488115398
 10
447.7910976236731
 20
200.7077652193916
 10
446.9964327066089
 20
204.6954938800626
 42
1.001366869992466
 10
443.5500758674966
 20
203.9694874107683
 10
444.431656616071
 20
200.0000683619833
 42
-0.9958846488056682
 10
434.117081398559
 20
197.7092179654556
 10
433.2354610578171
 20
201.6786282209555
 42
1.001366870014827
 10
429.805792920791
 20
200.8774807152985
 10
430.7739082102336
 20
196.9282751004536
 42
-0.9958846488064674
 10
420.5118589834079
 20
194.4125638445277
 10
419.5437043034694
 20
198.361759802746
 42
1.001366870010733
 10
416.1323629658488
 20
197.485853909288
 10
417.1865503994682
 20
193.558747970276
 42
-0.9958846488059757
 10
406.981928580891
 20
190.8193774227224
 10
405.9277019771649
 20
194.7464728467763
 42
1.001366870005012
 10
402.5363167829374
 20
193.7962269205406
 10
403.6760728538486
 20
189.8930963436125
 42
-0.9958846488153055
 10
393.5337524321026
 20
186.9313748982992
 10
392.3939574302796
 20
190.8344941066007
 42
1.001366870030102
 10
389.0241481918415
 20
189.8103620094133
 10
390.2489285233203
 20
185.9330710298085
 42
-0.9958846488151518
 10
380.173753730458
 20
182.7504132803378
 10
378.9489347257349
 20
186.6276920434883
 42
1.001366870007059
 10
375.602310950289
 20
185.5301629269847
 10
376.9115305559103
 20
181.6805634380757
 42
-0.9958846488156744
 10
366.9083135533152
 20
178.2784895035488
 10
365.5990555506503
 20
182.1280759337971
 42
1.001366869994198
 10
362.2772156713931
 20
180.9576740060264
 10
363.6702492343835
 20
177.1376046750046
 42
-0.9958846488109557
 10
353.7437678146091
 20
173.5177394731129
 10
352.3506961491644
 20
177.3377949093671
 42
1.001366870000235
 10
349.0552267618749
 20
176.0950791842749
 10
350.5314089336979
 20
172.3063645741762
 42
-0.9958846488106175
 10
340.6864042385065
 20
168.4704370450576
 10
339.210184276952
 20
172.2591369311015
 42
1.001366869991469
 10
335.9426593821808
 20
170.9447009615678
 10
337.5012851004417
 20
167.1891506594751
 42
-0.9958846488163201
 10
327.7424593561461
 20
163.1389929403896
 10
326.1837961789574
 20
166.8945276960899
 42
1.001366870005169
 10
322.9457764302837
 20
165.5089992903356
 10
324.5861012554444
 20
161.7884070432042
 42
-0.9958846488148598
 10
314.9181155270542
 20
157.5259535932956
 10
313.2777535916841
 20
161.2465294790724
 42
1.001366869979396
 10
310.0707855502251
 20
159.7905704010024
 10
311.7920260211193
 20
156.1067132590207
 42
-0.99588464881549
 10
302.2194979862723
 20
151.6339999349788
 10
300.4982207715294
 20
155.3178399086414
 42
1.001366869995616
 10
297.3238361673759
 20
153.7921455615106
 10
299.1251701754959
 20
150.1467830291446
 42
-0.9958846488089267
 10
289.6526719186383
 20
145.4659461135046
 10
287.8513015506386
 20
149.1112906786575
 42
1.001366870007479
 10
284.7110165511265
 20
147.5165897732235
 10
286.5915837332193
 20
143.9114629689742
 42
-0.9958846488157512
 10
277.2236395620399
 20
139.0247381493571
 10
275.3430364214195
 20
142.6298461960515
 42
1.001366870012675
 10
272.2383509070736
 20
140.9669004022978
 10
274.1972530561016
 20
137.4037312270335
 42
-0.9958846488090802
 10
264.9383373406968
 20
132.3134525281783
 10
262.9793996515772
 20
135.8766021646742
 42
1.001366869992833
 10
259.9117964997398
 20
134.1462057480142
 10
261.9480979938783
 20
130.6266960625672
 42
-0.9958846488099412
 10
252.8026330293954
 20
125.3352947320684
 10
250.7662964306514
 20
128.8547841067232
 42
1.001366870001022
 10
247.737240807105
 20
127.0577635488512
 10
249.8499690566339
 20
123.5835943611442
 42
-0.9958846488132767
 10
240.8223229512924
 20
118.0935977078022
 10
238.7095600494604
 20
121.5677458223161
 42
1.001366870015037
 10
235.7204987087122
 20
119.7049594262962
 10
237.9086446205262
 20
116.2777900884861
 42
-0.9958846488109097
 10
229.0031292093119
 20
110.5918202751986
 10
228.7305795437861
 20
111.0897269338863
 42
1.001374337237429
 10
225.7829401682037
 20
109.162064433841
 10
226.1298281678524
 20
108.7127726838131
 42
-0.9958846488118934
 10
217.3506969529684
 20
102.8335454753408
 10
217.0673314510956
 20
103.3253771063806
 42
1.001374337227979
 10
214.1625218781849
 20
101.3337591842652
 10
214.5191455629892
 20
100.8921553930931
 42
-0.4130062354234494
 10
213.2172174644604
 20
93.55083610389247
 42
0.027647994831536
 10
158.0710159116568
 20
50.10962660601933
 42
-1.0
 10
151.0840710416849
 20
58.03572005638805
 42
-0.0227358280918041
 10
196.839341642963
 20
94.81295311097694
 42
1.0
 10
194.7598839857879
 20
97.65554697081952
 42
0.0230748031179516
 10
148.0953551509457
 20
60.09539278822512
 42
-1.0
 10
141.097675344808
 20
68.01201033177121
 42
-0.0961922640775939
 10
357.9063066751078
 20
195.6465912173
 42
1.0
 10
356.7308601985904
 20
198.9666529005888
 42
0.0965197726984103
 10
138.1202775792612
 20
70.08014999919595
 42
-1.0
 10
131.1123280328097
 20
77.98767800448274
 42
-0.0964491238067333
 10
353.0266354433543
 20
208.8638307696016
 42
1.0
 10
351.8502594319115
 20
212.1835632105826
 42
0.0967631088119147
 10
128.1457473091062
 20
80.06396048109928
 42
-1.0
 10
121.1279636397498
 20
87.96276218579592
 42
-0.1010347894385233
 10
359.3282045727493
 20
225.9387030225274
 42
-0.3232284551751017
 10
365.233354480416
 20
224.1014990906544
 42
0.268843546705598
 10
366.8589142906599
 20
223.4111240360284
 42
-0.5012592784050397
 10
382.9767400743816
 20
206.6266052074932
 42
0.5566183672636094
 10
385.2288746190468
 20
204.6547280012495
 42
-0.070606050852453
 10
568.4379168237164
 20
233.412352179477
 42
1.0
 10
568.386083176283
 20
236.9339707381789
 42
0.0673225030509408
 10
392.5092116083245
 20
210.5039135507317
 42
-1.0
 10
389.552681145665
 20
220.6478419625143
 42
-0.0673995626973957
 10
568.4373765247487
 20
247.5018384236027
 42
1.0
 10
568.3866234752507
 20
251.0234727214774
 42
0.0691506482781379
 10
384.0368880300078
 20
222.6916123911479
 42
-1.0
 10
381.0097081332732
 20
232.8146819786204
 42
-0.0692245785806361
 10
568.4368582934093
 20
261.5912641110041
 42
1.0
 10
568.3871417065899
 20
265.1129131936067
 42
0.1802863546390057
 10
118.1717313415769
 20
90.04688145644303
 42
-1.0
 10
111.1445220424216
 20
97.9372987753088
 42
-0.1803592841243158
 10
568.4363608047808
 20
275.6806328689975
 42
1.0
 10
568.3876391952183
 20
279.2022958575246
 42
0.1806552584468526
 10
108.1981992811534
 20
100.0289656244168
 42
-1.0
 10
101.1619479259179
 20
107.9113207842622
 42
-0.1807253348661959
 10
568.4358828379274
 20
289.7699480408602
 42
1.0
 10
568.3881171620721
 20
293.2916241248026
 42
0.1810098255225446
 10
98.22512308366169
 20
110.0102615994478
 42
-1.0
 10
91.18019031211288
 20
117.8848586205255
 42
-0.181077213106241
 10
568.4354232658896
 20
303.8592127130996
 42
1.0
 10
568.3885767341097
 20
307.3809011437337
 42
0.0708545589242385
 10
363.906473341355
 20
275.477188903623
 42
-1.0
 10
360.8219130553748
 20
285.5829221200778
 42
-0.0709176593982366
 10
568.4349810468138
 20
317.9484297396397
 42
1.0
 10
568.389018953186
 20
321.4701298242508
 42
0.0683072614227325
 10
367.2391192510764
 20
291.1818270741119
 42
-1.0
 10
364.2597346169845
 20
301.3190665012014
 42
-0.0683680017908345
 10
568.4345552160672
 20
332.0376017633244
 42
1.0
 10
568.3894447839326
 20
335.5593128600663
 42
0.0707476413686908
 10
356.3505375687679
 20
302.6298431636375
 42
0.4784976775868996
 10
355.3259443264603
 20
300.0858252471016
 42
-0.4070135839703341
 10
350.0460365991898
 20
280.5025151881093
 42
0.3517056221783129
 10
349.2692959440477
 20
278.4391742265385
 10
349.8746082271426
 20
276.5899922976222
 42
-0.4128186527774888
 10
346.5211928990466
 20
269.9335060680785
 42
0.1028083506606698
 10
88.25247683299357
 20
119.9908142996726
 42
-1.0
 10
81.19920214260453
 20
127.8579403404782
 42
-0.0999139889989553
 10
335.106874736088
 20
277.2204869350338
 42
1.0
 10
333.9570292305987
 20
280.5495017012231
 42
0.1001715779817543
 10
78.28023654281571
 20
129.9706652918781
 42
-1.0
 10
71.2189399088839
 20
137.8305918721728
 42
-0.0989610765475566
 10
327.0728536870771
 20
289.340994162848
 42
1.0
 10
325.9070605791686
 20
292.6644577822597
 42
0.0992091469449852
 10
68.30837998006728
 20
139.9498530984991
 42
-1.0
 10
61.23936332363994
 20
147.8028372135445
 42
-0.1820555956502689
 10
568.4341448792133
 20
346.1267312350803
 42
1.0
 10
568.3898551207866
 20
349.6484527483887
 42
0.1823002431971131
 10
58.33688650750071
 20
149.9284134714645
 42
-1.0
 10
51.26043502792754
 20
157.7746986088564
 42
-0.1823582867775104
 10
568.433749205741
 20
360.2158204310261
 42
1.0
 10
568.390250794258
 20
363.7375518075225
 42
0.1825942827798994
 10
48.36573694290541
 20
159.9063796369863
 42
-1.0
 10
41.28212032973192
 20
167.7461967061262
 42
-0.1826502942275001
 10
568.4333674234539
 20
374.304871467784
 42
1.0
 10
568.3906325765458
 20
377.8266121926047
 42
0.1828780898565999
 10
38.39491343298744
 20
169.883782514832
 42
-1.0
 10
31.30438697005401
 20
177.7173506978785
 42
-0.1829321740648789
 10
568.4329988134406
 20
388.3938863162125
 42
1.0
 10
568.3910011865585
 20
391.9156359097154
 42
0.1819379435019724
 10
31.28026271130625
 20
182.4378496319515
 42
-1.0
 10
24.21993871130542
 20
190.298649910232
 42
-0.1776982839935007
 10
554.6500000001418
 20
402.206663507964
  0
LWPOLYLINE
  5
3BB6
330
2
100
AcDbEntity
  8
mechanical
100
AcDbPolyline
 90
       23
 70
   128
 43
0.25
 10
19.75648683275733
 20
183.2344008518916
 10
19.99955478879019
 20
183.6984396770452
 10
19.8006810065815
 20
184.2508668498472
 10
19.57971013746069
 20
184.471837718968
 10
19.0272829646587
 20
184.6707115011767
 10
18.32017618347214
 20
184.4055464582318
 10
17.32580727242856
 20
183.6763425901331
 10
16.48611796976954
 20
182.8366532874741
 10
15.95578788387962
 20
182.0411581586393
 10
15.84530244931924
 20
181.4887309858373
 10
16.02207914461587
 20
180.9142067261232
 10
16.13256457917628
 20
180.8037212915628
 10
16.66289466506619
 20
180.6711387700903
 10
17.25951601169234
 20
180.7374300308266
 10
17.85613735831848
 20
181.1130805083319
 10
18.03291405361512
 20
181.2898572036285
 10
18.40856453112048
 20
181.8864785502547
 10
18.49695287876878
 20
182.5051969837929
 10
18.34227327038423
 20
183.0134299827708
 10
18.23178783582384
 20
183.1239154173312
 10
17.67936066302184
 20
183.3227891995399
 10
17.10483640330776
 20
183.1902066780674
 10
16.48611796976954
 20
182.8366532874741
  0
LWPOLYLINE
  5
3C76
330
2
100
AcDbEntity
  8
mechanical
100
AcDbPolyline
 90
       16
 70
   129
 43
0.5
 10
400.4332003038398
 20
69.09795815557675
 10
399.1207003038399
 20
68.47295815557675
 10
398.3082003038398
 20
66.66045815557669
 10
397.8707003038398
 20
63.72295815557652
 10
397.8707003038398
 20
61.91045815557675
 10
398.3082003038398
 20
58.91045815557664
 10
399.1207003038399
 20
57.16045815557652
 10
400.4332003038398
 20
56.59795815557675
 10
401.2457003038398
 20
56.59795815557675
 10
402.5582003038398
 20
57.16045815557652
 10
403.3082003038398
 20
58.91045815557664
 10
403.6832003038398
 20
61.91045815557675
 10
403.6832003038398
 20
63.72295815557652
 10
403.3082003038398
 20
66.66045815557669
 10
402.5582003038398
 20
68.47295815557675
 10
401.2457003038398
 20
69.09795815557675
  0
POINT
  5
3C78
330
2
100
AcDbEntity
  8
mechanical
100
AcDbPoint
 10
446.8082003038398
 20
50.03545815557675
 30
0.0
  0
LWPOLYLINE
  5
3C79
330
2
100
AcDbEntity
  8
mechanical
100
AcDbPolyline
 90
        3
 70
   128
 43
0.5
 10
424.9957003038398
 20
57.91045815557669
 10
427.6207003038398
 20
67.84795815557675
 10
430.2457003038398
 20
57.91045815557669
  0
LWPOLYLINE
  5
3C7A
330
2
100
AcDbEntity
  8
mechanical
100
AcDbPolyline
 90
        2
 70
   128
 43
0.5
 10
425.9332003038398
 20
61.16045815557658
 10
429.3082003038398
 20
61.16045815557658
  0
LWPOLYLINE
  5
3C7C
330
2
100
AcDbEntity
  8
mechanical
100
AcDbPolyline
 90
        3
 70
   128
 43
0.5
 10
326.8707003038398
 20
56.59795815557675
 10
330.2457003038398
 20
69.09795815557675
 10
333.4957003038399
 20
56.59795815557675
  0
LWPOLYLINE
  5
3C7D
330
2
100
AcDbEntity
  8
mechanical
100
AcDbPolyline
 90
        2
 70
   128
 43
0.5
 10
328.1207003038399
 20
60.72295815557669
 10
332.2457003038398
 20
60.72295815557669
  0
LWPOLYLINE
  5
3C7E
330
2
100
AcDbEntity
  8
mechanical
100
AcDbPolyline
 90
        2
 70
   128
 43
0.5
 10
337.3082003038399
 20
69.09795815557675
 10
337.3082003038399
 20
56.59795815557675
  0
LWPOLYLINE
  5
3C7F
330
2
100
AcDbEntity
  8
mechanical
100
AcDbPolyline
 90
        2
 70
   128
 43
0.5
 10
334.3707003038399
 20
69.09795815557675
 10
340.1832003038399
 20
69.09795815557675
  0
LWPOLYLINE
  5
3C80
330
2
100
AcDbEntity
  8
mechanical
100
AcDbPolyline
 90
        3
 70
   128
 43
0.5
 10
342.3082003038398
 20
69.09795815557675
 10
342.3082003038398
 20
56.59795815557675
 10
347.3082003038399
 20
56.59795815557675
  0
LWPOLYLINE
  5
3C81
330
2
100
AcDbEntity
  8
mechanical
100
AcDbPolyline
 90
        2
 70
   128
 43
0.5
 10
349.3707003038398
 20
69.09795815557675
 10
349.3707003038398
 20
56.59795815557675
  0
LWPOLYLINE
  5
3C82
330
2
100
AcDbEntity
  8
mechanical
100
AcDbPolyline
 90
       18
 70
   128
 43
0.5
 10
358.4957003038399
 20
66.09795815557664
 10
358.0582003038399
 20
67.28545815557669
 10
357.3082003038398
 20
68.47295815557675
 10
356.4957003038399
 20
69.09795815557675
 10
354.8082003038398
 20
69.09795815557675
 10
353.9332003038398
 20
68.47295815557675
 10
353.1207003038399
 20
67.28545815557669
 10
352.6832003038399
 20
66.09795815557664
 10
352.2457003038399
 20
64.34795815557652
 10
352.2457003038399
 20
61.34795815557669
 10
352.6832003038399
 20
59.53545815557664
 10
353.1207003038399
 20
58.28545815557664
 10
353.9332003038398
 20
57.09795815557658
 10
354.8082003038398
 20
56.59795815557675
 10
356.4957003038399
 20
56.59795815557675
 10
357.3082003038398
 20
57.09795815557658
 10
358.0582003038399
 20
58.28545815557664
 10
358.4957003038399
 20
59.53545815557664
  0
LWPOLYLINE
  5
3C83
330
2
100
AcDbEntity
  8
mechanical
100
AcDbPolyline
 90
        4
 70
   128
 43
0.5
 10
366.8707003038398
 20
56.59795815557675
 10
361.4332003038398
 20
56.59795815557675
 10
361.4332003038398
 20
69.09795815557675
 10
366.8707003038398
 20
69.09795815557675
  0
LWPOLYLINE
  5
3C84
330
2
100
AcDbEntity
  8
mechanical
100
AcDbPolyline
 90
        2
 70
   128
 43
0.5
 10
361.4332003038398
 20
63.03545815557658
 10
364.7457003038399
 20
63.03545815557658
  0
LWPOLYLINE
  5
3C85
330
2
100
AcDbEntity
  8
mechanical
100
AcDbPolyline
 90
       16
 70
   129
 43
0.5
 10
381.4957003038399
 20
69.09795815557675
 10
380.3082003038398
 20
68.47295815557675
 10
379.4957003038399
 20
66.66045815557669
 10
379.0582003038398
 20
63.66045815557658
 10
379.0582003038398
 20
61.91045815557675
 10
379.4957003038399
 20
58.91045815557664
 10
380.3082003038398
 20
57.09795815557658
 10
381.4957003038399
 20
56.59795815557675
 10
382.3082003038398
 20
56.59795815557675
 10
383.6207003038398
 20
57.09795815557658
 10
384.4332003038399
 20
58.91045815557664
 10
384.8707003038398
 20
61.91045815557675
 10
384.8707003038398
 20
63.66045815557658
 10
384.4332003038399
 20
66.66045815557669
 10
383.6207003038398
 20
68.47295815557675
 10
382.3082003038398
 20
69.09795815557675
  0
LWPOLYLINE
  5
3C86
330
2
100
AcDbEntity
  8
mechanical
100
AcDbPolyline
 90
       16
 70
   129
 43
0.5
 10
389.8082003038398
 20
69.09795815557675
 10
388.5582003038398
 20
68.47295815557675
 10
387.7457003038399
 20
66.66045815557669
 10
387.4332003038398
 20
63.66045815557658
 10
387.4332003038398
 20
61.91045815557675
 10
387.7457003038399
 20
58.91045815557664
 10
388.5582003038398
 20
57.09795815557658
 10
389.8082003038398
 20
56.59795815557675
 10
390.6832003038399
 20
56.59795815557675
 10
391.9332003038399
 20
57.09795815557658
 10
392.8082003038398
 20
58.91045815557664
 10
393.2457003038398
 20
61.91045815557675
 10
393.2457003038398
 20
63.66045815557658
 10
392.8082003038398
 20
66.66045815557669
 10
391.9332003038399
 20
68.47295815557675
 10
390.6832003038399
 20
69.09795815557675
  0
LWPOLYLINE
  5
3CFF
330
2
100
AcDbEntity
  8
mechanical
100
AcDbPolyline
 90
        4
 70
     1
 43
1.0
 10
318.5582003038399
 20
75.16045815557664
 10
446.8082003038398
 20
75.16045815557664
 10
446.8082003038398
 20
50.03545815557675
 10
318.5582003038399
 20
50.03545815557675
  0
LWPOLYLINE
  5
3D00
330
2
100
AcDbEntity
  8
mechanical
100
AcDbPolyline
 90
       14
 70
   128
 43
0.5
 10
406.6832003038398
 20
66.16045815557686
 10
406.6832003038398
 20
66.78545815557686
 10
407.0582003038398
 20
67.97295815557692
 10
407.4957003038398
 20
68.59795815557692
 10
408.3707003038398
 20
69.22295815557692
 10
409.9332003038398
 20
69.22295815557692
 10
410.8082003038398
 20
68.59795815557692
 10
411.2457003038398
 20
67.97295815557692
 10
411.6207003038398
 20
66.78545815557686
 10
411.6207003038398
 20
65.66045815557675
 10
411.2457003038398
 20
64.47295815557669
 10
410.3707003038398
 20
62.66045815557692
 10
406.2457003038398
 20
56.78545815557686
 10
412.0582003038398
 20
56.78545815557686
  0
LWPOLYLINE
  5
3D01
330
2
100
AcDbEntity
  8
mechanical
100
AcDbPolyline
 90
       23
 70
   128
 43
0.5
 10
435.9957003038398
 20
66.47295815557686
 10
435.6832003038398
 20
67.47295815557681
 10
434.6207003038398
 20
67.97295815557692
 10
433.9957003038398
 20
67.97295815557692
 10
432.9332003038398
 20
67.47295815557681
 10
432.3082003038398
 20
66.09795815557692
 10
431.9332003038398
 20
63.66045815557686
 10
431.9332003038398
 20
61.28545815557675
 10
432.3082003038398
 20
59.41045815557675
 10
432.9332003038398
 20
58.47295815557675
 10
433.9957003038398
 20
57.91045815557669
 10
434.3082003038398
 20
57.91045815557669
 10
435.2457003038398
 20
58.47295815557675
 10
435.9957003038398
 20
59.41045815557675
 10
436.3082003038398
 20
60.78545815557692
 10
436.3082003038398
 20
61.28545815557675
 10
435.9957003038398
 20
62.66045815557692
 10
435.2457003038398
 20
63.66045815557686
 10
434.3082003038398
 20
64.16045815557669
 10
433.9957003038398
 20
64.16045815557669
 10
432.9332003038398
 20
63.66045815557686
 10
432.3082003038398
 20
62.66045815557692
 10
431.9332003038398
 20
61.28545815557675
  0
VIEWPORT
  5
17F
102
{ACAD_XDICTIONARY
360
3D12
102
}
330
148
100
AcDbEntity
 67
     1
  8
0
  6
Continuous
100
AcDbViewport
 10
539.4629528462933
 20
436.6083350012517
 30
0.0
 40
1387.054359180414
 41
867.4927515749562
 68
     1
 69
     1
 12
539.4629528462933
 22
436.6083350012517
 13
0.0
 23
0.0
 14
10.0
 24
10.0
 15
10.0
 25
10.0
 16
0.0
 26
0.0
 36
1.0
 17
0.0
 27
0.0
 37
0.0
 42
50.0
 43
0.0
 44
0.0
 45
867.4927515749562
 50
0.0
 51
0.0
 72
   100
 90
    32800
  1

281
     0
 71
     1
 74
     0
110
0.0
120
0.0
130
0.0
111
1.0
121
0.0
131
0.0
112
0.0
122
1.0
132
0.0
 79
     0
146
0.0
  0
VIEWPORT
  5
181
102
{ACAD_XDICTIONARY
360
3D14
102
}
330
148
100
AcDbEntity
 67
     1
  8
0
  6
Continuous
100
AcDbViewport
 10
573.7436809539794
 20
392.7263202667236
 30
0.0
 40
917.9898895263672
 41
628.3621124267579
 68
     2
 69
     2
 12
454.7134502953538
 22
167.0708391774632
 13
0.0
 23
0.0
 14
1.0
 24
1.0
 15
0.0
 25
0.0
 16
0.0
 26
0.0
 36
1.0
 17
0.0
 27
0.0
 37
0.0
 42
50.0
 43
0.0
 44
0.0
 45
558.6397812350369
 50
0.0
 51
0.0
 72
   100
 90
    32800
  1

281
     0
 71
     1
 74
     0
110
0.0
120
0.0
130
0.0
111
1.0
121
0.0
131
0.0
112
0.0
122
1.0
132
0.0
 79
     1
146
0.0
  0
ENDSEC
  0
SECTION
  2
OBJECTS
  0
DICTIONARY
  5
9
330
0
100
AcDbDictionary
281
     1
  3
ACAD_COLOR
350
162
  3
ACAD_GROUP
350
15E
  3
ACAD_LAYOUT
350
147
  3
ACAD_MATERIAL
350
161
  3
ACAD_MLINESTYLE
350
15F
  3
ACAD_PLOTSETTINGS
350
160
  3
ACAD_PLOTSTYLENAME
350
8
  3
ACAD_TABLESTYLE
350
16D5
  3
ACAD_VISUALSTYLE
350
16C4
  3
AcDbVariableDictionary
350
16B
  3
ADE_QUERY_LIBRARY
350
16EA
  3
ASE_INDEX_DICTIONARY
350
6DB
  3
Autodesk_MAP
350
16D9
  3
DWGPROPS
350
3D0D
1001
ADE
1000
ADE02C004
1000
[Query]
1000
CaseSensitiveMatch=0
1000
SaveCurrQueryInSession=1
1000
MkSelSetWithQryObj=0
1000
ShowBlockAsInsPt=0
1000
CreateAssociativeHatchObjects=0
1000
ReferenceBoundaryForAreaLocation=1
1000
ShowImageAsBoundary=1
1000
DefaultJoinOperator=2
1000
ColorForAdd=red
1000
ColorForRemove=red
1000
BlockLocnForQuery=1
1000
TextLocnForQuery=1
1000
IncludeAllObjectsInGroups=0
1000
AlwaysUseLibraryDefinitions=0
1000
PreviewDefinitionsFrom=2
1000
[Save Back]
1000
RedefineBlockDefinitions=1
1000
RedefineLayerDefinitions=1
1000
RedefineTextStyleDefinitions=1
1000
RemoveUnusedGroups=1
1000
EraseSavedBackObjects=1
1000
RemoveLockAfterSave=1
1000
CreateHistoryFileOfChanges=0
1000
CreateBackupFileOfSourceDwg=1
1000
DontAddObjectsToSaveSet=0
1000
MarkObjectsForEditingWithoutPrompting=0
1000
FdoDontAddObjsToSvSet=0
1000
FdoEditWithoutPrompt=1
1000
FdoRemUnusedGrps=1
1000
FdoEraseSvdBkObjs=1
1000
FdoRemoveLockOnSave=1
1000
FdoTesselationMaxPointsDistance=0
1000
FdoTesselationMaxCurvesDistance=0
1000
[Coordinate Transformation]
1000
RestoreLastActiveDwgsOnStartup=1
1000
ActivateDwgsOnAttach=1
1000
AdjustSizesAndScalesForChangesInUnits=1
1000
AdjustRotationsForMapDistortions=1
1000
AdjustSizesAndScalesForMapDistortions=1
1000
AdjustElevations=1
1000
AdjustZeroRotationObjects=1
1000
ReconnectDbOnWSOpen=1
1000
NoOfSQLConditionsInHistory=10
  0
DICTIONARY
  5
18FA
330
14E
100
AcDbDictionary
280
     1
281
     1
  3
ACAD_LAYERFILTERS
360
3BDC
  3
ACLYDICTIONARY
360
3BDB
  0
DICTIONARY
  5
3
330
2
100
AcDbDictionary
280
     1
281
     1
  3
ACAD_LAYOUTSELFREF
360
4
  3
ACAD_SORTENTS
360
1703
  0
DICTIONARY
  5
149
330
148
100
AcDbDictionary
280
     1
281
     1
  3
ACAD_LAYOUTSELFREF
360
14A
  0
DICTIONARY
  5
3D12
330
17F
100
AcDbDictionary
280
     1
281
     1
  3
ACAD_XREC_ROUNDTRIP
360
3D13
  0
DICTIONARY
  5
3D14
330
181
100
AcDbDictionary
280
     1
281
     1
  3
ACAD_XREC_ROUNDTRIP
360
3D15
  0
DICTIONARY
  5
162
102
{ACAD_REACTORS
330
9
102
}
330
9
100
AcDbDictionary
281
     1
  0
DICTIONARY
  5
15E
102
{ACAD_REACTORS
330
9
102
}
330
9
100
AcDbDictionary
281
     1
  0
DICTIONARY
  5
147
102
{ACAD_REACTORS
330
9
102
}
330
9
100
AcDbDictionary
281
     1
  3
Layout1
350
14D
  3
Model
350
146
  0
DICTIONARY
  5
161
102
{ACAD_REACTORS
330
9
102
}
330
9
100
AcDbDictionary
281
     1
  3
ByBlock
350
16C2
  3
ByLayer
350
16C1
  3
Global
350
16C3
  0
DICTIONARY
  5
15F
102
{ACAD_REACTORS
330
9
102
}
330
9
100
AcDbDictionary
281
     1
  3
STANDARD
350
163
  0
DICTIONARY
  5
160
102
{ACAD_REACTORS
330
9
102
}
330
9
100
AcDbDictionary
281
     1
  0
ACDBDICTIONARYWDFLT
  5
8
102
{ACAD_REACTORS
330
9
102
}
330
9
100
AcDbDictionary
281
     1
  3
Normal
350
7
100
AcDbDictionaryWithDefault
340
7
  0
DICTIONARY
  5
16D5
102
{ACAD_REACTORS
330
9
102
}
330
9
100
AcDbDictionary
281
     1
  3
Legend
350
16DF
  3
Standard
350
16D6
  0
DICTIONARY
  5
16C4
102
{ACAD_REACTORS
330
9
102
}
330
9
100
AcDbDictionary
281
     1
  3
2dWireframe
350
16CA
  3
3D Hidden
350
16CC
  3
3dWireframe
350
16CB
  3
Basic
350
16C9
  3
Brighten
350
16D0
  3
ColorChange
350
16D4
  3
Conceptual
350
16CD
  3
Dim
350
16CF
  3
Facepattern
350
16D3
  3
Flat
350
16C5
  3
FlatWithEdges
350
16C6
  3
Gouraud
350
16C7
  3
GouraudWithEdges
350
16C8
  3
Linepattern
350
16D2
  3
Realistic
350
16CE
  3
Thicken
350
16D1
  0
DICTIONARY
  5
16B
102
{ACAD_REACTORS
330
9
102
}
330
9
100
AcDbDictionary
281
     1
  3
CTABLESTYLE
350
16ED
  3
DIMASSOC
350
16D
  3
HIDETEXT
350
16C
  3
INDEXCTL
350
3D0C
  3
PROJECTNAME
350
16E
  3
SORTENTS
350
7B5
  0
DICTIONARY
  5
16EA
102
{ACAD_REACTORS
330
9
102
}
330
9
100
AcDbDictionary
281
     1
  3
_CurrQry
350
3D0B
  0
DICTIONARY
  5
6DB
102
{ACAD_REACTORS
330
9
102
}
330
9
100
AcDbDictionary
281
     1
  3
ASEBlockHierarchyIndexRecord
350
6DC
1001
DCO15
1040
1584427451.895
  0
DICTIONARY
  5
16D9
102
{ACAD_REACTORS
330
9
102
}
330
9
100
AcDbDictionary
281
     1
  3
AcMapDMStylizedEntities
350
16E6
  3
FSD_Dictionary
350
16E7
  3
MAP_DISPLAY_CUSTOMOBJ_REG_TABLE
350
16DD
  3
MAP_DISPLAY_MANAGEMENT_DICTIONARY
350
16DA
  3
MAP_DISPLAY_STYLELIBRARY_DICTIONARY
350
16DB
1001
MapGWS
1000
C:\Documents and Settings\All Users\Application Data\Autodesk\Autodesk Map 3D 2007\R17.0\MapCache\ATLICE-A6GWS12.xml
  0
XRECORD
  5
3D0D
102
{ACAD_REACTORS
330
9
102
}
330
9
100
AcDbXrecord
280
     1
  1
DWGPROPS COOKIE
  2

  3

  4

  6

  7

  8
janez
  9

300
=
301
=
302
=
303
=
304
=
305
=
306
=
307
=
308
=
309
=
 40
1.175226782407407
 41
2311946.475710706
 42
2454141.492545081
  1

 90
        0
  0
DICTIONARY
  5
3BDC
102
{ACAD_REACTORS
330
18FA
102
}
330
18FA
100
AcDbDictionary
281
     1
  0
DICTIONARY
  5
3BDB
102
{ACAD_REACTORS
330
18FA
102
}
330
18FA
100
AcDbDictionary
281
     1
1001
ACAD
1000
<All
  0
XRECORD
  5
4
102
{ACAD_REACTORS
330
3
102
}
330
3
100
AcDbXrecord
280
     1
340
2
  0
SORTENTSTABLE
  5
1703
102
{ACAD_REACTORS
330
3
102
}
330
3
100
AcDbSortentsTable
330
2
331
2C8D
  5
3B09
331
2A3F
  5
2B47
331
2B66
  5
3A08
331
388C
  5
3B45
331
2A47
  5
2B57
331
2C95
  5
3B11
331
3894
  5
3B4D
331
2C9D
  5
3B19
331
2C06
  5
3A9B
331
38A4
  5
3B51
331
29B0
  5
29B0
331
38AC
  5
3B58
331
2A87
  5
2C8F
331
29B8
  5
29B8
331
385D
  5
3B29
331
3865
  5
3B34
331
2B57
  5
39F1
331
386D
  5
3B3C
331
2A40
  5
2B48
331
2B67
  5
3A0A
331
2C8E
  5
3B0A
331
2A48
  5
2B59
331
2C96
  5
3B12
331
388D
  5
3B46
331
3895
  5
3B4E
331
2C9E
  5
3B1A
331
2C07
  5
3A9F
331
29A9
  5
29A9
331
38A5
  5
3B52
331
29B1
  5
29B1
331
38AD
  5
3B59
331
29B9
  5
29B9
331
2A88
  5
2C91
331
2C4F
  5
3AE6
331
385E
  5
3B2B
331
2B58
  5
39F2
331
3866
  5
3B35
331
386E
  5
3B3D
331
2B60
  5
39FF
331
2B68
  5
3A0B
331
2A41
  5
2B4B
331
2C8F
  5
3B0B
331
2A49
  5
2B5C
331
2C97
  5
3B13
331
388E
  5
3B47
331
3896
  5
3B4F
331
2C9F
  5
3B1B
331
2C08
  5
3AA5
331
29AA
  5
29AA
331
38A6
  5
3B53
331
29B2
  5
29B2
331
2C38
  5
3ADB
331
38AE
  5
3B5A
331
385F
  5
3B2D
331
2C50
  5
3AE7
331
3867
  5
3B36
331
2B59
  5
39F3
331
3A0E
  5
3A3E
331
386F
  5
3B3E
331
2B61
  5
3A01
331
2B69
  5
3A0D
331
2A42
  5
2B4C
331
2C90
  5
3B0C
331
2C98
  5
3B14
331
2C01
  5
3A8C
331
2A4A
  5
2B5D
331
388F
  5
3B48
331
3897
  5
3B50
331
2CA0
  5
3B1C
331
29AB
  5
29AB
331
2C09
  5
3AA9
331
38A7
  5
3B54
331
29B3
  5
29B3
331
3858
  5
3B23
331
38AF
  5
3B5B
331
3860
  5
3B2F
331
2B5A
  5
39F5
331
3868
  5
3B37
331
3870
  5
3B3F
331
2B62
  5
3A02
331
2C91
  5
3B0D
331
2A43
  5
2B4F
331
2B6A
  5
3A0E
331
3888
  5
3B41
331
3890
  5
3B49
331
2C99
  5
3B15
331
2C02
  5
3A8D
331
2A4B
  5
2B60
331
2CA1
  5
3B1D
331
29AC
  5
29AC
331
2C0A
  5
3AAB
331
29B4
  5
29B4
331
38A8
  5
3B55
331
38B0
  5
3B5C
331
3859
  5
3B24
331
3861
  5
3B30
331
3869
  5
3B38
331
2B5B
  5
39F7
331
3871
  5
3B40
331
2B63
  5
3A04
331
2C92
  5
3B0E
331
2B6B
  5
3A11
331
2A44
  5
2B50
331
3889
  5
3B42
331
3891
  5
3B4A
331
2C9A
  5
3B16
331
2C03
  5
3A90
331
2C0B
  5
3AAD
331
29AD
  5
29AD
331
29B5
  5
29B5
331
38A9
  5
3B56
331
385A
  5
3B25
331
38B1
  5
3A30
331
3862
  5
3B31
331
386A
  5
3B39
331
2B5C
  5
39F9
331
2B64
  5
3A06
331
2C93
  5
3B0F
331
2A45
  5
2B52
331
388A
  5
3B43
331
3892
  5
3B4B
331
2C9B
  5
3B17
331
2C04
  5
3A94
331
2C0C
  5
3AB0
331
29AE
  5
29AE
331
385B
  5
3B26
331
3863
  5
3B32
331
29CE
  5
29FE
331
2B5D
  5
39FB
331
386B
  5
3B3A
331
2B65
  5
3A07
331
2C94
  5
3B10
331
2A46
  5
2B55
331
388B
  5
3B44
331
3893
  5
3B4C
331
2C9C
  5
3B18
331
2C05
  5
3A99
331
2C0D
  5
3AB6
331
2A76
  5
2BDB
331
29AF
  5
29AF
331
3BB6
  5
3B83
331
29B7
  5
29B7
331
38AB
  5
3B57
331
385C
  5
3B27
331
3864
  5
3B33
331
29CF
  5
2A02
331
386C
  5
3B3B
  0
XRECORD
  5
14A
102
{ACAD_REACTORS
330
149
102
}
330
149
100
AcDbXrecord
280
     1
340
148
  0
XRECORD
  5
3D13
102
{ACAD_REACTORS
330
3D12
102
}
330
3D12
100
AcDbXrecord
280
     1
102
SHADEPLOT
 70
     0
  0
XRECORD
  5
3D15
102
{ACAD_REACTORS
330
3D14
102
}
330
3D14
100
AcDbXrecord
280
     1
102
SHADEPLOT
 70
     0
  0
LAYOUT
  5
14D
102
{ACAD_XDICTIONARY
360
3D10
102
}
102
{ACAD_REACTORS
330
147
102
}
330
147
100
AcDbPlotSettings
  1

  2
\\ris\laserc
  4
A4
  6

 40
6.805083274841308
 41
5.069413185119628
 42
6.805084228515625
 43
5.027069091796875
 44
209.9733276367187
 45
296.9683227539062
 46
0.0
 47
0.0
 48
0.0
 49
0.0
140
0.0
141
0.0
142
1.0
143
4.0
 70
   688
 72
     1
 73
     1
 74
     5
  7
monochrome.ctb
 75
    18
147
0.25
148
0.0
149
0.0
100
AcDbLayout
  1
Layout1
 70
     0
 71
     1
 10
-20.1082763671875
 20
-27.22033309936524
 11
1167.765014648437
 21
812.6729774475098
 12
0.0
 22
0.0
 32
0.0
 14
114.7487361907958
 24
78.54526405334468
 34
0.0
 15
1032.738625717163
 25
706.9073764801025
 35
0.0
146
0.0
 13
0.0
 23
0.0
 33
0.0
 16
1.0
 26
0.0
 36
0.0
 17
0.0
 27
1.0
 37
0.0
 76
     0
330
148
331
17F
  0
LAYOUT
  5
146
102
{ACAD_XDICTIONARY
360
3D0E
102
}
102
{ACAD_REACTORS
330
147
102
}
330
147
100
AcDbPlotSettings
  1

  2
\\ris\laserc
  4
A4
  6

 40
6.805083274841308
 41
5.069413185119628
 42
6.805084228515625
 43
5.027069091796875
 44
209.9733276367187
 45
296.9683227539062
 46
11.4
 47
35.65
 48
36.08173645326978
 49
39.13963998603622
140
251.6490471755318
141
212.6978016188405
142
1.0
143
1.0
 70
 11956
 72
     1
 73
     1
 74
     4
  7
monochrome.ctb
 75
    16
147
1.0
148
-36.08173645326978
149
-39.13963998603622
100
AcDbLayout
  1
Model
 70
     1
 71
     0
 10
0.0
 20
0.0
 11
12.0
 21
9.0
 12
0.0
 22
0.0
 32
0.0
 14
0.0
 24
0.0
 34
0.0
 15
0.0
 25
0.0
 35
0.0
146
0.0
 13
0.0
 23
0.0
 33
0.0
 16
1.0
 26
0.0
 36
0.0
 17
0.0
 27
1.0
 37
0.0
 76
     0
330
2
331
16BF
  0
MATERIAL
  5
16C2
102
{ACAD_XDICTIONARY
360
3D18
102
}
102
{ACAD_REACTORS
330
161
102
}
330
161
100
AcDbMaterial
  1
ByBlock
  0
MATERIAL
  5
16C1
102
{ACAD_XDICTIONARY
360
3D16
102
}
102
{ACAD_REACTORS
330
161
102
}
330
161
100
AcDbMaterial
  1
ByLayer
  0
MATERIAL
  5
16C3
102
{ACAD_XDICTIONARY
360
3D1A
102
}
102
{ACAD_REACTORS
330
161
102
}
330
161
100
AcDbMaterial
  1
Global
  0
MLINESTYLE
  5
163
102
{ACAD_REACTORS
330
15F
102
}
330
15F
100
AcDbMlineStyle
  2
STANDARD
 70
     0
  3

 62
     0
 51
90.0
 52
90.0
 71
     2
 49
0.5
 62
   256
  6
BYLAYER
 49
-0.5
 62
   256
  6
BYLAYER
  0
ACDBPLACEHOLDER
  5
7
102
{ACAD_REACTORS
330
8
102
}
330
8
  0
TABLESTYLE
  5
16DF
102
{ACAD_XDICTIONARY
360
3D1E
102
}
102
{ACAD_REACTORS
330
16D5
102
}
330
16D5
100
AcDbTableStyle
  3

 70
     0
 71
     1
 40
0.06
 41
0.06
280
     0
281
     0
  7
STANDARD
140
0.4
170
     4
 62
     0
 63
     7
283
     0
274
    -2
284
     0
 64
     0
275
    -2
285
     0
 65
     0
276
    -2
286
     1
 66
     0
277
    -2
287
     1
 67
     0
278
    -2
288
     0
 68
     0
279
    -2
289
     1
 69
     0
  7
STANDARD
140
0.5
170
     5
 62
     0
 63
     7
283
     0
274
    -2
284
     1
 64
     0
275
    -2
285
     0
 65
     0
276
    -2
286
     1
 66
     0
277
    -2
287
     1
 67
     0
278
    -2
288
     0
 68
     0
279
    -2
289
     1
 69
     0
  7
STANDARD
140
0.4
170
     4
 62
     0
 63
     7
283
     0
274
    -2
284
     1
 64
     0
275
    -2
285
     0
 65
     0
276
    -2
286
     1
 66
     0
277
    -2
287
     1
 67
     0
278
    -2
288
     0
 68
     0
279
    -2
289
     1
 69
     0
  0
TABLESTYLE
  5
16D6
102
{ACAD_XDICTIONARY
360
3D1C
102
}
102
{ACAD_REACTORS
330
16D5
102
}
330
16D5
100
AcDbTableStyle
  3
Standard
 70
     0
 71
     0
 40
1.5
 41
1.5
280
     0
281
     0
  7
STANDARD
140
4.5
170
     2
 62
     0
 63
     7
283
     0
274
    -2
284
     1
 64
     0
275
    -2
285
     1
 65
     0
276
    -2
286
     1
 66
     0
277
    -2
287
     1
 67
     0
278
    -2
288
     1
 68
     0
279
    -2
289
     1
 69
     0
  7
STANDARD
140
6.0
170
     5
 62
     0
 63
     7
283
     0
274
    -2
284
     1
 64
     0
275
    -2
285
     1
 65
     0
276
    -2
286
     1
 66
     0
277
    -2
287
     1
 67
     0
278
    -2
288
     1
 68
     0
279
    -2
289
     1
 69
     0
  7
STANDARD
140
4.5
170
     5
 62
     0
 63
     7
283
     0
274
    -2
284
     1
 64
     0
275
    -2
285
     1
 65
     0
276
    -2
286
     1
 66
     0
277
    -2
287
     1
 67
     0
278
    -2
288
     1
 68
     0
279
    -2
289
     1
 69
     0
  0
VISUALSTYLE
  5
16CA
102
{ACAD_REACTORS
330
16C4
102
}
330
16C4
100
AcDbVisualStyle
  2
2dWireframe
 70
     4
 71
     0
 72
     2
 73
     0
 90
        0
 40
-0.6
 41
-30.0
 62
     5
 63
     7
 74
     1
 91
        4
 64
     7
 65
   257
 75
     1
175
     1
 42
1.0
 92
        0
 66
   257
 43
1.0
 76
     1
 77
     6
 78
     2
 67
     7
 79
     5
170
     0
171
     0
290
     0
174
     0
 93
        1
 44
0.0
173
     0
291
     0
 45
0.0
1001
ACAD
1000
AcDbSavedByObjectVersion
1070
     0
  0
VISUALSTYLE
  5
16CC
102
{ACAD_REACTORS
330
16C4
102
}
330
16C4
100
AcDbVisualStyle
  2
3D Hidden
 70
     6
 71
     1
 72
     2
 73
     2
 90
        0
 40
-0.6
 41
-30.0
 62
     5
 63
     7
 74
     2
 91
        2
 64
     7
 65
   257
 75
     2
175
     1
 42
40.0
 92
        0
 66
   257
 43
1.0
 76
     1
 77
     6
 78
     2
 67
     7
 79
     3
170
     0
171
     0
290
     0
174
     0
 93
        1
 44
0.0
173
     0
291
     0
 45
0.0
1001
ACAD
1000
AcDbSavedByObjectVersion
1070
     0
  0
VISUALSTYLE
  5
16CB
102
{ACAD_REACTORS
330
16C4
102
}
330
16C4
100
AcDbVisualStyle
  2
3dWireframe
 70
     5
 71
     0
 72
     2
 73
     0
 90
        0
 40
-0.6
 41
-30.0
 62
     5
 63
     7
 74
     1
 91
        4
 64
     7
 65
   257
 75
     1
175
     1
 42
1.0
 92
        0
 66
   257
 43
1.0
 76
     1
 77
     6
 78
     2
 67
     7
 79
     5
170
     0
171
     0
290
     0
174
     0
 93
        1
 44
0.0
173
     0
291
     0
 45
0.0
1001
ACAD
1000
AcDbSavedByObjectVersion
1070
     0
  0
VISUALSTYLE
  5
16C9
102
{ACAD_REACTORS
330
16C4
102
}
330
16C4
100
AcDbVisualStyle
  2
Basic
 70
     7
 71
     1
 72
     0
 73
     1
 90
        0
 40
-0.6
 41
-30.0
 62
     5
 63
     7
 74
     0
 91
        4
 64
     7
 65
   257
 75
     1
175
     1
 42
1.0
 92
        8
 66
     7
 43
1.0
 76
     1
 77
     6
 78
     2
 67
     7
 79
     5
170
     0
171
     0
290
     0
174
     0
 93
        1
 44
0.0
173
     0
291
     1
 45
0.0
1001
ACAD
1000
AcDbSavedByObjectVersion
1070
     0
  0
VISUALSTYLE
  5
16D0
102
{ACAD_REACTORS
330
16C4
102
}
330
16C4
100
AcDbVisualStyle
  2
Brighten
 70
    12
 71
     2
 72
     2
 73
     0
 90
        0
 40
-0.6
 41
-30.0
 62
     5
 63
     7
 74
     1
 91
        4
 64
     7
 65
   257
 75
     1
175
     1
 42
1.0
 92
        8
 66
     7
 43
1.0
 76
     1
 77
     6
 78
     2
 67
     7
 79
     5
170
     0
171
     0
290
     0
174
     0
 93
        1
 44
50.0
173
     0
291
     1
 45
0.0
1001
ACAD
1000
AcDbSavedByObjectVersion
1070
     0
  0
VISUALSTYLE
  5
16D4
102
{ACAD_REACTORS
330
16C4
102
}
330
16C4
100
AcDbVisualStyle
  2
ColorChange
 70
    16
 71
     2
 72
     2
 73
     3
 90
        0
 40
-0.6
 41
-30.0
 62
     5
 63
     8
 74
     1
 91
        4
 64
     7
 65
   257
 75
     1
175
     1
 42
1.0
 92
        8
 66
     8
 43
1.0
 76
     1
 77
     6
 78
     2
 67
     7
 79
     5
170
     0
171
     0
290
     0
174
     0
 93
        1
 44
0.0
173
     0
291
     1
 45
0.0
1001
ACAD
1000
AcDbSavedByObjectVersion
1070
     0
  0
VISUALSTYLE
  5
16CD
102
{ACAD_REACTORS
330
16C4
102
}
330
16C4
100
AcDbVisualStyle
  2
Conceptual
 70
     9
 71
     3
 72
     2
 73
     0
 90
        0
 40
-0.6
 41
-30.0
 62
     5
 63
     7
 74
     2
 91
        2
 64
     7
 65
   257
 75
     1
175
     1
 42
40.0
 92
        8
 66
     7
 43
1.0
 76
     1
 77
     6
 78
     2
 67
     7
 79
     3
170
     0
171
     0
290
     0
174
     0
 93
        1
 44
0.0
173
     0
291
     0
 45
0.0
1001
ACAD
1000
AcDbSavedByObjectVersion
1070
     0
  0
VISUALSTYLE
  5
16CF
102
{ACAD_REACTORS
330
16C4
102
}
330
16C4
100
AcDbVisualStyle
  2
Dim
 70
    11
 71
     2
 72
     2
 73
     0
 90
        0
 40
-0.6
 41
-30.0
 62
     5
 63
     7
 74
     1
 91
        4
 64
     7
 65
   257
 75
     1
175
     1
 42
1.0
 92
        8
 66
     7
 43
1.0
 76
     1
 77
     6
 78
     2
 67
     7
 79
     5
170
     0
171
     0
290
     0
174
     0
 93
        1
 44
-50.0
173
     0
291
     1
 45
0.0
1001
ACAD
1000
AcDbSavedByObjectVersion
1070
     0
  0
VISUALSTYLE
  5
16D3
102
{ACAD_REACTORS
330
16C4
102
}
330
16C4
100
AcDbVisualStyle
  2
Facepattern
 70
    15
 71
     2
 72
     2
 73
     0
 90
        0
 40
-0.6
 41
-30.0
 62
     5
 63
     7
 74
     1
 91
        4
 64
     7
 65
   257
 75
     1
175
     1
 42
1.0
 92
        8
 66
     7
 43
1.0
 76
     1
 77
     6
 78
     2
 67
     7
 79
     5
170
     0
171
     0
290
     0
174
     0
 93
        1
 44
0.0
173
     0
291
     1
 45
0.0
1001
ACAD
1000
AcDbSavedByObjectVersion
1070
     0
  0
VISUALSTYLE
  5
16C5
102
{ACAD_REACTORS
330
16C4
102
}
330
16C4
100
AcDbVisualStyle
  2
Flat
 70
     0
 71
     2
 72
     1
 73
     1
 90
        2
 40
-0.6
 41
30.0
 62
     5
 63
     7
 74
     0
 91
        4
 64
     7
 65
   257
 75
     1
175
     1
 42
1.0
 92
        8
 66
     7
 43
1.0
 76
     1
 77
     6
 78
     2
 67
     7
 79
     5
170
     0
171
     0
290
     0
174
     0
 93
       13
 44
0.0
173
     0
291
     1
 45
0.0
1001
ACAD
1000
AcDbSavedByObjectVersion
1070
     0
  0
VISUALSTYLE
  5
16C6
102
{ACAD_REACTORS
330
16C4
102
}
330
16C4
100
AcDbVisualStyle
  2
FlatWithEdges
 70
     1
 71
     2
 72
     1
 73
     1
 90
        2
 40
-0.6
 41
30.0
 62
     5
 63
     7
 74
     1
 91
        4
 64
     7
 65
   257
 75
     1
175
     1
 42
1.0
 92
        0
 66
   257
 43
1.0
 76
     1
 77
     6
 78
     2
 67
     7
 79
     5
170
     0
171
     0
290
     0
174
     0
 93
       13
 44
0.0
173
     0
291
     1
 45
0.0
1001
ACAD
1000
AcDbSavedByObjectVersion
1070
     0
  0
VISUALSTYLE
  5
16C7
102
{ACAD_REACTORS
330
16C4
102
}
330
16C4
100
AcDbVisualStyle
  2
Gouraud
 70
     2
 71
     2
 72
     2
 73
     1
 90
        2
 40
-0.6
 41
30.0
 62
     5
 63
     7
 74
     0
 91
        4
 64
     7
 65
   257
 75
     1
175
     1
 42
1.0
 92
        0
 66
     7
 43
1.0
 76
     1
 77
     6
 78
     2
 67
     7
 79
     5
170
     0
171
     0
290
     0
174
     0
 93
       13
 44
0.0
173
     0
291
     1
 45
0.0
1001
ACAD
1000
AcDbSavedByObjectVersion
1070
     0
  0
VISUALSTYLE
  5
16C8
102
{ACAD_REACTORS
330
16C4
102
}
330
16C4
100
AcDbVisualStyle
  2
GouraudWithEdges
 70
     3
 71
     2
 72
     2
 73
     1
 90
        2
 40
-0.6
 41
30.0
 62
     5
 63
     7
 74
     1
 91
        4
 64
     7
 65
   257
 75
     1
175
     1
 42
1.0
 92
        0
 66
   257
 43
1.0
 76
     1
 77
     6
 78
     2
 67
     7
 79
     5
170
     0
171
     0
290
     0
174
     0
 93
       13
 44
0.0
173
     0
291
     1
 45
0.0
1001
ACAD
1000
AcDbSavedByObjectVersion
1070
     0
  0
VISUALSTYLE
  5
16D2
102
{ACAD_REACTORS
330
16C4
102
}
330
16C4
100
AcDbVisualStyle
  2
Linepattern
 70
    14
 71
     2
 72
     2
 73
     0
 90
        0
 40
-0.6
 41
-30.0
 62
     5
 63
     7
 74
     1
 91
        4
 64
     7
 65
   257
 75
     7
175
     7
 42
1.0
 92
        8
 66
     7
 43
1.0
 76
     1
 77
     6
 78
     2
 67
     7
 79
     5
170
     0
171
     0
290
     0
174
     0
 93
        1
 44
0.0
173
     0
291
     1
 45
0.0
1001
ACAD
1000
AcDbSavedByObjectVersion
1070
     0
  0
VISUALSTYLE
  5
16CE
102
{ACAD_REACTORS
330
16C4
102
}
330
16C4
100
AcDbVisualStyle
  2
Realistic
 70
     8
 71
     2
 72
     2
 73
     0
 90
        0
 40
-0.6
 41
-30.0
 62
     5
 63
     7
 74
     1
 91
        0
 64
     7
 65
   257
 75
     1
175
     1
 42
1.0
 92
        8
 66
     8
 43
1.0
 76
     1
 77
     6
 78
     2
 67
     7
 79
     5
170
     0
171
     0
290
     0
174
     0
 93
       13
 44
0.0
173
     0
291
     0
 45
0.0
1001
ACAD
1000
AcDbSavedByObjectVersion
1070
     0
  0
VISUALSTYLE
  5
16D1
102
{ACAD_REACTORS
330
16C4
102
}
330
16C4
100
AcDbVisualStyle
  2
Thicken
 70
    13
 71
     2
 72
     2
 73
     0
 90
        0
 40
-0.6
 41
-30.0
 62
     5
 63
     7
 74
     1
 91
        4
 64
     7
 65
   257
 75
     1
175
     1
 42
1.0
 92
       12
 66
     7
 43
1.0
 76
     1
 77
     6
 78
     2
 67
     7
 79
     5
170
     0
171
     0
290
     0
174
     0
 93
        1
 44
0.0
173
     0
291
     1
 45
0.0
1001
ACAD
1000
AcDbSavedByObjectVersion
1070
     0
  0
DICTIONARYVAR
  5
16ED
102
{ACAD_REACTORS
330
16B
102
}
330
16B
100
DictionaryVariables
280
     0
  1
STANDARD
  0
DICTIONARYVAR
  5
16D
102
{ACAD_REACTORS
330
16B
102
}
330
16B
100
DictionaryVariables
280
     0
  1
1
  0
DICTIONARYVAR
  5
16C
102
{ACAD_REACTORS
330
16B
102
}
330
16B
100
DictionaryVariables
280
     0
  1
1
  0
DICTIONARYVAR
  5
3D0C
102
{ACAD_REACTORS
330
16B
102
}
330
16B
100
DictionaryVariables
280
     0
  1
0
  0
DICTIONARYVAR
  5
16E
102
{ACAD_REACTORS
330
16B
102
}
330
16B
100
DictionaryVariables
280
     0
  1

  0
DICTIONARYVAR
  5
7B5
102
{ACAD_REACTORS
330
16B
102
}
330
16B
100
DictionaryVariables
280
     0
  1
96
  0
XRECORD
  5
3D0B
102
{ACAD_REACTORS
330
16EA
102
}
330
16EA
100
AcDbXrecord
280
     1
1000
ADE02C001
1070
     1
1070
     0
1002
{
1002
}
1002
{
1002
}
1002
{
1002
}
1000

  0
XRECORD
  5
6DC
102
{ACAD_REACTORS
330
6DB
102
}
330
6DB
100
AcDbXrecord
280
     1
  0
DMSTYLIZEDENTITIESTABLE
  5
16E6
102
{ACAD_REACTORS
330
16D9
102
}
330
16D9
100
AcMapDMStylizedEntitiesTable
 70
     1
  0
DICTIONARY
  5
16E7
102
{ACAD_REACTORS
330
16D9
102
}
330
16D9
100
AcDbDictionary
280
     1
281
     1
  0
ACDBDATATABLE
  5
16DD
102
{ACAD_REACTORS
330
16D9
102
}
330
16D9
100
ACDBDATATABLE
 70
     2
 90
        4
 91
       15
  1

 92
        3
  2
OriginalClassName
  3
AcMapDMDefaultStyle
  3
AcMapDMEntityStyle
  3
AcMapDMRasterStyle
  3
AcMapDMSEAnnotationStyle
  3
AcMapDMSEHatchStyle
  3
AcMapDMSETextStyle
  3
AcMapDMThematicStyle
  3
AcMapDMBaseElement
  3
AcMapDMAttachedDwgsQueryElement
  3
AcMapDMFeatureElement
  3
AcMapDMLayerElement
  3
AcMapDMCurrentDwgQueryElement
  3
AcMapDMRasterElement
  3
AcMapDMTopoElement
  3
AcMapDMTopoQueryElement
 92
        3
  2
ProxyDisplayName
  3
Default
  3
Entity
  3
Raster
  3
Annotation
  3
Hatch
  3
Text
  3
Thematic
  3
Map Base
  3
Ade Query
  3
Feature Class
  3
Layer
  3
Ade Project Query
  3
Raster
  3
Topology
  3
Topology Query
 92
        1
  2
CustomObjectType
 93
        2
 93
        2
 93
        2
 93
        2
 93
        2
 93
        2
 93
        2
 93
        1
 93
        1
 93
        1
 93
        1
 93
        1
 93
        1
 93
        1
 93
        1
 92
        1
  2
StyleCoExistanceType
 93
        1
 93
        1
 93
        1
 93
        1
 93
        1
 93
        1
 93
        2
 93
        0
 93
        0
 93
        0
 93
        0
 93
        0
 93
        0
 93
        0
 93
        0
  0
DMMAPMANAGER
  5
16DA
102
{ACAD_REACTORS
330
16D9
102
}
330
16D9
100
AcDbDictionary
281
     1
  3
DisplayMap1
350
16DE
100
AcDbDictionaryWithDefault
340
16DE
100
AcMapDMMapManager
 70
     1
340
16DE
  0
DMSTYLELIBRARY
  5
16DB
102
{ACAD_REACTORS
330
16D9
102
}
330
16D9
100
AcMapDMStyleLibrary
 70
     1
 70
     1
360
16DC
  0
DICTIONARY
  5
3D10
330
14D
100
AcDbDictionary
280
     1
281
     1
  3
ACAD_XREC_ROUNDTRIP
360
3D11
  0
DICTIONARY
  5
3D0E
330
146
100
AcDbDictionary
280
     1
281
     1
  3
ACAD_XREC_ROUNDTRIP
360
3D0F
  0
DICTIONARY
  5
3D18
330
16C2
100
AcDbDictionary
280
     1
281
     1
  3
ACAD_XREC_ROUNDTRIP
360
3D19
  0
DICTIONARY
  5
3D16
330
16C1
100
AcDbDictionary
280
     1
281
     1
  3
ACAD_XREC_ROUNDTRIP
360
3D17
  0
DICTIONARY
  5
3D1A
330
16C3
100
AcDbDictionary
280
     1
281
     1
  3
ACAD_XREC_ROUNDTRIP
360
3D1B
  0
DICTIONARY
  5
3D1E
330
16DF
100
AcDbDictionary
280
     1
281
     1
  3
ACAD_XREC_ROUNDTRIP
360
3D1F
  0
DICTIONARY
  5
3D1C
330
16D6
100
AcDbDictionary
280
     1
281
     1
  3
ACAD_XREC_ROUNDTRIP
360
3D1D
  0
DMMAP
  5
16DE
102
{ACAD_REACTORS
330
16DA
330
16E0
102
}
330
16DA
100
AcMapDMMap
 70
     1
  1
Default
 70
     1
330
0
100
AcMapDMMap
 70
     1
 90
        1
360
16E0
 90
        1
 40
1.797693134862314E+99
 70
     1
100
AcMapDMMap
 70
     2
 70
     0
 40
1.797693134862314E+99
290
     1
290
     1
 40
1.0
 40
3.0
  1
Legend
 90
        1
 40
1.797693134862314E+99
  1

 70
     0
 40
1.0
 70
     1
 90
        0
 90
        1
360
16E1
  0
DMSTYLECATEGORY
  5
16DC
102
{ACAD_REACTORS
330
16DB
102
}
330
0
100
AcMapDMStyleCategory
 70
     1
  1
Display Styles
 70
     0
  0
XRECORD
  5
3D11
102
{ACAD_REACTORS
330
3D10
102
}
330
3D10
100
AcDbXrecord
280
     1
102
SHADEPLOT
 70
     0
102
SHADEPLOTRESLEVEL
 70
     2
102
SHADEPLOTCUSTOMDPI
 70
   300
  0
XRECORD
  5
3D0F
102
{ACAD_REACTORS
330
3D0E
102
}
330
3D0E
100
AcDbXrecord
280
     1
102
SHADEPLOT
 70
     0
102
SHADEPLOTRESLEVEL
 70
     2
102
SHADEPLOTCUSTOMDPI
 70
   300
  0
XRECORD
  5
3D19
102
{ACAD_REACTORS
330
3D18
102
}
330
3D18
100
AcDbXrecord
280
     1
102
MATERIAL
148
0.0
149
0.0
149
0.0
 93
        0
 94
       63
282
     0
 72
     1
 77
     1
171
     1
175
     1
179
     1
273
     0
  0
XRECORD
  5
3D17
102
{ACAD_REACTORS
330
3D16
102
}
330
3D16
100
AcDbXrecord
280
     1
102
MATERIAL
148
0.0
149
0.0
149
0.0
 93
        0
 94
       63
282
     0
 72
     1
 77
     1
171
     1
175
     1
179
     1
273
     0
  0
XRECORD
  5
3D1B
102
{ACAD_REACTORS
330
3D1A
102
}
330
3D1A
100
AcDbXrecord
280
     1
102
MATERIAL
148
0.0
149
0.0
149
0.0
 93
        0
 94
       63
282
     0
 72
     1
 77
     1
171
     1
175
     1
179
     1
273
     0
  0
XRECORD
  5
3D1F
102
{ACAD_REACTORS
330
3D1E
102
}
330
3D1E
100
AcDbXrecord
280
     1
102
ACAD_ROUNDTRIP_PRE2007_TABLESTYLE
 90
      512
 91
        0
  1

 92
      512
 93
        0
  2

 94
      512
 95
        0
  3

  0
XRECORD
  5
3D1D
102
{ACAD_REACTORS
330
3D1C
102
}
330
3D1C
100
AcDbXrecord
280
     1
102
ACAD_ROUNDTRIP_PRE2007_TABLESTYLE
 90
      512
 91
        0
  1

 92
      512
 93
        0
  2

 94
      512
 95
        0
  3

  0
DMBASEELEMENT
  5
16E0
102
{ACAD_XDICTIONARY
360
16E4
102
}
102
{ACAD_REACTORS
330
16DE
102
}
330
16DE
100
AcMapDMBaseElement
 70
     1
  1
Map Base
 70
     1
330
16DE
100
AcMapDMBaseElement
 70
     1
  1

 70
     2
  1

 70
     1
 40
1.797693134862314E+99
 70
     1
 70
     1
 70
     1
 70
     1
360
16E3
100
AcMapDMBaseElement
 70
     1
  0
DMDEFAULTSTYLE
  5
16E1
102
{ACAD_REACTORS
330
16DE
102
}
330
16DE
100
AcMapDMDefaultStyle
 70
     1
 90
        1
  1
Default
100
AcMapDMDefaultStyle
 70
     1
280
   100
 90
     0
1001
AcMapDMDisplayStyleRegapp
1070
     2
1071
        1
1000
Default
1000

  0
DICTIONARY
  5
16E4
330
16E0
100
AcDbDictionary
280
     1
281
     1
  3
AcMapDMSurrogateStyleSets
360
16E5
  0
DMSTYLEREFERENCE
  5
16E3
330
16E0
100
AcMapDMStyleReference
 70
     1
 70
     0
340
16E1
330
16DE
  0
DMSURROGATESTYLESETS
  5
16E5
102
{ACAD_REACTORS
330
16E4
102
}
330
16E4
100
AcMapDMSurrogateStyleSets
 70
     1
  1
Map Base
 70
     1
 40
1.797693134862314E+99
 70
     1
 70
     1
 70
     1
 70
     1
330
16E3
 70
     0
  0
ENDSEC
  0
EOF
