  0
SECTION
  2
HEADER
  9
$ACADVER
  1
AC1015
  9
$ACADMAINTVER
 70
    20
  9
$DWGCODEPAGE
  3
ANSI_1250
  9
$INSBASE
 10
0.0
 20
0.0
 30
0.0
  9
$EXTMIN
 10
0.0
 20
0.0
 30
0.0
  9
$EXTMAX
 10
1156.299999999999
 20
417.565822928638
 30
0.0
  9
$LIMMIN
 10
0.0
 20
0.0
  9
$LIMMAX
 10
0.0
 20
0.0
  9
$ORTHOMODE
 70
     0
  9
$REGENMODE
 70
     1
  9
$FILLMODE
 70
     1
  9
$QTEXTMODE
 70
     0
  9
$MIRRTEXT
 70
     1
  9
$LTSCALE
 40
1.0
  9
$ATTMODE
 70
     1
  9
$TEXTSIZE
 40
0.2
  9
$TRACEWID
 40
0.05
  9
$TEXTSTYLE
  7
STANDARD
  9
$CLAYER
  8
copper
  9
$CELTYPE
  6
BYLAYER
  9
$CECOLOR
 62
   256
  9
$CELTSCALE
 40
1.0
  9
$DISPSILH
 70
     0
  9
$DIMSCALE
 40
1.0
  9
$DIMASZ
 40
0.18
  9
$DIMEXO
 40
0.0625
  9
$DIMDLI
 40
0.38
  9
$DIMRND
 40
0.0
  9
$DIMDLE
 40
0.0
  9
$DIMEXE
 40
0.18
  9
$DIMTP
 40
0.0
  9
$DIMTM
 40
0.0
  9
$DIMTXT
 40
10.0
  9
$DIMCEN
 40
0.09
  9
$DIMTSZ
 40
0.0
  9
$DIMTOL
 70
     0
  9
$DIMLIM
 70
     0
  9
$DIMTIH
 70
     1
  9
$DIMTOH
 70
     1
  9
$DIMSE1
 70
     0
  9
$DIMSE2
 70
     0
  9
$DIMTAD
 70
     0
  9
$DIMZIN
 70
     0
  9
$DIMBLK
  1

  9
$DIMASO
 70
     1
  9
$DIMSHO
 70
     1
  9
$DIMPOST
  1

  9
$DIMAPOST
  1

  9
$DIMALT
 70
     0
  9
$DIMALTD
 70
     2
  9
$DIMALTF
 40
25.4
  9
$DIMLFAC
 40
1.0
  9
$DIMTOFL
 70
     0
  9
$DIMTVP
 40
0.0
  9
$DIMTIX
 70
     0
  9
$DIMSOXD
 70
     0
  9
$DIMSAH
 70
     0
  9
$DIMBLK1
  1

  9
$DIMBLK2
  1

  9
$DIMSTYLE
  2
STANDARD
  9
$DIMCLRD
 70
     0
  9
$DIMCLRE
 70
     0
  9
$DIMCLRT
 70
     0
  9
$DIMTFAC
 40
1.0
  9
$DIMGAP
 40
0.09
  9
$DIMJUST
 70
     0
  9
$DIMSD1
 70
     0
  9
$DIMSD2
 70
     0
  9
$DIMTOLJ
 70
     1
  9
$DIMTZIN
 70
     0
  9
$DIMALTZ
 70
     0
  9
$DIMALTTZ
 70
     0
  9
$DIMUPT
 70
     0
  9
$DIMDEC
 70
     4
  9
$DIMTDEC
 70
     4
  9
$DIMALTU
 70
     2
  9
$DIMALTTD
 70
     2
  9
$DIMTXSTY
  7
STANDARD
  9
$DIMAUNIT
 70
     0
  9
$DIMADEC
 70
     5
  9
$DIMALTRND
 40
0.0
  9
$DIMAZIN
 70
     0
  9
$DIMDSEP
 70
    46
  9
$DIMATFIT
 70
     3
  9
$DIMFRAC
 70
     0
  9
$DIMLDRBLK
  1

  9
$DIMLUNIT
 70
     2
  9
$DIMLWD
 70
    -2
  9
$DIMLWE
 70
    -2
  9
$DIMTMOVE
 70
     0
  9
$LUNITS
 70
     2
  9
$LUPREC
 70
     4
  9
$SKETCHINC
 40
0.1
  9
$FILLETRAD
 40
0.0
  9
$AUNITS
 70
     0
  9
$AUPREC
 70
     0
  9
$MENU
  1
acad
  9
$ELEVATION
 40
0.0
  9
$PELEVATION
 40
0.0
  9
$THICKNESS
 40
0.0
  9
$LIMCHECK
 70
     0
  9
$CHAMFERA
 40
0.0
  9
$CHAMFERB
 40
0.0
  9
$CHAMFERC
 40
0.0
  9
$CHAMFERD
 40
0.0
  9
$SKPOLY
 70
     0
  9
$TDCREATE
 40
2311946.475710706
  9
$TDUCREATE
 40
2311946.434044039
  9
$TDUPDATE
 40
2454141.492998646
  9
$TDUUPDATE
 40
2454141.451331979
  9
$TDINDWG
 40
1.1738457060
  9
$TDUSRTIMER
 40
1.1738455903
  9
$USRTIMER
 70
     1
  9
$ANGBASE
 50
0.0
  9
$ANGDIR
 70
     0
  9
$PDMODE
 70
     0
  9
$PDSIZE
 40
0.0
  9
$PLINEWID
 40
1.199999999999999
  9
$SPLFRAME
 70
     0
  9
$SPLINETYPE
 70
     6
  9
$SPLINESEGS
 70
     8
  9
$HANDSEED
  5
3C9D
  9
$SURFTAB1
 70
     6
  9
$SURFTAB2
 70
     6
  9
$SURFTYPE
 70
     6
  9
$SURFU
 70
     6
  9
$SURFV
 70
     6
  9
$UCSBASE
  2

  9
$UCSNAME
  2

  9
$UCSORG
 10
0.0
 20
0.0
 30
0.0
  9
$UCSXDIR
 10
1.0
 20
0.0
 30
0.0
  9
$UCSYDIR
 10
0.0
 20
1.0
 30
0.0
  9
$UCSORTHOREF
  2

  9
$UCSORTHOVIEW
 70
     1
  9
$UCSORGTOP
 10
0.0
 20
0.0
 30
0.0
  9
$UCSORGBOTTOM
 10
0.0
 20
0.0
 30
0.0
  9
$UCSORGLEFT
 10
0.0
 20
0.0
 30
0.0
  9
$UCSORGRIGHT
 10
0.0
 20
0.0
 30
0.0
  9
$UCSORGFRONT
 10
0.0
 20
0.0
 30
0.0
  9
$UCSORGBACK
 10
0.0
 20
0.0
 30
0.0
  9
$PUCSBASE
  2

  9
$PUCSNAME
  2

  9
$PUCSORG
 10
0.0
 20
0.0
 30
0.0
  9
$PUCSXDIR
 10
1.0
 20
0.0
 30
0.0
  9
$PUCSYDIR
 10
0.0
 20
1.0
 30
0.0
  9
$PUCSORTHOREF
  2

  9
$PUCSORTHOVIEW
 70
     0
  9
$PUCSORGTOP
 10
0.0
 20
0.0
 30
0.0
  9
$PUCSORGBOTTOM
 10
0.0
 20
0.0
 30
0.0
  9
$PUCSORGLEFT
 10
0.0
 20
0.0
 30
0.0
  9
$PUCSORGRIGHT
 10
0.0
 20
0.0
 30
0.0
  9
$PUCSORGFRONT
 10
0.0
 20
0.0
 30
0.0
  9
$PUCSORGBACK
 10
0.0
 20
0.0
 30
0.0
  9
$USERI1
 70
     0
  9
$USERI2
 70
     0
  9
$USERI3
 70
     0
  9
$USERI4
 70
     0
  9
$USERI5
 70
     0
  9
$USERR1
 40
0.0
  9
$USERR2
 40
0.0
  9
$USERR3
 40
0.0
  9
$USERR4
 40
0.0
  9
$USERR5
 40
0.0
  9
$WORLDVIEW
 70
     1
  9
$SHADEDGE
 70
     3
  9
$SHADEDIF
 70
    70
  9
$TILEMODE
 70
     1
  9
$MAXACTVP
 70
    16
  9
$PINSBASE
 10
0.0
 20
0.0
 30
0.0
  9
$PLIMCHECK
 70
     0
  9
$PEXTMIN
 10
114.7487361907958
 20
78.54526405334468
 30
0.0
  9
$PEXTMAX
 10
1032.738625717163
 20
706.9073764801025
 30
0.0
  9
$PLIMMIN
 10
-20.1082763671875
 20
-27.22033309936524
  9
$PLIMMAX
 10
1167.765014648437
 20
812.6729774475098
  9
$UNITMODE
 70
     0
  9
$VISRETAIN
 70
     0
  9
$PLINEGEN
 70
     1
  9
$PSLTSCALE
 70
     0
  9
$TREEDEPTH
 70
  3020
  9
$CMLSTYLE
  2
STANDARD
  9
$CMLJUST
 70
     0
  9
$CMLSCALE
 40
1.0
  9
$PROXYGRAPHICS
 70
     0
  9
$MEASUREMENT
 70
     1
  9
$CELWEIGHT
370
    -1
  9
$ENDCAPS
280
     0
  9
$JOINSTYLE
280
     0
  9
$LWDISPLAY
290
     0
  9
$INSUNITS
 70
     0
  9
$HYPERLINKBASE
  1

  9
$STYLESHEET
  1
monochrome.ctb
  9
$XEDIT
290
     1
  9
$CEPSNTYPE
380
     0
  9
$PSTYLEMODE
290
     1
  9
$FINGERPRINTGUID
  2
{44CFACF6-FF42-4479-A730-8E27374F1164}
  9
$VERSIONGUID
  2
{99B17E52-B037-4D9E-80E7-28C058803C2B}
  9
$EXTNAMES
290
     1
  9
$PSVPSCALE
 40
0.0
  9
$OLESTARTUP
290
     0
  0
ENDSEC
  0
SECTION
  2
CLASSES
  0
CLASS
  1
IMAGE
  2
AcDbRasterImage
  3
ISM
 90
    34943
280
     0
281
     1
  0
CLASS
  1
DICTIONARYVAR
  2
AcDbDictionaryVar
  3
ObjectDBX Classes
 90
        0
280
     0
281
     0
  0
CLASS
  1
RASTERVARIABLES
  2
AcDbRasterVariables
  3
ISM
 90
    32768
280
     0
281
     0
  0
CLASS
  1
IMAGEDEF
  2
AcDbRasterImageDef
  3
ISM
 90
    32768
280
     0
281
     0
  0
CLASS
  1
IMAGEDEF_REACTOR
  2
AcDbRasterImageDefReactor
  3
ISM
 90
    32769
280
     0
281
     0
  0
CLASS
  1
IDBUFFER
  2
AcDbIdBuffer
  3
ObjectDBX Classes
 90
    32768
280
     0
281
     0
  0
CLASS
  1
SPATIAL_FILTER
  2
AcDbSpatialFilter
  3
ObjectDBX Classes
 90
    32768
280
     0
281
     0
  0
CLASS
  1
SORTENTSTABLE
  2
AcDbSortentsTable
  3
ObjectDBX Classes
 90
        0
280
     0
281
     0
  0
CLASS
  1
LAYER_INDEX
  2
AcDbLayerIndex
  3
ObjectDBX Classes
 90
    32768
280
     0
281
     0
  0
CLASS
  1
SPATIAL_INDEX
  2
AcDbSpatialIndex
  3
ObjectDBX Classes
 90
    32768
280
     0
281
     0
  0
CLASS
  1
OBJECT_PTR
  2
CAseDLPNTableRecord
  3
ASE-LPNTableRecord
 90
    32769
280
     0
281
     0
  0
CLASS
  1
LAYOUT
  2
AcDbLayout
  3
ObjectDBX Classes
 90
        0
280
     0
281
     0
  0
CLASS
  1
PLOTSETTINGS
  2
AcDbPlotSettings
  3
ObjectDBX Classes
 90
    32768
280
     0
281
     0
  0
CLASS
  1
ACDBDICTIONARYWDFLT
  2
AcDbDictionaryWithDefault
  3
ObjectDBX Classes
 90
        0
280
     0
281
     0
  0
CLASS
  1
ACDBPLACEHOLDER
  2
AcDbPlaceHolder
  3
ObjectDBX Classes
 90
        0
280
     0
281
     0
  0
CLASS
  1
VBA_PROJECT
  2
AcDbVbaProject
  3
acad
 90
    32768
280
     0
281
     0
  0
CLASS
  1
WIPEOUT
  2
AcDbWipeout
  3
"WipeOut|Product Desc: Object Enabler for WipeOut entity                        |Company: Autodesk, Inc.                        |WEB Address: www.autodesk.com"
 90
    34943
280
     0
281
     1
  0
CLASS
  1
WIPEOUTVARIABLES
  2
AcDbWipeoutVariables
  3
"WipeOut|Product Desc:     WipeOut Dbx Application|Company:          Autodesk, Inc.|WEB Address:      www.autodesk.com"
 90
    32768
280
     0
281
     0
  0
CLASS
  1
RTEXT
  2
RText
  3
RText|AutoCAD Express Tool|expresstools@autodesk.com
 90
    35839
280
     0
281
     1
  0
CLASS
  1
ARCALIGNEDTEXT
  2
AcDbArcAlignedText
  3
ATEXT|AutoCAD Express Tool|expresstools@autodesk.com
 90
    32768
280
     0
281
     1
  0
CLASS
  1
MATERIAL
  2
AcDbMaterial
  3
ObjectDBX Classes
 90
     1024
280
     0
281
     0
  0
CLASS
  1
VISUALSTYLE
  2
AcDbVisualStyle
  3
ObjectDBX Classes
 90
     4095
280
     0
281
     0
  0
CLASS
  1
TABLESTYLE
  2
AcDbTableStyle
  3
ObjectDBX Classes
 90
     4095
280
     0
281
     0
  0
CLASS
  1
DMMAPMANAGER
  2
AcMapDMMapManager
  3
AcMapDisplayManagement
 90
     1024
280
     0
281
     0
  0
CLASS
  1
DMSTYLELIBRARY
  2
AcMapDMStyleLibrary
  3
AcMapDisplayManagement
 90
     1024
280
     0
281
     0
  0
CLASS
  1
DMSTYLECATEGORY
  2
AcMapDMStyleCategory
  3
AcMapDisplayManagement
 90
     1024
280
     0
281
     0
  0
CLASS
  1
ACDBDATATABLE
  2
AcDbDataTable
  3
AcMapAnnotObj|Product Desc:     AutoCAD MAP DBX App for Annotation Entity|Company:          Autodesk,Inc.|WEB Address:      www.autodesk.com
 90
        0
280
     0
281
     0
  0
CLASS
  1
DMMAP
  2
AcMapDMMap
  3
AcMapDisplayManagement
 90
     1024
280
     0
281
     0
  0
CLASS
  1
DMBASEELEMENT
  2
AcMapDMBaseElement
  3
AcMapDisplayManagement
 90
     1024
280
     0
281
     0
  0
CLASS
  1
DMDEFAULTSTYLE
  2
AcMapDMDefaultStyle
  3
AcMapDisplayManagement
 90
     1024
280
     0
281
     0
  0
CLASS
  1
DMSTYLEREFERENCE
  2
AcMapDMStyleReference
  3
AcMapDisplayManagement
 90
     1024
280
     0
281
     0
  0
CLASS
  1
DMSURROGATESTYLESETS
  2
AcMapDMSurrogateStyleSets
  3
AcMapDisplayManagement
 90
     1153
280
     0
281
     0
  0
CLASS
  1
DMSTYLIZEDENTITIESTABLE
  2
AcMapDMStylizedEntitiesTable
  3
AcMapDisplayManagement
 90
     1024
280
     0
281
     0
  0
CLASS
  1
MAPGWSUNDOOBJECT
  2
AcMapGWSUndoRecorder
  3
AcMapFeatureSourceManager
 90
     1025
280
     0
281
     0
  0
ENDSEC
  0
SECTION
  2
TABLES
  0
TABLE
  2
VPORT
  5
157
330
0
100
AcDbSymbolTable
 70
     1
  0
VPORT
  5
16BF
330
157
100
AcDbSymbolTableRecord
100
AcDbViewportTableRecord
  2
*Active
 70
     0
 10
0.0
 20
0.0
 11
1.0
 21
1.0
 12
578.1499999999998
 22
208.782911464319
 13
0.0
 23
0.0
 14
1.0
 24
1.0
 15
0.0
 25
0.0
 16
0.0
 26
0.0
 36
1.0
 17
0.0
 27
0.0
 37
0.0
 40
747.7260212752311
 41
1.55400254129606
 42
50.0
 43
0.0
 44
0.0
 50
0.0
 51
0.0
 71
     0
 72
   100
 73
     1
 74
     1
 75
     0
 76
     0
 77
     0
 78
     0
281
     0
 65
     1
110
0.0
120
0.0
130
0.0
111
1.0
121
0.0
131
0.0
112
0.0
122
1.0
132
0.0
 79
     0
146
0.0
  0
ENDTAB
  0
TABLE
  2
LTYPE
  5
152
330
0
100
AcDbSymbolTable
 70
     1
  0
LTYPE
  5
153
330
152
100
AcDbSymbolTableRecord
100
AcDbLinetypeTableRecord
  2
BYBLOCK
 70
     0
  3

 72
    65
 73
     0
 40
0.0
  0
LTYPE
  5
154
330
152
100
AcDbSymbolTableRecord
100
AcDbLinetypeTableRecord
  2
BYLAYER
 70
     0
  3

 72
    65
 73
     0
 40
0.0
  0
LTYPE
  5
A
330
152
100
AcDbSymbolTableRecord
100
AcDbLinetypeTableRecord
  2
CONTINUOUS
 70
     0
  3
Solid line
 72
    65
 73
     0
 40
0.0
  0
ENDTAB
  0
TABLE
  2
LAYER
  5
14E
102
{ACAD_XDICTIONARY
360
18FA
102
}
330
0
100
AcDbSymbolTable
 70
     5
  0
LAYER
  5
6
330
14E
100
AcDbSymbolTableRecord
100
AcDbLayerTableRecord
  2
0
 70
     0
 62
     7
  6
CONTINUOUS
370
    -3
390
7
  0
LAYER
  5
C
330
14E
100
AcDbSymbolTableRecord
100
AcDbLayerTableRecord
  2
mechanical
 70
     0
 62
     6
  6
CONTINUOUS
370
    -3
390
7
  0
LAYER
  5
174
330
14E
100
AcDbSymbolTableRecord
100
AcDbLayerTableRecord
  2
copper
 70
     0
 62
     1
  6
CONTINUOUS
370
    -3
390
7
  0
LAYER
  5
41F
330
14E
100
AcDbSymbolTableRecord
100
AcDbLayerTableRecord
  2
Defpoints
 70
     0
 62
     7
  6
CONTINUOUS
290
     0
370
    -3
390
7
  0
LAYER
  5
794
330
14E
100
AcDbSymbolTableRecord
100
AcDbLayerTableRecord
  2
kapton
 70
     0
 62
     2
  6
CONTINUOUS
370
    -3
390
7
  0
ENDTAB
  0
TABLE
  2
STYLE
  5
14F
330
0
100
AcDbSymbolTable
 70
     1
  0
STYLE
  5
150
330
14F
100
AcDbSymbolTableRecord
100
AcDbTextStyleTableRecord
  2
STANDARD
 70
     0
 40
0.0
 41
1.0
 50
0.0
 71
     0
 42
0.2
  3
txt
  4

  0
ENDTAB
  0
TABLE
  2
VIEW
  5
155
330
0
100
AcDbSymbolTable
 70
     0
  0
ENDTAB
  0
TABLE
  2
UCS
  5
156
330
0
100
AcDbSymbolTable
 70
     0
  0
ENDTAB
  0
TABLE
  2
APPID
  5
159
330
0
100
AcDbSymbolTable
 70
     8
  0
APPID
  5
15A
330
159
100
AcDbSymbolTableRecord
100
AcDbRegAppTableRecord
  2
ACAD
 70
     0
  0
APPID
  5
189
330
159
100
AcDbSymbolTableRecord
100
AcDbRegAppTableRecord
  2
DCO15
 70
     0
  0
APPID
  5
16E2
330
159
100
AcDbSymbolTableRecord
100
AcDbRegAppTableRecord
  2
AcMapDMDisplayStyleRegapp
 70
     0
  0
APPID
  5
16E9
330
159
100
AcDbSymbolTableRecord
100
AcDbRegAppTableRecord
  2
ADE
 70
     0
  0
APPID
  5
16EC
330
159
100
AcDbSymbolTableRecord
100
AcDbRegAppTableRecord
  2
MapGWS
 70
     0
  0
APPID
  5
1738
330
159
100
AcDbSymbolTableRecord
100
AcDbRegAppTableRecord
  2
ACAD_PSEXT
 70
     0
  0
APPID
  5
18F8
330
159
100
AcDbSymbolTableRecord
100
AcDbRegAppTableRecord
  2
AcAecLayerStandard
 70
     0
  0
APPID
  5
3569
330
159
100
AcDbSymbolTableRecord
100
AcDbRegAppTableRecord
  2
ACAD_EXEMPT_FROM_CAD_STANDARDS
 70
     0
  0
ENDTAB
  0
TABLE
  2
DIMSTYLE
  5
15B
330
0
100
AcDbSymbolTable
 70
     1
100
AcDbDimStyleTable
 71
     1
340
15C
  0
DIMSTYLE
105
15C
330
15B
100
AcDbSymbolTableRecord
100
AcDbDimStyleTableRecord
  2
STANDARD
 70
     0
140
10.0
179
     5
340
150
  0
ENDTAB
  0
TABLE
  2
BLOCK_RECORD
  5
1
330
0
100
AcDbSymbolTable
 70
     0
  0
BLOCK_RECORD
  5
2
102
{ACAD_XDICTIONARY
360
3
102
}
330
1
100
AcDbSymbolTableRecord
100
AcDbBlockTableRecord
  2
*MODEL_SPACE
340
146
  0
BLOCK_RECORD
  5
148
102
{ACAD_XDICTIONARY
360
149
102
}
330
1
100
AcDbSymbolTableRecord
100
AcDbBlockTableRecord
  2
*PAPER_SPACE
340
14D
  0
ENDTAB
  0
ENDSEC
  0
SECTION
  2
BLOCKS
  0
BLOCK
  5
5
330
2
100
AcDbEntity
  8
0
100
AcDbBlockBegin
  2
*MODEL_SPACE
 70
     0
 10
0.0
 20
0.0
 30
0.0
  3
*MODEL_SPACE
  1

  0
ENDBLK
  5
145
330
2
100
AcDbEntity
  8
0
100
AcDbBlockEnd
  0
BLOCK
  5
14B
330
148
100
AcDbEntity
 67
     1
  8
0
100
AcDbBlockBegin
  2
*PAPER_SPACE
 70
     0
 10
0.0
 20
0.0
 30
0.0
  3
*PAPER_SPACE
  1

  0
ENDBLK
  5
14C
330
148
100
AcDbEntity
 67
     1
  8
0
100
AcDbBlockEnd
  0
ENDSEC
  0
SECTION
  2
ENTITIES
  0
LWPOLYLINE
  5
2CAD
330
2
100
AcDbEntity
  8
mechanical
  6
Continuous
100
AcDbPolyline
 90
        2
 70
   128
 43
0.25
 10
972.1921412540067
 20
10.00000000000045
 42
0.3846436892416937
 10
184.1078587459924
 20
10.00000000000045
  0
LWPOLYLINE
  5
2CAE
330
2
100
AcDbEntity
  8
mechanical
  6
Continuous
100
AcDbPolyline
 90
        2
 70
   128
 43
0.25
 10
1146.3
 20
184.1078587459928
 42
0.3933080422118196
 10
10.0
 20
184.1078587459928
  0
LWPOLYLINE
  5
2CAF
330
2
100
AcDbEntity
  8
mechanical
  6
Continuous
100
AcDbPolyline
 90
        2
 70
   128
 43
0.25
 10
10.0
 20
184.1078587459928
 10
184.1078587459924
 20
10.0
  0
LWPOLYLINE
  5
2CB0
330
2
100
AcDbEntity
  8
mechanical
  6
Continuous
100
AcDbPolyline
 90
        2
 70
   128
 43
0.25
 10
10.0
 20
184.1078587459928
 10
184.1078587459924
 20
10.0
  0
LWPOLYLINE
  5
2CB1
330
2
100
AcDbEntity
  8
mechanical
  6
Continuous
100
AcDbPolyline
 90
        2
 70
   128
 43
0.25
 10
10.0
 20
184.1078587459928
 10
184.1078587459924
 20
10.0
  0
LWPOLYLINE
  5
2CB2
330
2
100
AcDbEntity
  8
mechanical
  6
Continuous
100
AcDbPolyline
 90
        2
 70
   128
 43
0.25
 10
1146.3
 20
184.1078587459928
 10
972.1921412540067
 20
10.0
  0
LWPOLYLINE
  5
2CB3
330
2
100
AcDbEntity
  8
mechanical
  6
Continuous
100
AcDbPolyline
 90
        2
 70
   129
 43
0.25
 10
375.6499999999996
 20
209.0
 42
0.9999999999999998
 10
361.6499999999996
 20
209.0
 42
0.9999999999999998
  0
LWPOLYLINE
  5
2CB4
330
2
100
AcDbEntity
  8
mechanical
  6
Continuous
100
AcDbPolyline
 90
        2
 70
   129
 43
0.125
 10
1146.2375
 20
184.1078587459928
 42
1.0
 10
1146.362499999999
 20
184.1078587459928
 42
1.0
  0
LWPOLYLINE
  5
2CB5
330
2
100
AcDbEntity
  8
mechanical
  6
Continuous
100
AcDbPolyline
 90
        2
 70
   129
 43
0.125
 10
972.1296412540068
 20
10.0
 42
1.0
 10
972.2546412540069
 20
10.0
 42
1.0
  0
LWPOLYLINE
  5
2CB6
330
2
100
AcDbEntity
  8
mechanical
  6
Continuous
100
AcDbPolyline
 90
        2
 70
   129
 43
0.125
 10
184.0453587459924
 20
10.00000000000045
 42
1.0
 10
184.1703587459924
 20
10.00000000000045
 42
1.0
  0
LWPOLYLINE
  5
2CB7
330
2
100
AcDbEntity
  8
mechanical
  6
Continuous
100
AcDbPolyline
 90
        2
 70
   129
 43
0.125
 10
9.9375
 20
184.1078587459928
 42
1.0
 10
10.0625
 20
184.1078587459928
 42
1.0
  0
LWPOLYLINE
  5
2CB8
330
2
100
AcDbEntity
  8
mechanical
100
AcDbPolyline
 90
        3
 70
   128
 43
0.25
 10
12.82842712474576
 20
184.1078587459933
 10
17.29786983705708
 20
186.7094746531593
 10
14.6962539298911
 20
182.240031940848
  0
LWPOLYLINE
  5
2CB9
330
2
100
AcDbEntity
  8
mechanical
100
AcDbPolyline
 90
        2
 70
   128
 43
0.25
 10
14.29013165958986
 20
184.958701684186
 10
15.54709686808382
 20
183.7017364756921
  0
LWPOLYLINE
  5
2CBB
330
2
100
AcDbEntity
  8
mechanical
  6
Continuous
100
AcDbPolyline
 90
        2
 70
   129
 43
0.25
 10
349.6499999999997
 20
293.0
 42
0.9999999999999998
 10
335.6499999999996
 20
293.0
 42
0.9999999999999998
  0
LWPOLYLINE
  5
2CBC
330
2
100
AcDbEntity
  8
mechanical
  6
Continuous
100
AcDbPolyline
 90
        2
 70
   129
 43
0.25
 10
780.6499999999996
 20
209.0
 42
-0.9999999999999998
 10
794.6499999999996
 20
209.0
 42
-0.9999999999999998
  0
LWPOLYLINE
  5
2CBD
330
2
100
AcDbEntity
  8
mechanical
  6
Continuous
100
AcDbPolyline
 90
        2
 70
   129
 43
0.25
 10
806.6499999999996
 20
293.0
 42
-0.9999999999999998
 10
820.6499999999996
 20
293.0
 42
-0.9999999999999998
  0
LWPOLYLINE
  5
2D43
330
2
100
AcDbEntity
  8
copper
  6
Continuous
100
AcDbPolyline
 90
        2
 70
   129
 43
2.25
 10
574.0249999999996
 20
402.8103881281931
 42
1.0
 10
576.2749999999996
 20
402.8103881281931
 42
1.0
  0
LWPOLYLINE
  5
2D44
330
2
100
AcDbEntity
  8
copper
  6
Continuous
100
AcDbPolyline
 90
        2
 70
   129
 43
2.25
 10
574.0249999999996
 20
400.3103881281931
 42
1.0
 10
576.2749999999996
 20
400.3103881281931
 42
1.0
  0
LWPOLYLINE
  5
2D45
330
2
100
AcDbEntity
  8
copper
  6
Continuous
100
AcDbPolyline
 90
        2
 70
   128
 43
4.5
 10
575.1499999999996
 20
402.8103881281931
 10
575.1499999999996
 20
400.3103881281931
  0
LWPOLYLINE
  5
2D46
330
2
100
AcDbEntity
  8
copper
  6
Continuous
100
AcDbPolyline
 90
        2
 70
   129
 43
2.25
 10
568.0249999999996
 20
402.7669084403369
 42
1.0
 10
570.2749999999996
 20
402.7669084403369
 42
1.0
  0
LWPOLYLINE
  5
2D47
330
2
100
AcDbEntity
  8
copper
  6
Continuous
100
AcDbPolyline
 90
        2
 70
   129
 43
2.25
 10
568.0249999999996
 20
400.2669084403369
 42
1.0
 10
570.2749999999996
 20
400.2669084403369
 42
1.0
  0
LWPOLYLINE
  5
2D48
330
2
100
AcDbEntity
  8
copper
  6
Continuous
100
AcDbPolyline
 90
        2
 70
   128
 43
4.5
 10
569.1499999999996
 20
402.7669084403369
 10
569.1499999999996
 20
400.2669084403369
  0
LWPOLYLINE
  5
2D49
330
2
100
AcDbEntity
  8
copper
  6
Continuous
100
AcDbPolyline
 90
        2
 70
   129
 43
2.25
 10
562.0249999999996
 20
402.6799422139228
 42
1.0
 10
564.2749999999996
 20
402.6799422139228
 42
1.0
  0
LWPOLYLINE
  5
2D4A
330
2
100
AcDbEntity
  8
copper
  6
Continuous
100
AcDbPolyline
 90
        2
 70
   129
 43
2.25
 10
562.0249999999996
 20
399.6799422139229
 42
1.0
 10
564.2749999999996
 20
399.6799422139229
 42
1.0
  0
LWPOLYLINE
  5
2D4B
330
2
100
AcDbEntity
  8
copper
  6
Continuous
100
AcDbPolyline
 90
        2
 70
   128
 43
4.5
 10
563.1499999999996
 20
402.6799422139228
 10
563.1499999999996
 20
399.6799422139229
  0
LWPOLYLINE
  5
2D4C
330
2
100
AcDbEntity
  8
copper
  6
Continuous
100
AcDbPolyline
 90
        2
 70
   129
 43
2.25
 10
557.1499999999996
 20
403.6744757421506
 42
1.0
 10
557.1499999999996
 20
401.4244757421506
 42
1.0
  0
LWPOLYLINE
  5
2D4D
330
2
100
AcDbEntity
  8
copper
  6
Continuous
100
AcDbPolyline
 90
        2
 70
   129
 43
2.25
 10
554.6499999999996
 20
403.6744757421506
 42
1.0
 10
554.6499999999996
 20
401.4244757421506
 42
1.0
  0
LWPOLYLINE
  5
2D4E
330
2
100
AcDbEntity
  8
copper
  6
Continuous
100
AcDbPolyline
 90
        2
 70
   128
 43
4.5
 10
557.1499999999996
 20
402.5494757421506
 10
554.6499999999996
 20
402.5494757421506
  0
LWPOLYLINE
  5
2D4F
330
2
100
AcDbEntity
  8
copper
  6
Continuous
100
AcDbPolyline
 90
        4
 70
   128
 10
571.7092123841939
 20
226.180040955559
 40
0.5
 41
0.5
 42
0.4113259762827774
 10
577.6499999999996
 20
232.1797487729082
 40
0.5
 41
0.5
 10
577.6499999999996
 20
394.2748542222603
 40
0.5
 41
0.5
 42
0.1989123673796574
 10
575.1499999999996
 20
400.3103881281931
 40
0.0
 41
0.0
  0
LWPOLYLINE
  5
2D7A
330
2
100
AcDbEntity
  8
copper
  6
Continuous
100
AcDbPolyline
 90
        4
 70
   128
 10
571.6993436534949
 20
227.1799922584505
 40
0.5
 41
0.5
 42
0.4113259762827774
 10
576.6499999999996
 20
232.1797487729082
 40
0.5
 41
0.5
 10
576.6499999999996
 20
388.494266611956
 40
0.5
 41
0.5
 42
0.2914734195860881
 10
569.1499999999996
 20
400.2669084403369
 40
0.0
 41
0.0
  0
LWPOLYLINE
  5
2D91
330
2
100
AcDbEntity
  8
copper
100
AcDbPolyline
 90
        2
 70
   128
 43
0.5
 10
571.6993436534949
 20
227.1799922584505
 42
0.0373940479043851
 10
474.4153497368301
 20
218.9279039736739
 42
0.0373940479043851
  0
LWPOLYLINE
  5
2D92
330
2
100
AcDbEntity
  8
copper
100
AcDbPolyline
 90
        2
 70
   128
 43
0.5
 10
571.7092123841939
 20
226.180040955559
 42
0.0373062883894825
 10
474.7999426179226
 20
217.9768462321836
 42
0.0373062883894825
  0
LWPOLYLINE
  5
2DCF
330
2
100
AcDbEntity
  8
copper
100
AcDbPolyline
 90
        2
 70
   128
 43
0.5
 10
577.0896891671136
 20
399.8229397360724
 42
0.1439278700963342
 10
577.2015865830167
 20
397.0050229453505
  0
LWPOLYLINE
  5
2DD0
330
2
100
AcDbEntity
  8
copper
100
AcDbPolyline
 90
        2
 70
   128
 43
0.5
 10
577.2238297128933
 20
396.9382281646472
 42
0.3360847324527215
 10
575.2368438113076
 20
398.3122744796647
  0
LWPOLYLINE
  5
2DD1
330
2
100
AcDbEntity
  8
copper
100
AcDbPolyline
 90
        2
 70
   128
 43
0.5
 10
571.1157847701356
 20
400.6352699984581
 42
0.1581394831193099
 10
572.5921853954246
 20
397.9257834881587
  0
LWPOLYLINE
  5
2DD2
330
2
100
AcDbEntity
  8
copper
100
AcDbPolyline
 90
        2
 70
   128
 43
0.5
 10
572.8812349185331
 20
397.6433901828818
 42
0.2863047326809761
 10
569.7906565488255
 20
398.3722952380063
  0
LWPOLYLINE
  5
2DD3
330
2
100
AcDbEntity
  8
copper
100
AcDbPolyline
 90
        2
 70
   128
 43
0.5
 10
570.3350389790139
 20
398.8763718273212
 10
571.464841806579
 20
398.8763718273212
  0
LWPOLYLINE
  5
2DD4
330
2
100
AcDbEntity
  8
copper
100
AcDbPolyline
 90
        2
 70
   128
 43
0.5
 10
571.2342735310885
 20
399.6484410573048
 10
571.2342735310885
 20
399.0492234818421
  0
LWPOLYLINE
  5
2DD5
330
2
100
AcDbEntity
  8
copper
100
AcDbPolyline
 90
        2
 70
   128
 43
0.5
 10
576.3183688478402
 20
398.1388818895093
 10
576.3183688478402
 20
398.6343839916253
  0
LWPOLYLINE
  5
2DD6
330
2
100
AcDbEntity
  8
copper
  6
Continuous
100
AcDbPolyline
 90
        2
 70
   128
 43
0.5
 10
469.8840658955551
 20
216.8142657005542
 42
0.0009581548465543
 10
467.4195413897236
 20
216.3946004051609
  0
LWPOLYLINE
  5
2DD7
330
2
100
AcDbEntity
  8
copper
  6
Continuous
100
AcDbPolyline
 90
        2
 70
   128
 43
0.5
 10
470.693067655573
 20
215.1249033780759
 42
0.0011529678845086
 10
467.7354341591176
 20
214.6225050295052
  0
LWPOLYLINE
  5
2DD8
330
2
100
AcDbEntity
  8
copper
100
AcDbPolyline
 90
        2
 70
   128
 43
1.199999999999999
 10
463.6765882499239
 20
215.7386264778861
 10
467.4195413897236
 20
216.3946004051609
  0
LWPOLYLINE
  5
2DD9
330
2
100
AcDbEntity
  8
copper
100
AcDbPolyline
 90
        2
 70
   128
 43
1.199999999999999
 10
463.9924757322178
 20
213.9665612706972
 10
467.735434159089
 20
214.6225050295002
  0
LWPOLYLINE
  5
2DDA
330
2
100
AcDbEntity
  8
copper
100
AcDbPolyline
 90
        2
 70
   129
 43
0.6
 10
463.4012618622464
 20
215.8577708450812
 42
1.0
 10
463.9519146376569
 20
215.619482110701
 42
1.0
  0
LWPOLYLINE
  5
2DDB
330
2
100
AcDbEntity
  8
copper
100
AcDbPolyline
 90
        2
 70
   129
 43
0.6
 10
463.7171493445261
 20
214.0857056378895
 42
1.0
 10
464.2678021199367
 20
213.8474169035089
 42
1.0
  0
LWPOLYLINE
  5
2DDC
330
2
100
AcDbEntity
  8
copper
100
AcDbPolyline
 90
        2
 70
   129
 43
0.6
 10
467.4601077713837
 20
214.7416493966912
 42
1.0
 10
468.0107605467942
 20
214.5033606623106
 42
1.0
  0
LWPOLYLINE
  5
2DDD
330
2
100
AcDbEntity
  8
copper
100
AcDbPolyline
 90
        2
 70
   129
 43
0.6
 10
467.1442150020184
 20
216.5137447723519
 42
1.0
 10
467.6948677774289
 20
216.2754560379712
 42
1.0
  0
LWPOLYLINE
  5
2DDE
330
2
100
AcDbEntity
  8
copper
100
AcDbPolyline
 90
        2
 70
   128
 43
0.5
 10
469.8840658955551
 20
216.8142657005542
 10
474.4153497368347
 20
218.9279039736762
  0
LWPOLYLINE
  5
2DDF
330
2
100
AcDbEntity
  8
copper
100
AcDbPolyline
 90
        2
 70
   128
 43
0.5
 10
474.7999426179258
 20
217.9768462321858
 10
470.693067655573
 20
215.1249033780759
  0
LWPOLYLINE
  5
2DE0
330
2
100
AcDbEntity
  8
copper
100
AcDbPolyline
 90
        2
 70
   129
 43
0.25
 10
470.5783483273626
 20
215.1745468644058
 42
1.0
 10
470.8077869837834
 20
215.0752598917466
 42
1.0
  0
LWPOLYLINE
  5
2DE1
330
2
100
AcDbEntity
  8
copper
100
AcDbPolyline
 90
        2
 70
   129
 43
0.25
 10
474.6852232897153
 20
218.0264897185152
 42
1.0
 10
474.9146619461362
 20
217.927202745856
 42
1.0
  0
LWPOLYLINE
  5
2DE2
330
2
100
AcDbEntity
  8
copper
100
AcDbPolyline
 90
        2
 70
   129
 43
0.25
 10
474.3006304086239
 20
218.9775474600051
 42
1.0
 10
474.5300690650451
 20
218.8782604873463
 42
1.0
  0
LWPOLYLINE
  5
2DE3
330
2
100
AcDbEntity
  8
copper
100
AcDbPolyline
 90
        2
 70
   129
 43
0.25
 10
469.7693465673446
 20
216.863909186884
 42
1.0
 10
469.9987852237654
 20
216.7646222142248
 42
1.0
  0
LWPOLYLINE
  5
2E6B
330
2
100
AcDbEntity
  8
copper
  6
Continuous
100
AcDbPolyline
 90
        2
 70
   129
 43
2.25
 10
582.2749999999996
 20
402.810388128193
 42
-1.0
 10
580.0249999999996
 20
402.810388128193
 42
-1.0
  0
LWPOLYLINE
  5
2E6C
330
2
100
AcDbEntity
  8
copper
  6
Continuous
100
AcDbPolyline
 90
        2
 70
   129
 43
2.25
 10
582.2749999999996
 20
400.310388128193
 42
-1.0
 10
580.0249999999996
 20
400.310388128193
 42
-1.0
  0
LWPOLYLINE
  5
2E6D
330
2
100
AcDbEntity
  8
copper
  6
Continuous
100
AcDbPolyline
 90
        2
 70
   128
 43
4.5
 10
581.1499999999996
 20
402.810388128193
 10
581.1499999999996
 20
400.310388128193
  0
LWPOLYLINE
  5
2E6E
330
2
100
AcDbEntity
  8
copper
  6
Continuous
100
AcDbPolyline
 90
        2
 70
   129
 43
2.25
 10
588.2749999999996
 20
402.7669084403368
 42
-1.0
 10
586.0249999999996
 20
402.7669084403368
 42
-1.0
  0
LWPOLYLINE
  5
2E6F
330
2
100
AcDbEntity
  8
copper
  6
Continuous
100
AcDbPolyline
 90
        2
 70
   129
 43
2.25
 10
588.2749999999996
 20
400.2669084403367
 42
-1.0
 10
586.0249999999996
 20
400.2669084403367
 42
-1.0
  0
LWPOLYLINE
  5
2E70
330
2
100
AcDbEntity
  8
copper
  6
Continuous
100
AcDbPolyline
 90
        2
 70
   128
 43
4.5
 10
587.1499999999996
 20
402.7669084403368
 10
587.1499999999996
 20
400.2669084403367
  0
LWPOLYLINE
  5
2E71
330
2
100
AcDbEntity
  8
copper
  6
Continuous
100
AcDbPolyline
 90
        2
 70
   129
 43
2.25
 10
594.2749999999996
 20
402.6799422139228
 42
-1.0
 10
592.0249999999996
 20
402.6799422139228
 42
-1.0
  0
LWPOLYLINE
  5
2E72
330
2
100
AcDbEntity
  8
copper
  6
Continuous
100
AcDbPolyline
 90
        2
 70
   129
 43
2.25
 10
594.2749999999996
 20
399.6799422139228
 42
-1.0
 10
592.0249999999996
 20
399.6799422139228
 42
-1.0
  0
LWPOLYLINE
  5
2E73
330
2
100
AcDbEntity
  8
copper
  6
Continuous
100
AcDbPolyline
 90
        2
 70
   128
 43
4.5
 10
593.1499999999996
 20
402.6799422139228
 10
593.1499999999996
 20
399.6799422139228
  0
LWPOLYLINE
  5
2E74
330
2
100
AcDbEntity
  8
copper
  6
Continuous
100
AcDbPolyline
 90
        2
 70
   129
 43
2.25
 10
599.1499999999996
 20
403.6744757421505
 42
-1.0
 10
599.1499999999996
 20
401.4244757421505
 42
-1.0
  0
LWPOLYLINE
  5
2E75
330
2
100
AcDbEntity
  8
copper
  6
Continuous
100
AcDbPolyline
 90
        2
 70
   129
 43
2.25
 10
601.6499999999996
 20
403.6744757421505
 42
-1.0
 10
601.6499999999996
 20
401.4244757421505
 42
-1.0
  0
LWPOLYLINE
  5
2E76
330
2
100
AcDbEntity
  8
copper
  6
Continuous
100
AcDbPolyline
 90
        2
 70
   128
 43
4.5
 10
599.1499999999996
 20
402.5494757421505
 10
601.6499999999996
 20
402.5494757421505
  0
LWPOLYLINE
  5
2E77
330
2
100
AcDbEntity
  8
copper
  6
Continuous
100
AcDbPolyline
 90
        4
 70
   128
 10
584.5907876158053
 20
226.1800409555589
 40
0.5
 41
0.5
 42
-0.4113259762827774
 10
578.6499999999996
 20
232.1797487729078
 40
0.5
 41
0.5
 10
578.6499999999996
 20
394.2748542222602
 40
0.5
 41
0.5
 42
-0.1989123673796574
 10
581.1499999999996
 20
400.310388128193
 40
0.0
 41
0.0
  0
LWPOLYLINE
  5
2EA2
330
2
100
AcDbEntity
  8
copper
  6
Continuous
100
AcDbPolyline
 90
        4
 70
   128
 10
584.6006563465043
 20
227.1799922584504
 40
0.5
 41
0.5
 42
-0.4113259762827774
 10
579.6499999999996
 20
232.1797487729078
 40
0.5
 41
0.5
 10
579.6499999999996
 20
388.4942666119558
 40
0.5
 41
0.5
 42
-0.2914734195860881
 10
587.1499999999996
 20
400.2669084403367
 40
0.0
 41
0.0
  0
LWPOLYLINE
  5
2EB3
330
2
100
AcDbEntity
  8
copper
100
AcDbPolyline
 90
        2
 70
   128
 43
0.5
 10
584.6006563465043
 20
227.1799922584504
 42
-0.1071608595720659
 10
854.7187898865173
 20
165.8181321488795
 42
-0.1071608595720659
  0
LWPOLYLINE
  5
2EB4
330
2
100
AcDbEntity
  8
copper
100
AcDbPolyline
 90
        2
 70
   128
 43
0.5
 10
584.5907876158053
 20
226.1800409555589
 42
-0.1070722167684625
 10
854.0883599896361
 20
165.0088233963341
 42
-0.1070722167684625
  0
LWPOLYLINE
  5
2F59
330
2
100
AcDbEntity
  8
copper
100
AcDbPolyline
 90
        2
 70
   128
 43
0.5
 10
579.2103108328856
 20
399.8229397360723
 42
-0.1439278700963342
 10
579.098413416983
 20
397.0050229453503
  0
LWPOLYLINE
  5
2F5A
330
2
100
AcDbEntity
  8
copper
100
AcDbPolyline
 90
        2
 70
   128
 43
0.5
 10
579.0761702871058
 20
396.9382281646471
 42
-0.3360847324527215
 10
581.0631561886911
 20
398.3122744796643
  0
LWPOLYLINE
  5
2F5B
330
2
100
AcDbEntity
  8
copper
100
AcDbPolyline
 90
        2
 70
   128
 43
0.5
 10
585.1842152298636
 20
400.635269998458
 42
-0.1581394831193099
 10
583.7078146045747
 20
397.9257834881586
  0
LWPOLYLINE
  5
2F5C
330
2
100
AcDbEntity
  8
copper
100
AcDbPolyline
 90
        2
 70
   128
 43
0.5
 10
583.418765081466
 20
397.6433901828817
 42
-0.2863047326809761
 10
586.5093434511736
 20
398.3722952380061
  0
LWPOLYLINE
  5
2F5D
330
2
100
AcDbEntity
  8
copper
100
AcDbPolyline
 90
        2
 70
   128
 43
0.5
 10
585.9649610209853
 20
398.8763718273211
 10
584.8351581934203
 20
398.8763718273211
  0
LWPOLYLINE
  5
2F5E
330
2
100
AcDbEntity
  8
copper
100
AcDbPolyline
 90
        2
 70
   128
 43
0.5
 10
585.0657264689107
 20
399.6484410573047
 10
585.0657264689107
 20
399.049223481842
  0
LWPOLYLINE
  5
2F5F
330
2
100
AcDbEntity
  8
copper
100
AcDbPolyline
 90
        2
 70
   128
 43
0.5
 10
579.981631152159
 20
398.1388818895092
 10
579.981631152159
 20
398.6343839916252
  0
LWPOLYLINE
  5
2F60
330
2
100
AcDbEntity
  8
copper
  6
Continuous
100
AcDbPolyline
 90
        2
 70
   128
 43
0.5
 10
858.4976620520919
 20
162.5439719273212
 42
-0.0009581548465543
 10
860.7529259013077
 20
161.4651832684916
  0
LWPOLYLINE
  5
2F61
330
2
100
AcDbEntity
  8
copper
  6
Continuous
100
AcDbPolyline
 90
        2
 70
   128
 43
0.5
 10
857.2567952580298
 20
161.1408758850933
 42
-0.0011529678845086
 10
859.9636369110308
 20
159.8474276775563
  0
LWPOLYLINE
  5
2F62
330
2
100
AcDbEntity
  8
copper
100
AcDbPolyline
 90
        2
 70
   128
 43
1.199999999999999
 10
864.1729684509609
 20
159.8088895268619
 10
860.752925901308
 20
161.4651832684916
  0
LWPOLYLINE
  5
2F63
330
2
100
AcDbEntity
  8
copper
100
AcDbPolyline
 90
        2
 70
   128
 43
1.199999999999999
 10
863.3836928104365
 20
158.1911615017373
 10
859.9636369110571
 20
159.8474276775436
  0
LWPOLYLINE
  5
2F64
330
2
100
AcDbEntity
  8
copper
100
AcDbPolyline
 90
        2
 70
   129
 43
0.6
 10
864.4704019093483
 20
159.8480473845401
 42
-1.0
 10
863.875534992524
 20
159.7697316692082
 42
-1.0
  0
LWPOLYLINE
  5
2F65
330
2
100
AcDbEntity
  8
copper
100
AcDbPolyline
 90
        2
 70
   129
 43
0.6
 10
863.6811262688361
 20
158.2303193594092
 42
-1.0
 10
863.0862593520115
 20
158.1520036440773
 42
-1.0
  0
LWPOLYLINE
  5
2F66
330
2
100
AcDbEntity
  8
copper
100
AcDbPolyline
 90
        2
 70
   129
 43
0.6
 10
860.261070369469
 20
159.8865855352095
 42
-1.0
 10
859.6662034526453
 20
159.8082698198776
 42
-1.0
  0
LWPOLYLINE
  5
2F67
330
2
100
AcDbEntity
  8
copper
100
AcDbPolyline
 90
        2
 70
   129
 43
0.6
 10
861.0503593597199
 20
161.5043411261575
 42
-1.0
 10
860.4554924428958
 20
161.4260254108256
 42
-1.0
  0
LWPOLYLINE
  5
2F68
330
2
100
AcDbEntity
  8
copper
100
AcDbPolyline
 90
        2
 70
   128
 43
0.5
 10
858.4976620520919
 20
162.5439719273212
 10
854.7187898865431
 20
165.8181321488572
  0
LWPOLYLINE
  5
2F69
330
2
100
AcDbEntity
  8
copper
100
AcDbPolyline
 90
        2
 70
   128
 43
0.5
 10
854.0883599896492
 20
165.0088233963182
 10
857.2567952580298
 20
161.1408758850933
  0
LWPOLYLINE
  5
2F6A
330
2
100
AcDbEntity
  8
copper
100
AcDbPolyline
 90
        2
 70
   129
 43
0.25
 10
857.3807258657016
 20
161.1571916591209
 42
-1.0
 10
857.132864650358
 20
161.1245601110657
 42
-1.0
  0
LWPOLYLINE
  5
2F6B
330
2
100
AcDbEntity
  8
copper
100
AcDbPolyline
 90
        2
 70
   129
 43
0.25
 10
854.212290597321
 20
165.0251391703454
 42
-1.0
 10
853.9644293819774
 20
164.9925076222902
 42
-1.0
  0
LWPOLYLINE
  5
2F6C
330
2
100
AcDbEntity
  8
copper
100
AcDbPolyline
 90
        2
 70
   129
 43
0.25
 10
854.842720494215
 20
165.8344479228848
 42
-1.0
 10
854.5948592788718
 20
165.8018163748296
 42
-1.0
  0
LWPOLYLINE
  5
2F6D
330
2
100
AcDbEntity
  8
copper
100
AcDbPolyline
 90
        2
 70
   129
 43
0.25
 10
858.6215926597633
 20
162.5602877013488
 42
-1.0
 10
858.3737314444197
 20
162.527656153294
 42
-1.0
  0
LWPOLYLINE
  5
384F
330
2
100
AcDbEntity
  8
mechanical
100
AcDbPolyline
 90
        3
 70
   128
 43
0.25
 10
15.64642866711051
 20
181.2898572036285
 10
20.37520526629555
 20
183.632148416309
 10
18.71792374788958
 20
185.2894299347149
  0
LWPOLYLINE
  5
3870
330
2
100
AcDbEntity
  8
mechanical
  6
Continuous
100
AcDbPolyline
 90
        2
 70
   128
 43
2.0
 10
0.0
 20
416.5658229286379
 10
2.0
 20
416.5658229286379
  0
LWPOLYLINE
  5
3871
330
2
100
AcDbEntity
  8
mechanical
  6
Continuous
100
AcDbPolyline
 90
        2
 70
   128
 43
2.0
 10
0.0
 20
1.0
 10
2.0
 20
1.0
  0
LWPOLYLINE
  5
3872
330
2
100
AcDbEntity
  8
mechanical
  6
Continuous
100
AcDbPolyline
 90
        2
 70
   128
 43
2.0
 10
100.0
 20
416.5658229286379
 10
102.0
 20
416.5658229286379
  0
LWPOLYLINE
  5
3873
330
2
100
AcDbEntity
  8
mechanical
  6
Continuous
100
AcDbPolyline
 90
        2
 70
   128
 43
2.0
 10
100.0
 20
1.0
 10
102.0
 20
1.0
  0
LWPOLYLINE
  5
3874
330
2
100
AcDbEntity
  8
mechanical
  6
Continuous
100
AcDbPolyline
 90
        2
 70
   128
 43
2.0
 10
200.0
 20
416.5658229286379
 10
202.0
 20
416.5658229286379
  0
LWPOLYLINE
  5
3875
330
2
100
AcDbEntity
  8
mechanical
  6
Continuous
100
AcDbPolyline
 90
        2
 70
   128
 43
2.0
 10
200.0
 20
1.0
 10
202.0
 20
1.0
  0
LWPOLYLINE
  5
3876
330
2
100
AcDbEntity
  8
mechanical
  6
Continuous
100
AcDbPolyline
 90
        2
 70
   128
 43
2.0
 10
300.0
 20
416.5658229286379
 10
302.0
 20
416.5658229286379
  0
LWPOLYLINE
  5
3877
330
2
100
AcDbEntity
  8
mechanical
  6
Continuous
100
AcDbPolyline
 90
        2
 70
   128
 43
2.0
 10
300.0
 20
1.0
 10
302.0
 20
1.0
  0
LWPOLYLINE
  5
3878
330
2
100
AcDbEntity
  8
mechanical
  6
Continuous
100
AcDbPolyline
 90
        2
 70
   128
 43
2.0
 10
400.0
 20
416.5658229286379
 10
402.0
 20
416.5658229286379
  0
LWPOLYLINE
  5
3879
330
2
100
AcDbEntity
  8
mechanical
  6
Continuous
100
AcDbPolyline
 90
        2
 70
   128
 43
2.0
 10
400.0
 20
1.0
 10
402.0
 20
1.0
  0
LWPOLYLINE
  5
387A
330
2
100
AcDbEntity
  8
mechanical
  6
Continuous
100
AcDbPolyline
 90
        2
 70
   128
 43
2.0
 10
500.0
 20
416.5658229286379
 10
502.0
 20
416.5658229286379
  0
LWPOLYLINE
  5
387B
330
2
100
AcDbEntity
  8
mechanical
  6
Continuous
100
AcDbPolyline
 90
        2
 70
   128
 43
2.0
 10
500.0
 20
1.0
 10
502.0
 20
1.0
  0
LWPOLYLINE
  5
387C
330
2
100
AcDbEntity
  8
mechanical
  6
Continuous
100
AcDbPolyline
 90
        2
 70
   128
 43
2.0
 10
600.0
 20
416.5658229286379
 10
602.0
 20
416.5658229286379
  0
LWPOLYLINE
  5
387D
330
2
100
AcDbEntity
  8
mechanical
  6
Continuous
100
AcDbPolyline
 90
        2
 70
   128
 43
2.0
 10
600.0
 20
1.0
 10
602.0
 20
1.0
  0
LWPOLYLINE
  5
387E
330
2
100
AcDbEntity
  8
mechanical
  6
Continuous
100
AcDbPolyline
 90
        2
 70
   128
 43
2.0
 10
700.0
 20
416.5658229286379
 10
702.0
 20
416.5658229286379
  0
LWPOLYLINE
  5
387F
330
2
100
AcDbEntity
  8
mechanical
  6
Continuous
100
AcDbPolyline
 90
        2
 70
   128
 43
2.0
 10
700.0
 20
1.0
 10
702.0
 20
1.0
  0
LWPOLYLINE
  5
3880
330
2
100
AcDbEntity
  8
mechanical
  6
Continuous
100
AcDbPolyline
 90
        2
 70
   128
 43
2.0
 10
800.0
 20
416.5658229286379
 10
802.0
 20
416.5658229286379
  0
LWPOLYLINE
  5
3881
330
2
100
AcDbEntity
  8
mechanical
  6
Continuous
100
AcDbPolyline
 90
        2
 70
   128
 43
2.0
 10
800.0
 20
1.0
 10
802.0
 20
1.0
  0
LWPOLYLINE
  5
3882
330
2
100
AcDbEntity
  8
mechanical
  6
Continuous
100
AcDbPolyline
 90
        2
 70
   128
 43
2.0
 10
900.0
 20
416.5658229286379
 10
902.0
 20
416.5658229286379
  0
LWPOLYLINE
  5
3883
330
2
100
AcDbEntity
  8
mechanical
  6
Continuous
100
AcDbPolyline
 90
        2
 70
   128
 43
2.0
 10
900.0
 20
1.0
 10
902.0
 20
1.0
  0
LWPOLYLINE
  5
3884
330
2
100
AcDbEntity
  8
mechanical
  6
Continuous
100
AcDbPolyline
 90
        2
 70
   128
 43
2.0
 10
1000.0
 20
416.5658229286379
 10
1002.0
 20
416.5658229286379
  0
LWPOLYLINE
  5
3885
330
2
100
AcDbEntity
  8
mechanical
  6
Continuous
100
AcDbPolyline
 90
        2
 70
   128
 43
2.0
 10
1000.0
 20
1.0
 10
1002.0
 20
1.0
  0
LWPOLYLINE
  5
3886
330
2
100
AcDbEntity
  8
mechanical
  6
Continuous
100
AcDbPolyline
 90
        2
 70
   128
 43
2.0
 10
1100.0
 20
416.5658229286379
 10
1102.0
 20
416.5658229286379
  0
LWPOLYLINE
  5
3887
330
2
100
AcDbEntity
  8
mechanical
  6
Continuous
100
AcDbPolyline
 90
        2
 70
   128
 43
2.0
 10
1100.0
 20
1.0
 10
1102.0
 20
1.0
  0
LWPOLYLINE
  5
3888
330
2
100
AcDbEntity
  8
mechanical
  6
Continuous
100
AcDbPolyline
 90
        2
 70
   128
 43
2.0
 10
1154.3
 20
416.5658229286379
 10
1156.299999999999
 20
416.5658229286379
  0
LWPOLYLINE
  5
3889
330
2
100
AcDbEntity
  8
mechanical
  6
Continuous
100
AcDbPolyline
 90
        2
 70
   128
 43
2.0
 10
1154.3
 20
1.0
 10
1156.299999999999
 20
1.0
  0
LWPOLYLINE
  5
38A0
330
2
100
AcDbEntity
  8
kapton
  6
Continuous
100
AcDbPolyline
 90
        2
 70
   128
 43
0.25
 10
972.1921412540067
 20
10.00000000000045
 42
0.3846436892416937
 10
184.1078587459924
 20
10.00000000000045
  0
LWPOLYLINE
  5
38A1
330
2
100
AcDbEntity
  8
kapton
  6
Continuous
100
AcDbPolyline
 90
        2
 70
   128
 43
0.25
 10
1146.3
 20
184.1078587459928
 42
0.3933080422118196
 10
10.0
 20
184.1078587459928
  0
LWPOLYLINE
  5
38A2
330
2
100
AcDbEntity
  8
kapton
  6
Continuous
100
AcDbPolyline
 90
        2
 70
   128
 43
0.25
 10
10.0
 20
184.1078587459928
 10
184.1078587459924
 20
10.0
  0
LWPOLYLINE
  5
38A3
330
2
100
AcDbEntity
  8
kapton
  6
Continuous
100
AcDbPolyline
 90
        2
 70
   128
 43
0.25
 10
10.0
 20
184.1078587459928
 10
184.1078587459924
 20
10.0
  0
LWPOLYLINE
  5
38A4
330
2
100
AcDbEntity
  8
kapton
  6
Continuous
100
AcDbPolyline
 90
        2
 70
   128
 43
0.25
 10
10.0
 20
184.1078587459928
 10
184.1078587459924
 20
10.0
  0
LWPOLYLINE
  5
38A5
330
2
100
AcDbEntity
  8
kapton
  6
Continuous
100
AcDbPolyline
 90
        2
 70
   128
 43
0.25
 10
1146.3
 20
184.1078587459928
 10
972.1921412540067
 20
10.0
  0
LWPOLYLINE
  5
38A6
330
2
100
AcDbEntity
  8
kapton
  6
Continuous
100
AcDbPolyline
 90
        2
 70
   129
 43
0.25
 10
375.6499999999996
 20
209.0
 42
0.9999999999999998
 10
361.6499999999996
 20
209.0
 42
0.9999999999999998
  0
LWPOLYLINE
  5
38A7
330
2
100
AcDbEntity
  8
kapton
  6
Continuous
100
AcDbPolyline
 90
        2
 70
   129
 43
0.125
 10
1146.2375
 20
184.1078587459928
 42
1.0
 10
1146.362499999999
 20
184.1078587459928
 42
1.0
  0
LWPOLYLINE
  5
38A8
330
2
100
AcDbEntity
  8
kapton
  6
Continuous
100
AcDbPolyline
 90
        2
 70
   129
 43
0.125
 10
972.1296412540068
 20
10.0
 42
1.0
 10
972.2546412540069
 20
10.0
 42
1.0
  0
LWPOLYLINE
  5
38A9
330
2
100
AcDbEntity
  8
kapton
  6
Continuous
100
AcDbPolyline
 90
        2
 70
   129
 43
0.125
 10
184.0453587459924
 20
10.00000000000045
 42
1.0
 10
184.1703587459924
 20
10.00000000000045
 42
1.0
  0
LWPOLYLINE
  5
38AA
330
2
100
AcDbEntity
  8
kapton
  6
Continuous
100
AcDbPolyline
 90
        2
 70
   129
 43
0.125
 10
9.9375
 20
184.1078587459928
 42
1.0
 10
10.0625
 20
184.1078587459928
 42
1.0
  0
LWPOLYLINE
  5
38AB
330
2
100
AcDbEntity
  8
kapton
  6
Continuous
100
AcDbPolyline
 90
        2
 70
   129
 43
0.25
 10
349.6499999999997
 20
293.0
 42
0.9999999999999998
 10
335.6499999999996
 20
293.0
 42
0.9999999999999998
  0
LWPOLYLINE
  5
38AC
330
2
100
AcDbEntity
  8
kapton
  6
Continuous
100
AcDbPolyline
 90
        2
 70
   129
 43
0.25
 10
780.6499999999996
 20
209.0
 42
-0.9999999999999998
 10
794.6499999999996
 20
209.0
 42
-0.9999999999999998
  0
LWPOLYLINE
  5
38AD
330
2
100
AcDbEntity
  8
kapton
  6
Continuous
100
AcDbPolyline
 90
        2
 70
   129
 43
0.25
 10
806.6499999999996
 20
293.0
 42
-0.9999999999999998
 10
820.6499999999996
 20
293.0
 42
-0.9999999999999998
  0
HATCH
  5
38AE
330
2
100
AcDbEntity
  8
kapton
100
AcDbHatch
 10
0.0
 20
0.0
 30
0.0
210
0.0
220
0.0
230
1.0
  2
ANSI37
 70
     0
 71
     1
 91
        1
 92
        7
 72
     0
 73
     1
 93
        4
 10
603.1500000000001
 20
405.065822928638
 10
553.1500000000001
 20
405.065822928638
 10
553.1500000000001
 20
400.0658229286379
 10
603.1500000000001
 20
400.0658229286379
 97
        1
330
38AF
 75
     0
 76
     1
 52
0.0
 41
0.5
 77
     0
 78
     2
 53
45.0
 43
0.0
 44
0.0
 45
-1.122532015133643
 46
1.122532015133644
 79
     0
 53
135.0
 43
0.0
 44
0.0
 45
-1.122532015133644
 46
-1.122532015133643
 79
     0
 47
0.0646116985712494
 98
        1
 10
592.5226862862218
 20
403.6455137151715
1001
ACAD
1010
0.0
1020
0.0
1030
0.0
  0
LWPOLYLINE
  5
38AF
102
{ACAD_REACTORS
330
38AE
102
}
330
2
100
AcDbEntity
  8
kapton
100
AcDbPolyline
 90
        4
 70
     1
 43
0.25
 10
553.1500000000001
 20
405.065822928638
 10
603.1500000000001
 20
405.065822928638
 10
603.1500000000001
 20
400.0658229286379
 10
553.1500000000001
 20
400.0658229286379
  0
LWPOLYLINE
  5
38C2
330
2
100
AcDbEntity
  8
copper
100
AcDbPolyline
 90
        2
 70
   128
 43
0.5
 10
548.5188407653534
 20
402.6504889298957
 42
0.1346900899421399
 10
553.5686121237024
 20
404.2319145258802
  0
LWPOLYLINE
  5
38C3
330
2
100
AcDbEntity
  8
copper
100
AcDbPolyline
 90
        2
 70
   128
 43
0.5
 10
553.9017181157669
 20
400.6947320343222
 42
0.1048012284961556
 10
549.8182760856029
 20
401.4151624681731
  0
LWPOLYLINE
  5
38C4
330
2
100
AcDbEntity
  8
copper
100
AcDbPolyline
 90
        2
 70
   128
 43
1.199999999999999
 10
553.4522533091794
 20
403.5997724821767
 10
551.3158925826409
 20
402.6012050808085
  0
LWPOLYLINE
  5
38C5
330
2
100
AcDbEntity
  8
copper
100
AcDbPolyline
 90
        2
 70
   128
 43
1.199999999999999
 10
553.9133416984696
 20
401.2032129881581
 10
551.8307709929477
 20
401.8177148406589
  0
LWPOLYLINE
  5
38C6
330
2
100
AcDbEntity
  8
copper
100
AcDbPolyline
 90
        2
 70
   128
 43
0.5
 10
558.2224119952879
 20
398.9172884875967
 42
0.4071607595117997
 10
561.1499999999996
 20
401.9164144440944
  0
LWPOLYLINE
  5
38C7
330
2
100
AcDbEntity
  8
copper
100
AcDbPolyline
 90
        2
 70
   128
 43
1.199999999999999
 10
561.7849164807558
 20
400.7170229469275
 10
559.7696420755656
 20
398.5169402047709
  0
LWPOLYLINE
  5
38C8
330
2
100
AcDbEntity
  8
copper
100
AcDbPolyline
 90
        2
 70
   128
 43
0.5
 10
607.7811592346442
 20
402.6504889298956
 42
-0.1346900899421399
 10
602.7313878762953
 20
404.2319145258801
  0
LWPOLYLINE
  5
38C9
330
2
100
AcDbEntity
  8
copper
100
AcDbPolyline
 90
        2
 70
   128
 43
0.5
 10
602.3982818842307
 20
400.694732034322
 42
-0.1048012284961556
 10
606.4817239143948
 20
401.415162468173
  0
LWPOLYLINE
  5
38CA
330
2
100
AcDbEntity
  8
copper
100
AcDbPolyline
 90
        2
 70
   128
 43
1.199999999999999
 10
602.8477466908183
 20
403.5997724821767
 10
604.9841074173567
 20
402.6012050808084
  0
LWPOLYLINE
  5
38CB
330
2
100
AcDbEntity
  8
copper
100
AcDbPolyline
 90
        2
 70
   128
 43
1.199999999999999
 10
602.3866583015281
 20
401.203212988158
 10
604.4692290070501
 20
401.8177148406588
  0
LWPOLYLINE
  5
38CC
330
2
100
AcDbEntity
  8
copper
100
AcDbPolyline
 90
        2
 70
   128
 43
0.5
 10
598.0775880047096
 20
398.9172884875967
 42
-0.4071607595117997
 10
595.1499999999981
 20
401.9164144440944
  0
LWPOLYLINE
  5
38CD
330
2
100
AcDbEntity
  8
copper
100
AcDbPolyline
 90
        2
 70
   128
 43
1.199999999999999
 10
594.5150835192419
 20
400.7170229469274
 10
596.5303579244321
 20
398.5169402047708
  0
LWPOLYLINE
  5
38D2
330
2
100
AcDbEntity
  8
copper
  6
Continuous
100
AcDbPolyline
 90
      316
 70
   128
 43
1.771999999999999
 10
601.6499999998575
 20
402.2066635079641
 42
-0.1789107320086252
 10
1134.972795086773
 20
187.6881784472735
 42
-1.0
 10
1127.875600659824
 20
179.8606509151551
 42
0.1831521896420589
 10
587.9089988134411
 20
391.9156359097155
 42
1.0
 10
587.8670011865591
 20
388.3938863162129
 42
-0.1829321740648789
 10
1124.995613029945
 20
177.7173506978787
 42
-1.0
 10
1117.905086567012
 20
169.8837825148321
 42
0.1828780898566001
 10
587.9093674234538
 20
377.8266121926047
 42
1.0
 10
587.8666325765457
 20
374.304871467784
 42
-0.1826502942274999
 10
1115.017879670267
 20
167.7461967061264
 42
-1.0
 10
1107.934263057093
 20
159.9063796369864
 42
0.1825942827798992
 10
587.9097492057417
 20
363.7375518075225
 42
1.0
 10
587.8662507942586
 20
360.2158204310263
 42
-0.1823582867775102
 10
1105.039564972072
 20
157.7746986088567
 42
-1.0
 10
1097.963113492498
 20
149.9284134714647
 42
0.1823002431971129
 10
587.9101448792131
 20
349.648452748389
 42
1.0
 10
587.8658551207863
 20
346.1267312350809
 42
-0.1820555956502688
 10
1095.060636676359
 20
147.8028372135448
 42
-1.0
 10
1087.991620019931
 20
139.9498530984995
 42
0.0992091469449852
 10
830.3929394208305
 20
292.6644577822601
 42
1.0
 10
829.2271463129221
 20
289.3409941628482
 42
-0.0989610765475568
 10
1085.081060091115
 20
137.8305918721729
 42
-1.0
 10
1078.019763457183
 20
129.970665291878
 42
0.1001715779817543
 10
822.3429707694005
 20
280.5495017012232
 42
1.0
 10
821.1931252639113
 20
277.220486935034
 42
-0.0999139889989552
 10
1075.100797857395
 20
127.8579403404785
 42
-1.0
 10
1068.047523167005
 20
119.9908142996731
 42
0.1028083506606696
 10
809.7788071009528
 20
269.9335060680786
 42
-0.4128186527775287
 10
806.4253917728569
 20
276.589992297623
 10
807.0307040559512
 20
278.439174226538
 42
0.3517056221784341
 10
806.2539634008093
 20
280.5025151881094
 42
-0.4070135839703468
 10
800.9740556735387
 20
300.0858252471022
 42
0.4784976775869011
 10
799.9494624312311
 20
302.6298431636381
 42
0.0707476413686903
 10
587.9105552160678
 20
335.5593128600664
 42
1.0
 10
587.8654447839324
 20
332.0376017633246
 42
-0.0683680017908344
 10
792.0402653830148
 20
301.3190665012015
 42
-1.0
 10
789.0608807489228
 20
291.181827074112
 42
0.0683072614227323
 10
587.9109810468137
 20
321.4701298242509
 42
1.0
 10
587.8650189531859
 20
317.9484297396399
 42
-0.0709176593982364
 10
795.4780869446243
 20
285.5829221200778
 42
-1.0
 10
792.3935266586442
 20
275.4771889036234
 42
0.0708545589242384
 10
587.9114232658899
 20
307.3809011437338
 42
1.0
 10
587.86457673411
 20
303.8592127130996
 42
-0.1810772131062406
 10
1065.119809687885
 20
117.8848586205259
 42
-1.0
 10
1058.074876916337
 20
110.0102615994484
 42
0.1810098255225443
 10
587.9118828379275
 20
293.2916241248027
 42
1.0
 10
587.8641171620722
 20
289.7699480408605
 42
-0.1807253348661955
 10
1055.138052074081
 20
107.9113207842626
 42
-1.0
 10
1048.101800718846
 20
100.028965624417
 42
0.1806552584468527
 10
587.912360804781
 20
279.2022958575249
 42
1.0
 10
587.8636391952183
 20
275.6806328689976
 42
-0.1803592841243159
 10
1045.155477957578
 20
97.93729877530916
 42
-1.0
 10
1038.128268658422
 20
90.0468814564431
 42
0.1802863546390055
 10
587.9128582934093
 20
265.1129131936067
 42
1.0
 10
587.8631417065901
 20
261.5912641110043
 42
-0.0692245785806359
 10
775.2902918667258
 20
232.8146819786209
 42
-1.0
 10
772.2631119699912
 20
222.6916123911485
 42
0.0691506482781376
 10
587.9133765247488
 20
251.0234727214777
 42
1.0
 10
587.8626234752508
 20
247.5018384236031
 42
-0.0673995626973953
 10
766.7473188543334
 20
220.6478419625149
 42
-1.0
 10
763.7907883916739
 20
210.5039135507322
 42
0.0673225030509403
 10
587.9139168237165
 20
236.9339707381789
 42
1.0
 10
587.8620831762831
 20
233.4123521794771
 42
-0.0706060508524529
 10
771.0711253809527
 20
204.6547280012497
 42
0.5566183672636184
 10
773.3232599256179
 20
206.6266052074932
 42
-0.5012592784050444
 10
789.4410857093397
 20
223.4111240360286
 42
0.2688435467055913
 10
791.0666455195836
 20
224.1014990906545
 42
-0.3232284551751073
 10
796.9717954272504
 20
225.9387030225276
 42
-0.1010347894385235
 10
1035.17203636025
 20
87.96276218579555
 42
-1.0
 10
1028.154252690894
 20
80.06396048109911
 42
0.0967631088119152
 10
804.4497405680878
 20
212.183563210583
 42
1.0
 10
803.273364556645
 20
208.8638307696018
 42
-0.0964491238067332
 10
1025.187671967189
 20
77.98767800448309
 42
-1.0
 10
1018.179722420738
 20
70.08014999919642
 42
0.0965197726984102
 10
799.5691398014087
 20
198.9666529005892
 42
1.0
 10
798.3936933248912
 20
195.6465912173003
 42
-0.0961922640775941
 10
1015.202324655191
 20
68.01201033177097
 42
-1.0
 10
1008.204644849054
 20
60.09539278822528
 42
0.0558536048323999
 10
889.8527243629096
 20
143.2143387072196
 42
1.0
 10
888.1620897068161
 20
140.1246399420397
 42
-0.0555137570581142
 10
1005.215928958314
 20
58.03572005638824
 42
-1.0
 10
998.2289840883421
 20
50.10962660602007
 42
0.0604972197435531
 10
871.959081236943
 20
136.8034046636498
 42
-0.41300623542332
 10
869.7084162667751
 20
143.9114629689652
 10
870.002044521278
 20
144.3911283278366
 42
1.001374337240926
 10
866.8621276932183
 20
145.9865539498674
 10
866.6473280813784
 20
145.4659461135397
 42
-0.9958846488116012
 10
857.1748298244976
 20
150.146783029133
 10
857.4592416448634
 20
150.6356923893968
 42
1.001374337209446
 10
854.2852092867436
 20
152.162119325799
 10
854.0805020137355
 20
151.6339999349984
 42
-0.9958846488082045
 10
844.5079739788535
 20
156.1067132589647
 10
846.2292144497709
 20
159.7905704009958
 42
1.001366869990577
 10
843.0222464083163
 20
161.2465294790754
 10
841.3818844729469
 20
157.5259535932999
 42
-0.9958846488152747
 10
831.7138987445547
 20
161.788407043204
 10
833.354223569713
 20
165.5089992903299
 42
1.001366870016612
 10
830.116203821038
 20
166.8945276960809
 10
828.5575406438434
 20
163.1389929403665
 42
-0.9958846488148289
 10
818.7987148995617
 20
167.1891506594852
 10
820.3573406178183
 20
170.9447009615679
 42
1.001366870008896
 10
817.0898157230453
 20
172.259136931097
 10
815.6135957615285
 20
168.4704370451485
 42
-0.9958846488192246
 10
805.7685910663009
 20
172.3063645741753
 10
807.2447732381212
 20
176.0950791842669
 42
1.001366870019761
 10
803.9493038508341
 20
177.3377949093654
 10
802.5562321853499
 20
173.5177394730042
 42
-0.9958846488021329
 10
792.629750765622
 20
177.1376046750219
 10
794.0227843286055
 20
180.9576740060248
 42
1.001366870005694
 10
790.7009444493461
 20
182.1280759337891
 10
789.3916864467009
 20
178.2784895035987
 42
-0.9958846488169962
 10
779.3884694440862
 20
181.6805634380679
 10
780.6976890497254
 20
185.5301629270294
 42
1.001366869969423
 10
777.3510652742532
 20
186.6276920434535
 10
776.1262462695794
 20
182.7504132804583
 42
-0.9958846488064216
 10
766.0510714766115
 20
185.9330710295936
 10
767.2758518081614
 20
189.8103620094254
 42
1.001366870017137
 10
763.9060425697181
 20
190.8344941065957
 10
762.7662475678991
 20
186.9313748983077
 42
-0.9958846488168887
 10
752.6239271461535
 20
189.8930963436225
 10
753.7636832170607
 20
193.7962269205376
 42
1.001366870040391
 10
750.3722980228328
 20
194.7464728467712
 10
749.3180714191423
 20
190.8193774228494
 42
-0.995884648806621
 10
739.1134496005053
 20
193.5587479701802
 10
740.1676370341491
 20
197.4858539092836
 42
1.001366870026165
 10
736.7562956965285
 20
198.3617598027404
 10
735.7881410166117
 20
194.4125638446097
 42
-0.9958846488242203
 10
725.5260917897902
 20
196.9282751005559
 10
726.4942070792111
 20
200.8774807153085
 42
1.001366869999815
 10
723.0645389421726
 20
201.6786282209131
 10
722.1829186014388
 20
197.7092179654491
 42
-0.995884648806037
 10
711.8683433839282
 20
200.0000683619837
 10
712.7499241325024
 20
203.9694874107677
 42
1.001366870022439
 10
709.30356729338
 20
204.6954938800137
 10
708.5089023763221
 20
200.7077652193711
 42
-0.9958846488143525
 10
698.1467276733289
 20
202.7726605875784
 10
698.941352815514
 20
206.7603971741919
 42
1.001366870039341
 10
695.4799533425581
 20
207.4109158476921
 10
694.7726234014893
 20
203.4067734231976
 42
-0.9958846488039467
 10
684.3677984529542
 20
205.2447275160211
 10
685.0750884554647
 20
209.2488769955247
 42
1.001366870001232
 10
681.6002996017182
 20
209.8235971690283
 10
680.9806424755254
 20
205.8049534616072
 42
-0.9958846488146292
 10
670.538136892289
 20
207.415088425227
 10
671.1577539352764
 20
211.4337383131217
 42
1.001366869992676
 10
667.6712353488517
 20
211.9323854854477
 10
667.1395470016461
 20
207.901159902237
 42
-0.9958846488057451
 10
656.6643483917616
 20
209.2827066949509
 10
657.1959965302711
 20
213.313937581212
 42
1.001366869996088
 10
653.6994134617333
 20
213.7362735857961
 10
653.2559478414829
 20
209.6943915433456
 42
-0.9958846488140913
 10
642.7530594280446
 20
210.8466903031542
 10
643.1964847332992
 20
214.8885767685749
 42
1.001366870033094
 10
639.6915072402451
 20
215.234399886856
 10
639.3364761575027
 20
211.1837918917134
 42
-0.9958846488158435
 10
628.8109143889108
 20
212.106292250819
 10
629.1659050696534
 20
216.1569037871451
 42
1.001366870020024
 10
625.6542072190852
 20
216.4260488451859
 10
625.3877802457662
 20
212.3686495712501
 42
-0.9958846488182258
 10
614.8445723998694
 20
213.0609109201764
 10
615.1109589034472
 20
217.1183128514702
 42
1.001366870011993
 10
611.5942179721796
 20
217.3106512987456
 10
611.4165223606289
 20
213.2483986638
 42
-0.9958846488193939
 10
600.8607041434616
 20
213.7100903608388
 10
601.0383592368598
 20
217.7723447680399
 42
1.001366869991102
 10
597.5182549104052
 20
217.8877847387099
 10
597.4293951135701
 20
213.8226183889939
 42
-0.995884648817565
 10
586.8660082612595
 20
214.0535202413647
 10
586.954866928544
 20
218.1186866158335
 42
1.0013668700153
 10
583.4330805012178
 20
218.1571731882116
 10
583.4330833496533
 20
207.0467934710474
 42
0.4138065312187721
 10
585.1744192182194
 20
205.2687690185289
 42
-0.179380328290619
 10
995.2284134604781
 20
48.05876448761512
 42
-1.0
 10
988.252701038915
 20
40.12278362752938
 42
0.1793150670766134
 10
585.2140261278782
 20
194.7016555054306
 42
1.0
 10
585.1739738721204
 20
191.1798832503281
 42
-0.1789327911608689
 10
985.2397001032134
 20
38.0810969357218
 42
-1.0
 10
978.275753020719
 20
30.13478980396426
 42
0.1788645026937798
 10
585.214492203387
 20
180.6127178996183
 42
1.0
 10
585.1735077966117
 20
177.0909563690203
 42
-0.178464247346248
 10
975.2497033943713
 20
28.10266623190893
 42
-1.0
 10
968.2980933532743
 20
20.14556413148835
 42
0.3752940519039473
 10
188.0019066467252
 20
20.14556413148858
 42
-1.0
 10
181.0502966056281
 20
28.1026662319093
 42
-0.1784642473462477
 10
571.1264922033873
 20
177.0909563690203
 42
1.0
 10
571.0855077966126
 20
180.6127178996189
 42
0.1788645026937802
 10
178.0242469792796
 20
30.13478980396366
 42
-1.0
 10
171.0602998967851
 20
38.0810969357212
 42
-0.1789327911608693
 10
571.1260261278785
 20
191.1798832503281
 42
1.0
 10
571.0859738721207
 20
194.7016555054306
 42
0.179315067076613
 10
168.0472989610848
 20
40.12278362752977
 42
-1.0
 10
161.0715865395215
 20
48.05876448761573
 42
-0.1793803282906187
 10
571.1255807817798
 20
205.268769018529
 42
0.4138065312187767
 10
572.8669166503459
 20
207.0467934710475
 10
572.8669194987819
 20
218.1571731881797
 42
1.001366870003122
 10
569.3451330714551
 20
218.1186866158382
 10
569.4339917387375
 20
214.0535202414688
 42
-0.9958846488172266
 10
558.8706048864318
 20
213.8226183888756
 10
558.7817450895953
 20
217.8877847386545
 42
1.001366869983543
 10
555.2616407631371
 20
217.7723447680907
 10
555.4392958565389
 20
213.7100903608105
 42
-0.9958846488211461
 10
544.8834776393717
 20
213.2483986637674
 10
544.7057820278195
 20
217.3106512987483
 42
1.001366869981443
 10
541.1890410965493
 20
217.118312851518
 10
541.4554276001317
 20
213.0609109201469
 42
-0.9958846488147981
 10
530.9122197542328
 20
212.368649571254
 10
530.645792780913
 20
216.426048845192
 42
1.001366870006586
 10
527.1340949303415
 20
216.1569037871947
 10
527.4890856110906
 20
212.1062922507944
 42
-0.9958846488073742
 10
516.9635238425104
 20
211.18379189156
 10
516.608492759753
 20
215.2343998868695
 42
1.001366870018292
 10
513.1035152667005
 20
214.8885767685714
 10
513.5469405719556
 20
210.8466903031466
 42
-0.9958846488149212
 10
503.0440521585163
 20
209.694391543346
 10
502.6005865382658
 20
213.7362735857965
 42
1.001366870014092
 10
499.104003469729
 20
213.3139375812053
 10
499.6356516082352
 20
209.2827066949702
 42
-0.995884648806898
 10
489.160452998354
 20
207.9011599022296
 10
488.6287646511481
 20
211.9323854854424
 42
1.001366870016297
 10
485.142246064723
 20
211.4337383131199
 10
485.7618631077093
 20
207.4150884252329
 42
-0.9958846488125541
 10
475.3193575244758
 20
205.8049534615943
 10
475.2354747745609
 20
206.3401613896056
 42
1.00137433724244
 10
471.764698007024
 20
205.7416889737919
 10
471.9322015470326
 20
205.2447275160922
 42
-0.9958846488117243
 10
461.5273765985011
 20
203.4067734232465
 10
461.4339519222606
 20
203.9371213508386
 42
1.001374337220148
 10
457.9770826432732
 20
203.2629437847936
 10
458.1532723266809
 20
202.7726605875239
 42
-0.4130062354233082
 10
454.0003837744308
 20
196.5804475459456
 42
0.1322150213987735
 10
158.0710159116567
 20
50.10962660601939
 42
-1.0
 10
151.0840710416847
 20
58.03572005638783
 42
-0.1254861869619382
 10
435.2125777215824
 20
203.3795114210386
 42
1.0
 10
434.4330759931597
 20
206.8141673070802
 42
0.0212344480748103
 10
381.2370131263563
 20
192.341465229223
 42
-0.334879584640671
 10
375.2343412331408
 20
194.4525915971253
 42
0.7625287568368803
 10
372.0087213710912
 20
193.3891181714214
 42
-0.3348795846405785
 10
368.4386585705389
 20
188.1219010694836
 42
0.0990751443625143
 10
148.0953551509455
 20
60.09539278822558
 42
-1.0
 10
141.0976753448081
 20
68.01201033177156
 42
-0.0961922640775938
 10
357.9063066751078
 20
195.6465912173003
 42
1.0
 10
356.7308601985904
 20
198.9666529005893
 42
0.0965197726984104
 10
138.1202775792611
 20
70.08014999919606
 42
-1.0
 10
131.1123280328096
 20
77.98767800448274
 42
-0.0964491238067334
 10
353.0266354433543
 20
208.863830769602
 42
1.0
 10
351.8502594319116
 20
212.1835632105831
 42
0.0967631088119148
 10
128.1457473091063
 20
80.06396048109952
 42
-1.0
 10
121.1279636397485
 20
87.96276218579521
 42
-0.101034789438524
 10
359.3282045727493
 20
225.9387030225276
 42
-0.323228455175104
 10
365.2333544804161
 20
224.1014990906547
 42
0.2688435467056042
 10
366.8589142906601
 20
223.4111240360286
 42
-0.5012592784050374
 10
382.9767400743816
 20
206.6266052074934
 42
0.5566183672635927
 10
385.2288746190467
 20
204.6547280012497
 42
-0.0706060508524531
 10
568.4379168237164
 20
233.4123521794771
 42
1.0
 10
568.386083176283
 20
236.9339707381789
 42
0.0673225030509408
 10
392.5092116083245
 20
210.503913550732
 42
-1.0
 10
389.5526811456649
 20
220.6478419625145
 42
-0.0673995626973958
 10
568.4373765247487
 20
247.5018384236031
 42
1.0
 10
568.3866234752507
 20
251.0234727214779
 42
0.0691506482781378
 10
384.036888030008
 20
222.6916123911483
 42
-1.0
 10
381.0097081332732
 20
232.8146819786209
 42
-0.069224578580636
 10
568.4368582934093
 20
261.5912641110043
 42
1.0
 10
568.3871417065899
 20
265.1129131936069
 42
0.1802863546390056
 10
118.1717313415772
 20
90.04688145644321
 42
-1.0
 10
111.1445220424215
 20
97.93729877530921
 42
-0.1803592841243158
 10
568.4363608047808
 20
275.6806328689978
 42
1.0
 10
568.3876391952183
 20
279.2022958575248
 42
0.1806552584468525
 10
108.1981992811536
 20
100.028965624417
 42
-1.0
 10
101.1619479259181
 20
107.9113207842628
 42
-0.1807253348661957
 10
568.4358828379274
 20
289.7699480408608
 42
1.0
 10
568.3881171620721
 20
293.2916241248026
 42
0.1810098255225446
 10
98.2251230836618
 20
110.0102615994482
 42
-1.0
 10
91.18019031211298
 20
117.884858620526
 42
-0.181077213106241
 10
568.4354232658896
 20
303.8592127131001
 42
1.0
 10
568.3885767341104
 20
307.3809011437338
 42
0.0708545589242388
 10
363.906473341355
 20
275.4771889036233
 42
-1.0
 10
360.8219130553748
 20
285.5829221200779
 42
-0.0709176593982366
 10
568.4349810468138
 20
317.94842973964
 42
1.0
 10
568.389018953186
 20
321.470129824251
 42
0.0683072614227325
 10
367.2391192510764
 20
291.1818270741122
 42
-1.0
 10
364.2597346169845
 20
301.3190665012018
 42
-0.0683680017908345
 10
568.4345552160672
 20
332.0376017633248
 42
1.0
 10
568.3894447839326
 20
335.5593128600663
 42
0.0707476413686909
 10
356.3505375687678
 20
302.6298431636379
 42
0.4784976775869013
 10
355.3259443264602
 20
300.085825247102
 42
-0.4070135839703379
 10
350.04603659919
 20
280.5025151881094
 42
0.3517056221783128
 10
349.2692959440478
 20
278.4391742265386
 10
349.8746082271427
 20
276.5899922976223
 42
-0.4128186527774855
 10
346.5211928990466
 20
269.9335060680787
 42
0.1028083506606697
 10
88.25247683299346
 20
119.9908142996733
 42
-1.0
 10
81.19920214260448
 20
127.8579403404786
 42
-0.0999139889989553
 10
335.106874736088
 20
277.2204869350339
 42
1.0
 10
333.9570292305987
 20
280.5495017012231
 42
0.1001715779817542
 10
78.28023654281588
 20
129.9706652918784
 42
-1.0
 10
71.21893990888384
 20
137.8305918721731
 42
-0.0989610765475567
 10
327.0728536870771
 20
289.3409941628483
 42
1.0
 10
325.9070605791687
 20
292.6644577822602
 42
0.0992091469449853
 10
68.30837998006728
 20
139.9498530984996
 42
-1.0
 10
61.23936332363978
 20
147.8028372135448
 42
-0.1820555956502689
 10
568.4341448792133
 20
346.1267312350807
 42
1.0
 10
568.3898551207858
 20
349.6484527483892
 42
0.1823002431971129
 10
58.33688650750082
 20
149.9284134714651
 42
-1.0
 10
51.2604350279276
 20
157.7746986088569
 42
-0.1823582867775103
 10
568.433749205741
 20
360.2158204310264
 42
1.0
 10
568.3902507942588
 20
363.7375518075229
 42
0.1825942827798997
 10
48.36573694290541
 20
159.9063796369865
 42
-1.0
 10
41.28212032973205
 20
167.7461967061263
 42
-0.1826502942275001
 10
568.4333674234539
 20
374.3048714677843
 42
1.0
 10
568.3906325765451
 20
377.8266121926047
 42
0.1828780898565996
 10
38.39491343298744
 20
169.8837825148324
 42
-1.0
 10
31.30438697005267
 20
177.7173506978777
 42
-0.1829321740648795
 10
568.4329988134406
 20
388.393886316213
 42
1.0
 10
568.3910011865594
 20
391.9156359097158
 42
0.1819379435019726
 10
31.28026271130636
 20
182.4378496319519
 42
-1.0
 10
24.21993871130539
 20
190.2986499102324
 42
-0.1776982839935007
 10
554.6500000001418
 20
402.2066635079643
  0
LWPOLYLINE
  5
3A0D
330
2
100
AcDbEntity
  8
copper
  6
Continuous
100
AcDbPolyline
 90
      322
 70
   128
 43
1.771999999999999
 10
563.1590859308167
 20
398.3816052699897
 42
0.0025418837663389
 10
554.7736799576109
 20
398.1865539106341
 42
-0.0841208282729343
 10
553.329527235033
 20
398.3893392880399
 42
0.0850164725982998
 10
551.8245991231383
 20
398.5979299236799
 42
0.1767840849348272
 10
26.57338004463916
 20
187.6783831508058
 42
1.0
 10
28.92682137797317
 20
185.0581163913787
 42
-0.1819379435019728
 10
568.3490035596785
 20
395.4373855032185
 42
-1.0
 10
568.4749964403222
 20
384.8721367227103
 42
0.1829321740648793
 10
33.66789579103118
 20
175.1061613035295
 42
1.0
 10
36.0314046120094
 20
172.494971909181
 42
-0.1828780898565994
 10
568.3478977296357
 20
381.3483529174252
 42
-1.0
 10
568.4761022703624
 20
370.7831307429637
 42
0.1826502942275
 10
43.64332586745645
 20
165.1329243497463
 42
1.0
 10
46.00453140518072
 20
162.5196519933666
 42
-0.1825942827798998
 10
568.3467523827768
 20
367.2592831840192
 42
-1.0
 10
568.4772476172234
 20
356.69408905453
 42
0.1823582867775103
 10
53.61925218778515
 20
155.1592702297263
 42
1.0
 10
55.9780693476431
 20
152.5438418505954
 42
-0.1823002431971126
 10
568.3455653623578
 20
353.1701742616974
 42
-1.0
 10
568.4784346376403
 20
342.6050097217726
 42
0.1820555956502691
 10
63.59570220911549
 20
145.185175841863
 42
1.0
 10
65.95204109459143
 20
142.5675144701811
 42
-0.0992091469449852
 10
324.74126747126
 20
295.9879214016718
 42
-1.0
 10
328.2386467949856
 20
286.0175305434363
 42
0.0989610765475566
 10
73.5727054535279
 20
135.2106163454083
 42
1.0
 10
75.92647099817191
 20
132.5906408186434
 42
-0.1001715779817542
 10
332.8071837251093
 20
283.8785164674123
 42
-1.0
 10
336.2567202415773
 20
273.8914721688447
 42
0.0999139889989552
 10
83.55029370606748
 20
125.2355649935435
 42
1.0
 10
85.90138526953053
 20
122.6131896466083
 42
-0.1028083506606697
 10
345.4095715732037
 20
273.2754788429426
 42
0.4128186527774932
 10
346.527376682569
 20
275.4943075861238
 10
345.9220643994746
 20
277.3434895150391
 42
-0.3517056221783645
 10
348.2522863649007
 20
283.5335123997523
 42
0.4070135839703412
 10
352.2516655826374
 20
298.3673101307066
 42
-0.4784976775868925
 10
355.32544530956
 20
305.9993638803144
 42
-0.070747641368691
 10
568.3443343517981
 20
339.0810239568078
 42
-1.0
 10
568.4796656482022
 20
328.5158906665832
 42
0.0683680017908347
 10
365.2528628283481
 20
297.939986692172
 42
1.0
 10
366.2459910397122
 20
294.5609068831419
 42
-0.0683072614227326
 10
568.3430568595582
 20
324.991829908862
 42
-1.0
 10
568.480943140442
 20
314.4267296550288
 42
0.0709176593982366
 10
361.8500998173682
 20
282.2143443812597
 42
1.0
 10
362.8782865793616
 20
278.8457666424414
 42
-0.0708545589242392
 10
568.3417302023318
 20
310.9025895743678
 42
-1.0
 10
568.4822697976693
 20
300.3375242824661
 42
0.1810772131062408
 10
93.52850123596265
 20
115.2599929468337
 42
1.0
 10
95.87681215981234
 20
112.6351272731409
 42
-0.1810098255225447
 10
568.3403514862171
 20
296.8133002087448
 42
-1.0
 10
568.4836485137826
 20
286.2482719569186
 42
0.1807253348661958
 10
103.5073650443298
 20
105.2838690643141
 42
1.0
 10
105.8527821627416
 20
102.6564173443656
 42
-0.1806552584468521
 10
568.338917585655
 20
282.7239588460519
 42
-1.0
 10
568.4850824143429
 20
272.1589698804706
 42
0.1803592841243158
 10
113.4869251421401
 20
95.30715966902056
 42
1.0
 10
115.8293282418586
 20
92.67702056273197
 42
-0.1802863546390053
 10
568.3374251197704
 20
268.6345622762094
 42
-1.0
 10
568.4865748802281
 20
258.0696150284018
 42
0.0692245785806361
 10
382.0187680988514
 20
229.4403254494634
 42
1.0
 10
383.0278280644296
 20
226.0659689203058
 42
-0.0691506482781377
 10
568.3358704257527
 20
254.5451070193524
 42
-1.0
 10
568.4881295742465
 20
243.9802041257284
 42
0.0673995626973956
 10
390.538191299885
 20
217.2665324919205
 42
1.0
 10
391.5237014541048
 20
213.8852230213263
 42
-0.0673225030509407
 10
568.3342495288494
 20
240.4555892968808
 42
-1.0
 10
568.4897504711496
 20
229.8907336207752
 42
0.070606050852453
 10
386.2584998203471
 20
201.2865896512339
 42
-0.5566183672636019
 10
379.5020961863515
 20
207.2022212699647
 42
0.5012592784050379
 10
367.2933037596239
 20
219.9160146258308
 42
-0.2688435467055767
 10
362.4166243288924
 20
221.9871397897085
 42
0.3232284551750983
 10
360.4482410263368
 20
222.5995411003328
 42
0.1010347894385237
 10
123.4672248628679
 20
85.32982828423032
 42
1.0
 10
125.8064860859873
 20
82.69689438266494
 42
-0.0967631088119149
 10
350.673883420469
 20
215.5032956515642
 42
-1.0
 10
354.2030114547972
 20
205.5440983286207
 42
0.0964491238067333
 10
133.4483112149602
 20
75.35183533605394
 42
1.0
 10
135.7842943971107
 20
72.71599266762502
 42
-0.0965197726984102
 10
355.5554137220729
 20
202.2867145838781
 42
-1.0
 10
359.081753151625
 20
192.3265295340114
 42
0.0961922640775939
 10
143.4302352801871
 20
65.37313781725615
 42
1.0
 10
145.7627952155662
 20
62.73426530274076
 42
-0.0990751443625143
 10
367.3012117858757
 20
191.4551725573855
 42
0.334879584640578
 10
368.4912327193932
 20
193.2109115913647
 42
-0.7625287568368828
 10
378.1680923055419
 20
196.4013318684763
 42
0.3348795846406608
 10
380.1689829366137
 20
195.6976230791756
 42
-0.0212344480748108
 10
433.6535742647414
 20
210.2488231931033
 42
-1.0
 10
435.992079450001
 20
199.9448555350157
 42
0.1254861869619379
 10
153.4130526650089
 20
55.3936889062653
 42
1.0
 10
155.742034288333
 20
52.75165775614249
 42
-0.1322150213987735
 10
453.3120794657553
 20
200.0345351503151
 42
0.4138110066419699
 10
454.6954425556906
 20
202.1033567762449
 10
454.5239561327967
 20
202.5697832727328
 42
-1.004128701519492
 10
464.89448572483
 20
204.5923007110983
 10
464.992269827686
 20
204.0384926862814
 42
0.9986263371001554
 10
468.4605710247025
 20
204.6511486810875
 10
468.2972482733573
 20
205.1241563533325
 42
-1.004128701517444
 10
478.7095000162486
 20
206.9195600545621
 10
478.7972284701433
 20
206.3608023639275
 42
0.9986263371695983
 10
482.2780899736405
 20
206.8975180751492
 10
481.6584909917238
 20
210.9160472623838
 42
-1.004106238049072
 10
492.1179686895903
 20
212.4119776150467
 10
492.6496405402844
 20
208.3808729562359
 42
0.9986263371666336
 10
496.1413998017249
 20
208.8413920343908
 10
495.6097670822476
 20
212.8725018542187
 42
-1.004106238044487
 10
506.0994380011308
 20
214.1395004121196
 10
506.5428897714391
 20
210.0977396254486
 42
0.9986263371309496
 10
510.0438790371289
 20
210.4818421153179
 10
509.6004665015155
 20
214.5236072062858
 42
-1.004106238053767
 10
520.115320506001
 20
215.561068818363
 10
520.4703403919664
 20
211.5105823525595
 42
0.9986263370657722
 10
523.9788874998375
 20
211.8180847965268
 10
523.6239069332364
 20
215.8685747084691
 42
-1.004106238040354
 10
534.1589218598086
 20
216.6760038565007
 10
534.425340294846
 20
212.6187263275882
 42
0.9986263370026751
 10
537.9397694729624
 20
212.8494818544953
 10
537.673390423198
 20
216.906761969638
 42
-1.004106238042475
 10
548.2235344789592
 20
217.4837730049551
 10
548.401224214805
 20
213.4216422724878
 42
0.9986263370336255
 10
551.9198568817734
 20
213.5755406679922
 10
551.742206578319
 20
217.6376731252213
 42
-1.004106238047949
 10
562.3024407443365
 20
217.9839904523344
 10
562.3912973278951
 20
213.9189462122869
 42
0.9986263371301694
 10
565.9124528923082
 20
213.9959140783165
 10
565.8235963505868
 20
218.0609583191765
 42
-1.004106238041072
 10
576.3888767815505
 20
218.176417174554
 10
576.3888724215348
 20
207.0663749715179
 42
-0.4129928167083506
 10
571.1647423453397
 20
201.7469867464486
 42
0.1793803282906188
 10
163.3968240133757
 20
45.41343753425366
 42
1.0
 10
165.7220614872303
 20
42.76811058089151
 42
-0.1793150670766127
 10
571.0459216163626
 20
198.2234277605329
 42
-1.0
 10
571.1660783836359
 20
187.6581109952257
 42
0.1789327911608691
 10
173.3816155909502
 20
35.43232789180227
 42
1.0
 10
175.7029312851151
 20
32.78355884788289
 42
-0.1788645026937808
 10
571.0445233898385
 20
184.1344794302171
 42
-1.0
 10
571.1674766101626
 20
173.5691948384221
 42
0.1784642473462478
 10
183.3674999526604
 20
25.45029886510239
 42
1.0
 10
185.6847032996929
 20
22.79793149829538
 42
-0.3752940519039471
 10
970.6152967003065
 20
22.79793149829531
 42
1.0
 10
972.9325000473389
 20
25.45029886510207
 42
0.1784642473462482
 10
585.132523389836
 20
173.5691948384222
 42
-1.0
 10
585.2554766101623
 20
184.1344794302166
 42
-0.1788645026937799
 10
980.5970687148841
 20
32.78355884788322
 42
1.0
 10
982.9183844090488
 20
35.43232789180229
 42
0.1789327911608692
 10
585.1339216163624
 20
187.6581109952257
 42
-1.0
 10
585.2540783836357
 20
198.223427760533
 42
-0.1793150670766132
 10
990.5779385127692
 20
42.76811058089148
 42
1.0
 10
992.9031759866235
 20
45.41343753425337
 42
0.1793803282906188
 10
585.1352576546595
 20
201.7469867464486
 42
-0.412992816707425
 10
579.9111275784643
 20
207.0663749715013
 10
579.9111232184486
 20
218.1764171745539
 42
-1.004106238043567
 10
590.4764036494121
 20
218.0609583191651
 10
590.387547107684
 20
213.9959140780032
 42
0.9986263371498319
 10
593.908702672111
 20
213.9189462126038
 10
593.9975592556627
 20
217.9839904523563
 42
-1.004106238045111
 10
604.5577934216777
 20
217.6376731251637
 10
604.3801431182356
 20
213.5755406682258
 42
0.9986263371091023
 10
607.8987757851913
 20
213.4216422724222
 10
608.0764655210398
 20
217.4837730049491
 42
-1.004106238044939
 10
618.6266095768011
 20
216.906761969636
 10
618.3602305270597
 20
212.8494818548525
 42
0.9986263372127726
 10
621.8746597051788
 20
212.6187263279696
 10
622.1410781401893
 20
216.6760038564857
 42
-1.004106238058867
 10
632.6760930667518
 20
215.8685747083386
 10
632.3211125001646
 20
211.8180847965601
 42
0.9986263371605994
 10
635.8296596080593
 20
211.5105823528564
 10
636.1846794940007
 20
215.5610688183922
 42
-1.004106238038717
 10
646.6995334984859
 20
214.5236072063055
 10
646.2561209628611
 20
210.4818421152337
 42
0.9986263371213265
 10
649.7571102285693
 20
210.0977396255323
 10
650.2005619988699
 20
214.139500412133
 42
-1.004106238040339
 10
660.6902329177515
 20
212.8725018542168
 10
660.1586001982655
 20
208.8413920343243
 42
0.9986263371520687
 10
663.6503594597029
 20
208.3808729561456
 10
664.1820313104069
 20
212.411977615031
 42
-1.004106238053159
 10
674.6415090082749
 20
210.9160472623802
 10
674.0219100263455
 20
206.8975180750639
 42
0.9986263371058774
 10
677.5027715298232
 20
206.3608023637179
 10
678.1224095208925
 20
210.3793255364462
 42
-1.004106238039762
 10
688.5466982833715
 20
208.6551778836503
 10
687.8394289753162
 20
204.651148681199
 42
0.9986263371459306
 10
691.3077301723189
 20
204.0384926863135
 10
692.0150383487047
 20
208.0425150228255
 42
-1.004106238043739
 10
702.3991592685806
 20
206.0909735670569
 10
701.6045574442755
 20
202.1033567760774
 42
0.9986263370418962
 10
705.058641785355
 20
201.4150531178675
 10
705.8532823186308
 20
205.4026621949705
 42
-1.004106238041259
 10
716.192275673807
 20
203.224659042123
 10
715.3107208555773
 20
199.2553592512383
 42
0.9986263370444971
 10
718.7489385814423
 20
198.4917366803669
 10
719.63053193096
 20
202.4610279139097
 42
-1.004106238050476
 10
729.9194595535253
 20
200.0576033343161
 10
728.951372794358
 20
196.1085163819797
 42
0.998626337031181
 10
732.3720817244439
 20
195.2699396253103
 10
733.340206818557
 20
199.2190171797625
 42
-1.004106238043099
 10
743.5741544531797
 20
196.5913191103514
 10
742.5199981362156
 20
192.6643311821059
 42
0.9986263370640035
 10
745.9215644521832
 20
191.7512007646565
 10
746.9757588896077
 20
195.6781784596818
 42
-1.004106238047357
 10
757.1498385408562
 20
192.8274619563733
 10
756.0101161581019
 20
188.9244486820363
 42
0.99862633713818
 10
759.3909151849067
 20
187.9372007387339
 10
760.5306754552949
 20
191.8402029489201
 42
-1.004106238041399
 10
770.6400277222524
 20
188.7678295870466
 10
769.4152836342222
 20
184.8906551454493
 42
0.9986263370273835
 10
772.7737006156043
 20
183.829761210902
 10
773.9984823403937
 20
187.7069237628963
 42
-1.004106238049993
 10
784.038278737535
 20
184.4143609865579
 10
782.7290979135494
 20
180.5648772160727
 42
0.9986263370625472
 10
786.0635287834135
 20
179.4308439999394
 10
787.3727469755118
 20
183.2803150616715
 42
-1.00410623804012
 10
797.3381922389848
 20
179.7691354831092
 10
795.9451999772876
 20
175.9491809956005
 42
0.9986263370178642
 10
799.2540521260774
 20
174.7425501412608
 10
800.6470814693424
 20
178.5624911067277
 42
-1.004106238052722
 10
810.5334158473423
 20
174.8343717552916
 10
809.0572774765645
 20
171.0457710584521
 42
0.998626337035342
 10
812.3389705120544
 20
169.7671188844764
 10
813.8151456598805
 20
173.5557052517313
 42
-1.004106238048729
 10
823.61764718596
 20
169.6124267726746
 10
822.0590677477902
 20
165.8569893997301
 42
0.9986263371217948
 10
825.3120342490708
 20
164.506926622395
 10
826.870650142477
 20
168.2623488657662
 42
-1.00410623804363
 10
836.5846368909052
 20
164.1057946698545
 10
834.9443608025572
 20
160.3853143132876
 42
0.9986263371023923
 10
838.1670470698631
 20
158.9644857579315
 10
839.8073592738876
 20
162.6849501913654
 42
-1.004106238042616
 10
849.4281915958483
 20
158.3171055552883
 10
847.7070022952307
 20
154.633359211918
 42
0.9986263370213494
 10
850.8978690908689
 20
153.1424435021309
 10
851.1028273069618
 20
153.6710921975219
 42
-1.004128701514714
 10
860.6248525382964
 20
149.0918459384135
 10
860.3408964615766
 20
148.6038713769265
 42
0.9986263370843943
 10
863.4984197457697
 20
147.0435806120445
 10
863.7134818078415
 20
147.5647121426144
 42
-1.004128701516421
 10
873.1331612211915
 20
142.7784713883856
 10
872.84000902997
 20
142.2997306455183
 42
0.4138110066413099
 10
873.588003360842
 20
139.9260792727426
 42
-0.0604972197435532
 10
1000.557965711666
 20
52.75165775614275
 42
1.0
 10
1002.88694733499
 20
55.39368890626537
 42
0.0555137570581143
 10
886.4714550507184
 20
137.0349411768522
 42
-1.0
 10
891.5433590190071
 20
146.3040374724073
 42
-0.0558536048323997
 10
1010.537204784433
 20
62.73426530274065
 42
1.0
 10
1012.869764719812
 20
65.37313781725572
 42
0.0961922640775942
 10
797.2182468483738
 20
192.3265295340115
 42
-1.0
 10
800.744586277926
 20
202.2867145838783
 42
-0.0965197726984103
 10
1020.515705602888
 20
72.71599266762523
 42
1.0
 10
1022.851688785039
 20
75.35183533605408
 42
0.0964491238067332
 10
802.0969885452023
 20
205.5440983286207
 42
-1.0
 10
805.6261165795305
 20
215.503295651564
 42
-0.096763108811915
 10
1030.493513914012
 20
82.69689438266489
 42
1.0
 10
1032.832775137131
 20
85.3298282842303
 42
0.1010347894385235
 10
795.8517589736629
 20
222.5995411003329
 42
0.3232284551750934
 10
793.8833756711074
 20
221.9871397897085
 42
-0.2688435467055901
 10
789.0066962403757
 20
219.9160146258308
 42
0.5012592784050419
 10
776.7979038136481
 20
207.2022212699645
 42
-0.556618367263615
 10
770.0415001796524
 20
201.2865896512338
 42
0.0706060508524531
 10
587.8102495288495
 20
229.8907336207752
 42
-1.0
 10
587.9657504711498
 20
240.4555892968808
 42
-0.0673225030509405
 10
764.7762985458937
 20
213.8852230213262
 42
1.0
 10
765.7618087001138
 20
217.2665324919206
 42
0.0673995626973954
 10
587.8118704257529
 20
243.9802041257286
 42
-1.0
 10
587.9641295742466
 20
254.5451070193523
 42
-0.0691506482781376
 10
773.2721719355692
 20
226.0659689203059
 42
1.0
 10
774.2812319011475
 20
229.4403254494632
 42
0.0692245785806361
 10
587.8134251197706
 20
258.0696150284017
 42
-1.0
 10
587.9625748802284
 20
268.6345622762093
 42
-0.1802863546390054
 10
1040.47067175814
 20
92.67702056273176
 42
1.0
 10
1042.813074857859
 20
95.30715966902056
 42
0.1803592841243163
 10
587.8149175856552
 20
272.1589698804705
 42
-1.0
 10
587.9610824143431
 20
282.723958846052
 42
-0.1806552584468526
 10
1050.447217837257
 20
102.6564173443653
 42
1.0
 10
1052.792634955669
 20
105.283869064314
 42
0.1807253348661957
 10
587.8163514862173
 20
286.2482719569185
 42
-1.0
 10
587.9596485137827
 20
296.813300208745
 42
-0.1810098255225443
 10
1060.423187840187
 20
112.6351272731412
 42
1.0
 10
1062.771498764036
 20
115.2599929468336
 42
0.1810772131062406
 10
587.8177302023296
 20
300.3375242824661
 42
-1.0
 10
587.9582697976694
 20
310.9025895743677
 42
-0.0708545589242385
 10
793.4217134206377
 20
278.8457666424414
 42
1.0
 10
794.4499001826312
 20
282.2143443812597
 42
0.0709176593982363
 10
587.8190568595583
 20
314.4267296550288
 42
-1.0
 10
587.9569431404421
 20
324.991829908862
 42
-0.0683072614227323
 10
790.0540089602874
 20
294.5609068831417
 42
1.0
 10
791.0471371716513
 20
297.9399866921714
 42
0.0683680017908352
 10
587.8203343517959
 20
328.5158906665833
 42
-1.0
 10
587.9556656482022
 20
339.0810239568078
 42
-0.0707476413686906
 10
800.974554690439
 20
305.9993638803144
 42
-0.4784976775868932
 10
804.0483344173615
 20
298.3673101307065
 42
0.4070135839703339
 10
808.0477136350985
 20
283.5335123997524
 42
-0.3517056221783672
 10
810.3779356005246
 20
277.3434895150392
 10
809.7726233174302
 20
275.4943075861241
 42
0.4128186527775485
 10
810.8904284267955
 20
273.2754788429426
 42
-0.1028083506606697
 10
1070.398614730469
 20
122.6131896466084
 42
1.0
 10
1072.749706293931
 20
125.2355649935434
 42
0.0999139889989552
 10
820.043279758422
 20
273.8914721688447
 42
-1.0
 10
823.4928162748898
 20
283.8785164674123
 42
-0.1001715779817544
 10
1080.373529001828
 20
132.5906408186433
 42
1.0
 10
1082.727294546471
 20
135.2106163454081
 42
0.0989610765475569
 10
828.0613532050134
 20
286.0175305434367
 42
-1.0
 10
831.5587325287388
 20
295.987921401672
 42
-0.0992091469449854
 10
1090.347958905408
 20
142.567514470181
 42
1.0
 10
1092.704297790884
 20
145.1851758418629
 42
0.1820555956502688
 10
587.8215653623603
 20
342.6050097217725
 42
-1.0
 10
587.9544346376404
 20
353.1701742616978
 42
-0.1823002431971129
 10
1100.321930652356
 20
152.5438418505957
 42
1.0
 10
1102.680747812214
 20
155.1592702297261
 42
0.1823582867775107
 10
587.8227523827744
 20
356.69408905453
 42
-1.0
 10
587.9532476172236
 20
367.2592831840189
 42
-0.1825942827798994
 10
1110.295468594818
 20
162.5196519933665
 42
1.0
 10
1112.656674132542
 20
165.1329243497464
 42
0.1826502942274997
 10
587.8238977296381
 20
370.7831307429636
 42
-1.0
 10
587.9521022703626
 20
381.3483529174255
 42
-0.1828780898565998
 10
1120.26859538799
 20
172.4949719091806
 42
1.0
 10
1122.632104208968
 20
175.1061613035294
 42
0.1829321740648794
 10
587.8250035596763
 20
384.8721367227101
 42
-1.0
 10
587.9509964403223
 20
395.4373855032183
 42
-0.1831521896420589
 10
1130.241332135474
 20
182.4698267591943
 42
1.0
 10
1132.607063611124
 20
185.0790026032339
 42
0.1779961507598362
 10
604.4754008768609
 20
398.5979299236798
 42
0.085016472598306
 10
602.9704727649661
 20
398.3893392880398
 42
-0.084120828272934
 10
601.5263200423881
 20
398.186553910634
 42
0.0025418837663388
 10
593.1409140691827
 20
398.3816052699896
  0
LWPOLYLINE
  5
3BEE
330
2
100
AcDbEntity
  8
mechanical
100
AcDbPolyline
 90
       16
 70
   129
 43
0.5
 10
400.4332003038398
 20
69.09795815557675
 10
399.1207003038399
 20
68.47295815557675
 10
398.3082003038398
 20
66.66045815557669
 10
397.8707003038398
 20
63.72295815557652
 10
397.8707003038398
 20
61.91045815557675
 10
398.3082003038398
 20
58.91045815557664
 10
399.1207003038399
 20
57.16045815557652
 10
400.4332003038398
 20
56.59795815557675
 10
401.2457003038398
 20
56.59795815557675
 10
402.5582003038398
 20
57.16045815557652
 10
403.3082003038398
 20
58.91045815557664
 10
403.6832003038398
 20
61.91045815557675
 10
403.6832003038398
 20
63.72295815557652
 10
403.3082003038398
 20
66.66045815557669
 10
402.5582003038398
 20
68.47295815557675
 10
401.2457003038398
 20
69.09795815557675
  0
POINT
  5
3BF0
330
2
100
AcDbEntity
  8
mechanical
100
AcDbPoint
 10
446.8082003038398
 20
50.03545815557675
 30
0.0
  0
LWPOLYLINE
  5
3BF1
330
2
100
AcDbEntity
  8
mechanical
100
AcDbPolyline
 90
        3
 70
   128
 43
0.5
 10
424.9957003038398
 20
57.91045815557669
 10
427.6207003038398
 20
67.84795815557675
 10
430.2457003038398
 20
57.91045815557669
  0
LWPOLYLINE
  5
3BF2
330
2
100
AcDbEntity
  8
mechanical
100
AcDbPolyline
 90
        2
 70
   128
 43
0.5
 10
425.9332003038398
 20
61.16045815557658
 10
429.3082003038398
 20
61.16045815557658
  0
LWPOLYLINE
  5
3BF4
330
2
100
AcDbEntity
  8
mechanical
100
AcDbPolyline
 90
        3
 70
   128
 43
0.5
 10
326.8707003038398
 20
56.59795815557675
 10
330.2457003038398
 20
69.09795815557675
 10
333.4957003038399
 20
56.59795815557675
  0
LWPOLYLINE
  5
3BF5
330
2
100
AcDbEntity
  8
mechanical
100
AcDbPolyline
 90
        2
 70
   128
 43
0.5
 10
328.1207003038399
 20
60.72295815557669
 10
332.2457003038398
 20
60.72295815557669
  0
LWPOLYLINE
  5
3BF6
330
2
100
AcDbEntity
  8
mechanical
100
AcDbPolyline
 90
        2
 70
   128
 43
0.5
 10
337.3082003038399
 20
69.09795815557675
 10
337.3082003038399
 20
56.59795815557675
  0
LWPOLYLINE
  5
3BF7
330
2
100
AcDbEntity
  8
mechanical
100
AcDbPolyline
 90
        2
 70
   128
 43
0.5
 10
334.3707003038399
 20
69.09795815557675
 10
340.1832003038399
 20
69.09795815557675
  0
LWPOLYLINE
  5
3BF8
330
2
100
AcDbEntity
  8
mechanical
100
AcDbPolyline
 90
        3
 70
   128
 43
0.5
 10
342.3082003038398
 20
69.09795815557675
 10
342.3082003038398
 20
56.59795815557675
 10
347.3082003038399
 20
56.59795815557675
  0
LWPOLYLINE
  5
3BF9
330
2
100
AcDbEntity
  8
mechanical
100
AcDbPolyline
 90
        2
 70
   128
 43
0.5
 10
349.3707003038398
 20
69.09795815557675
 10
349.3707003038398
 20
56.59795815557675
  0
LWPOLYLINE
  5
3BFA
330
2
100
AcDbEntity
  8
mechanical
100
AcDbPolyline
 90
       18
 70
   128
 43
0.5
 10
358.4957003038399
 20
66.09795815557664
 10
358.0582003038399
 20
67.28545815557669
 10
357.3082003038398
 20
68.47295815557675
 10
356.4957003038399
 20
69.09795815557675
 10
354.8082003038398
 20
69.09795815557675
 10
353.9332003038398
 20
68.47295815557675
 10
353.1207003038399
 20
67.28545815557669
 10
352.6832003038399
 20
66.09795815557664
 10
352.2457003038399
 20
64.34795815557652
 10
352.2457003038399
 20
61.34795815557669
 10
352.6832003038399
 20
59.53545815557664
 10
353.1207003038399
 20
58.28545815557664
 10
353.9332003038398
 20
57.09795815557658
 10
354.8082003038398
 20
56.59795815557675
 10
356.4957003038399
 20
56.59795815557675
 10
357.3082003038398
 20
57.09795815557658
 10
358.0582003038399
 20
58.28545815557664
 10
358.4957003038399
 20
59.53545815557664
  0
LWPOLYLINE
  5
3BFB
330
2
100
AcDbEntity
  8
mechanical
100
AcDbPolyline
 90
        4
 70
   128
 43
0.5
 10
366.8707003038398
 20
56.59795815557675
 10
361.4332003038398
 20
56.59795815557675
 10
361.4332003038398
 20
69.09795815557675
 10
366.8707003038398
 20
69.09795815557675
  0
LWPOLYLINE
  5
3BFC
330
2
100
AcDbEntity
  8
mechanical
100
AcDbPolyline
 90
        2
 70
   128
 43
0.5
 10
361.4332003038398
 20
63.03545815557658
 10
364.7457003038399
 20
63.03545815557658
  0
LWPOLYLINE
  5
3BFD
330
2
100
AcDbEntity
  8
mechanical
100
AcDbPolyline
 90
       16
 70
   129
 43
0.5
 10
381.4957003038399
 20
69.09795815557675
 10
380.3082003038398
 20
68.47295815557675
 10
379.4957003038399
 20
66.66045815557669
 10
379.0582003038398
 20
63.66045815557658
 10
379.0582003038398
 20
61.91045815557675
 10
379.4957003038399
 20
58.91045815557664
 10
380.3082003038398
 20
57.09795815557658
 10
381.4957003038399
 20
56.59795815557675
 10
382.3082003038398
 20
56.59795815557675
 10
383.6207003038398
 20
57.09795815557658
 10
384.4332003038399
 20
58.91045815557664
 10
384.8707003038398
 20
61.91045815557675
 10
384.8707003038398
 20
63.66045815557658
 10
384.4332003038399
 20
66.66045815557669
 10
383.6207003038398
 20
68.47295815557675
 10
382.3082003038398
 20
69.09795815557675
  0
LWPOLYLINE
  5
3BFE
330
2
100
AcDbEntity
  8
mechanical
100
AcDbPolyline
 90
       16
 70
   129
 43
0.5
 10
389.8082003038398
 20
69.09795815557675
 10
388.5582003038398
 20
68.47295815557675
 10
387.7457003038399
 20
66.66045815557669
 10
387.4332003038398
 20
63.66045815557658
 10
387.4332003038398
 20
61.91045815557675
 10
387.7457003038399
 20
58.91045815557664
 10
388.5582003038398
 20
57.09795815557658
 10
389.8082003038398
 20
56.59795815557675
 10
390.6832003038399
 20
56.59795815557675
 10
391.9332003038399
 20
57.09795815557658
 10
392.8082003038398
 20
58.91045815557664
 10
393.2457003038398
 20
61.91045815557675
 10
393.2457003038398
 20
63.66045815557658
 10
392.8082003038398
 20
66.66045815557669
 10
391.9332003038399
 20
68.47295815557675
 10
390.6832003038399
 20
69.09795815557675
  0
LWPOLYLINE
  5
3C77
330
2
100
AcDbEntity
  8
mechanical
100
AcDbPolyline
 90
        4
 70
     1
 43
1.0
 10
318.5582003038399
 20
75.16045815557664
 10
446.8082003038398
 20
75.16045815557664
 10
446.8082003038398
 20
50.03545815557675
 10
318.5582003038399
 20
50.03545815557675
  0
LWPOLYLINE
  5
3C78
330
2
100
AcDbEntity
  8
mechanical
100
AcDbPolyline
 90
       15
 70
   128
 43
0.5
 10
407.2457003038398
 20
69.09795815557661
 10
411.8082003038398
 20
69.09795815557661
 10
409.3707003038398
 20
64.34795815557666
 10
410.5582003038398
 20
64.34795815557666
 10
411.4332003038398
 20
63.78545815557675
 10
411.8082003038398
 20
63.16045815557675
 10
412.2457003038398
 20
61.34795815557669
 10
412.2457003038398
 20
60.22295815557672
 10
411.8082003038398
 20
58.41045815557666
 10
410.9957003038398
 20
57.22295815557675
 10
409.6832003038398
 20
56.59795815557675
 10
408.5582003038398
 20
56.59795815557675
 10
407.2457003038398
 20
57.22295815557675
 10
406.8707003038398
 20
57.91045815557669
 10
406.4332003038398
 20
59.03545815557666
  0
LWPOLYLINE
  5
3C79
330
2
100
AcDbEntity
  8
mechanical
100
AcDbPolyline
 90
        3
 70
   128
 43
0.5
 10
432.9332003038398
 20
57.91045815557669
 10
436.3082003038398
 20
67.91045815557684
 10
431.6207003038398
 20
67.91045815557684
  0
VIEWPORT
  5
17F
102
{ACAD_XDICTIONARY
360
3C8F
102
}
330
148
100
AcDbEntity
 67
     1
  8
0
  6
Continuous
100
AcDbViewport
 10
539.4629528462933
 20
436.6083350012517
 30
0.0
 40
1387.054359180414
 41
867.4927515749562
 68
     1
 69
     1
 12
539.4629528462933
 22
436.6083350012517
 13
0.0
 23
0.0
 14
10.0
 24
10.0
 15
10.0
 25
10.0
 16
0.0
 26
0.0
 36
1.0
 17
0.0
 27
0.0
 37
0.0
 42
50.0
 43
0.0
 44
0.0
 45
867.4927515749562
 50
0.0
 51
0.0
 72
   100
 90
    32800
  1

281
     0
 71
     1
 74
     0
110
0.0
120
0.0
130
0.0
111
1.0
121
0.0
131
0.0
112
0.0
122
1.0
132
0.0
 79
     0
146
0.0
  0
VIEWPORT
  5
181
102
{ACAD_XDICTIONARY
360
3C91
102
}
330
148
100
AcDbEntity
 67
     1
  8
0
  6
Continuous
100
AcDbViewport
 10
573.7436809539794
 20
392.7263202667236
 30
0.0
 40
917.9898895263672
 41
628.3621124267579
 68
     2
 69
     2
 12
454.7134502953538
 22
167.0708391774632
 13
0.0
 23
0.0
 14
1.0
 24
1.0
 15
0.0
 25
0.0
 16
0.0
 26
0.0
 36
1.0
 17
0.0
 27
0.0
 37
0.0
 42
50.0
 43
0.0
 44
0.0
 45
558.6397812350369
 50
0.0
 51
0.0
 72
   100
 90
    32800
  1

281
     0
 71
     1
 74
     0
110
0.0
120
0.0
130
0.0
111
1.0
121
0.0
131
0.0
112
0.0
122
1.0
132
0.0
 79
     1
146
0.0
  0
ENDSEC
  0
SECTION
  2
OBJECTS
  0
DICTIONARY
  5
9
330
0
100
AcDbDictionary
281
     1
  3
ACAD_COLOR
350
162
  3
ACAD_GROUP
350
15E
  3
ACAD_LAYOUT
350
147
  3
ACAD_MATERIAL
350
161
  3
ACAD_MLINESTYLE
350
15F
  3
ACAD_PLOTSETTINGS
350
160
  3
ACAD_PLOTSTYLENAME
350
8
  3
ACAD_TABLESTYLE
350
16D5
  3
ACAD_VISUALSTYLE
350
16C4
  3
AcDbVariableDictionary
350
16B
  3
ADE_QUERY_LIBRARY
350
16EA
  3
ASE_INDEX_DICTIONARY
350
6DB
  3
Autodesk_MAP
350
16D9
  3
DWGPROPS
350
3C8A
1001
ADE
1000
ADE02C004
1000
[Query]
1000
CaseSensitiveMatch=0
1000
SaveCurrQueryInSession=1
1000
MkSelSetWithQryObj=0
1000
ShowBlockAsInsPt=0
1000
CreateAssociativeHatchObjects=0
1000
ReferenceBoundaryForAreaLocation=1
1000
ShowImageAsBoundary=1
1000
DefaultJoinOperator=2
1000
ColorForAdd=red
1000
ColorForRemove=red
1000
BlockLocnForQuery=1
1000
TextLocnForQuery=1
1000
IncludeAllObjectsInGroups=0
1000
AlwaysUseLibraryDefinitions=0
1000
PreviewDefinitionsFrom=2
1000
[Save Back]
1000
RedefineBlockDefinitions=1
1000
RedefineLayerDefinitions=1
1000
RedefineTextStyleDefinitions=1
1000
RemoveUnusedGroups=1
1000
EraseSavedBackObjects=1
1000
RemoveLockAfterSave=1
1000
CreateHistoryFileOfChanges=0
1000
CreateBackupFileOfSourceDwg=1
1000
DontAddObjectsToSaveSet=0
1000
MarkObjectsForEditingWithoutPrompting=0
1000
FdoDontAddObjsToSvSet=0
1000
FdoEditWithoutPrompt=1
1000
FdoRemUnusedGrps=1
1000
FdoEraseSvdBkObjs=1
1000
FdoRemoveLockOnSave=1
1000
FdoTesselationMaxPointsDistance=0
1000
FdoTesselationMaxCurvesDistance=0
1000
[Coordinate Transformation]
1000
RestoreLastActiveDwgsOnStartup=1
1000
ActivateDwgsOnAttach=1
1000
AdjustSizesAndScalesForChangesInUnits=1
1000
AdjustRotationsForMapDistortions=1
1000
AdjustSizesAndScalesForMapDistortions=1
1000
AdjustElevations=1
1000
AdjustZeroRotationObjects=1
1000
ReconnectDbOnWSOpen=1
1000
NoOfSQLConditionsInHistory=10
  0
DICTIONARY
  5
18FA
330
14E
100
AcDbDictionary
280
     1
281
     1
  3
ACAD_LAYERFILTERS
360
3B54
  3
ACLYDICTIONARY
360
3B53
  0
DICTIONARY
  5
3
330
2
100
AcDbDictionary
280
     1
281
     1
  3
ACAD_LAYOUTSELFREF
360
4
  3
ACAD_SORTENTS
360
1703
  0
DICTIONARY
  5
149
330
148
100
AcDbDictionary
280
     1
281
     1
  3
ACAD_LAYOUTSELFREF
360
14A
  0
DICTIONARY
  5
3C8F
330
17F
100
AcDbDictionary
280
     1
281
     1
  3
ACAD_XREC_ROUNDTRIP
360
3C90
  0
DICTIONARY
  5
3C91
330
181
100
AcDbDictionary
280
     1
281
     1
  3
ACAD_XREC_ROUNDTRIP
360
3C92
  0
DICTIONARY
  5
162
102
{ACAD_REACTORS
330
9
102
}
330
9
100
AcDbDictionary
281
     1
  0
DICTIONARY
  5
15E
102
{ACAD_REACTORS
330
9
102
}
330
9
100
AcDbDictionary
281
     1
  0
DICTIONARY
  5
147
102
{ACAD_REACTORS
330
9
102
}
330
9
100
AcDbDictionary
281
     1
  3
Layout1
350
14D
  3
Model
350
146
  0
DICTIONARY
  5
161
102
{ACAD_REACTORS
330
9
102
}
330
9
100
AcDbDictionary
281
     1
  3
ByBlock
350
16C2
  3
ByLayer
350
16C1
  3
Global
350
16C3
  0
DICTIONARY
  5
15F
102
{ACAD_REACTORS
330
9
102
}
330
9
100
AcDbDictionary
281
     1
  3
STANDARD
350
163
  0
DICTIONARY
  5
160
102
{ACAD_REACTORS
330
9
102
}
330
9
100
AcDbDictionary
281
     1
  0
ACDBDICTIONARYWDFLT
  5
8
102
{ACAD_REACTORS
330
9
102
}
330
9
100
AcDbDictionary
281
     1
  3
Normal
350
7
100
AcDbDictionaryWithDefault
340
7
  0
DICTIONARY
  5
16D5
102
{ACAD_REACTORS
330
9
102
}
330
9
100
AcDbDictionary
281
     1
  3
Legend
350
16DF
  3
Standard
350
16D6
  0
DICTIONARY
  5
16C4
102
{ACAD_REACTORS
330
9
102
}
330
9
100
AcDbDictionary
281
     1
  3
2dWireframe
350
16CA
  3
3D Hidden
350
16CC
  3
3dWireframe
350
16CB
  3
Basic
350
16C9
  3
Brighten
350
16D0
  3
ColorChange
350
16D4
  3
Conceptual
350
16CD
  3
Dim
350
16CF
  3
Facepattern
350
16D3
  3
Flat
350
16C5
  3
FlatWithEdges
350
16C6
  3
Gouraud
350
16C7
  3
GouraudWithEdges
350
16C8
  3
Linepattern
350
16D2
  3
Realistic
350
16CE
  3
Thicken
350
16D1
  0
DICTIONARY
  5
16B
102
{ACAD_REACTORS
330
9
102
}
330
9
100
AcDbDictionary
281
     1
  3
CTABLESTYLE
350
16ED
  3
DIMASSOC
350
16D
  3
HIDETEXT
350
16C
  3
INDEXCTL
350
3C89
  3
PROJECTNAME
350
16E
  3
SORTENTS
350
7B5
  0
DICTIONARY
  5
16EA
102
{ACAD_REACTORS
330
9
102
}
330
9
100
AcDbDictionary
281
     1
  3
_CurrQry
350
3C88
  0
DICTIONARY
  5
6DB
102
{ACAD_REACTORS
330
9
102
}
330
9
100
AcDbDictionary
281
     1
  3
ASEBlockHierarchyIndexRecord
350
6DC
1001
DCO15
1040
1584427491.083
  0
DICTIONARY
  5
16D9
102
{ACAD_REACTORS
330
9
102
}
330
9
100
AcDbDictionary
281
     1
  3
AcMapDMStylizedEntities
350
16E6
  3
FSD_Dictionary
350
16E7
  3
MAP_DISPLAY_CUSTOMOBJ_REG_TABLE
350
16DD
  3
MAP_DISPLAY_MANAGEMENT_DICTIONARY
350
16DA
  3
MAP_DISPLAY_STYLELIBRARY_DICTIONARY
350
16DB
1001
MapGWS
1000
C:\Documents and Settings\All Users\Application Data\Autodesk\Autodesk Map 3D 2007\R17.0\MapCache\ATLICE-A7GWS12.xml
  0
XRECORD
  5
3C8A
102
{ACAD_REACTORS
330
9
102
}
330
9
100
AcDbXrecord
280
     1
  1
DWGPROPS COOKIE
  2

  3

  4

  6

  7

  8
janez
  9

300
=
301
=
302
=
303
=
304
=
305
=
306
=
307
=
308
=
309
=
 40
1.173845520833333
 41
2311946.475710706
 42
2454141.492998646
  1

 90
        0
  0
DICTIONARY
  5
3B54
102
{ACAD_REACTORS
330
18FA
102
}
330
18FA
100
AcDbDictionary
281
     1
  0
DICTIONARY
  5
3B53
102
{ACAD_REACTORS
330
18FA
102
}
330
18FA
100
AcDbDictionary
281
     1
1001
ACAD
1000
<All
  0
XRECORD
  5
4
102
{ACAD_REACTORS
330
3
102
}
330
3
100
AcDbXrecord
280
     1
340
2
  0
SORTENTSTABLE
  5
1703
102
{ACAD_REACTORS
330
3
102
}
330
3
100
AcDbSortentsTable
330
2
331
2D49
  5
2E5F
331
2E70
  5
3A22
331
384F
  5
3B17
331
2D91
  5
2F6B
331
3877
  5
3B1F
331
387F
  5
3B27
331
3887
  5
3B2F
331
2F60
  5
3AFC
331
2CB2
  5
2CB2
331
2DD1
  5
3915
331
3BEE
  5
3BEE
331
2DD9
  5
3935
331
2F68
  5
3B04
331
3BF6
  5
3BF6
331
2DE1
  5
397F
331
38A7
  5
3B39
331
3BFE
  5
3BFE
331
38AF
  5
3B41
331
38C7
  5
3B47
331
2D4A
  5
2E60
331
2E71
  5
3A23
331
3870
  5
3B18
331
2D7A
  5
2EE0
331
2D92
  5
2F7C
331
3878
  5
3B20
331
3880
  5
3B28
331
2F59
  5
3AF5
331
3888
  5
3B30
331
2DD2
  5
3918
331
2CB3
  5
2CB3
331
2F61
  5
3AFD
331
2F69
  5
3B05
331
2DDA
  5
3937
331
2CBB
  5
2CBB
331
38A0
  5
3B32
331
2D43
  5
2E59
331
2DE2
  5
3980
331
38A8
  5
3B3A
331
3BF7
  5
3BF7
331
2D4B
  5
2E61
331
2E72
  5
3A24
331
38C8
  5
3B48
331
3871
  5
3B19
331
2EA2
  5
3A5C
331
3C77
  5
3C77
331
3879
  5
3B21
331
2F5A
  5
3AF6
331
3881
  5
3B29
331
3889
  5
3B31
331
2DD3
  5
391E
331
2CB4
  5
2CB4
331
2F62
  5
3AFE
331
2F6A
  5
3B06
331
2CBC
  5
2CBC
331
2DDB
  5
3940
331
38A1
  5
3B33
331
3BF0
  5
3BF0
331
2D44
  5
2E5A
331
2DE3
  5
3982
331
38A9
  5
3B3B
331
3BF8
  5
3BF8
331
2E6B
  5
3A16
331
2D4C
  5
2E62
331
2E73
  5
3A25
331
38C9
  5
3B49
331
3872
  5
3B1A
331
3C78
  5
3C78
331
2EB3
  5
3A82
331
387A
  5
3B22
331
2CAD
  5
2CAD
331
2F5B
  5
3AF7
331
3882
  5
3B2A
331
2F63
  5
3AFF
331
2DD4
  5
3922
331
2CB5
  5
2CB5
331
2DDC
  5
3944
331
2CBD
  5
2CBD
331
2F6B
  5
3B07
331
38A2
  5
3B34
331
3BF1
  5
3BF1
331
38AA
  5
3B3C
331
2D45
  5
2E5B
331
3BF9
  5
3BF9
331
2E6C
  5
3A1C
331
38C2
  5
3B42
331
2D4D
  5
2E63
331
2E74
  5
3A26
331
38CA
  5
3B4A
331
3873
  5
3B1B
331
38D2
  5
39AE
331
3C79
  5
3C79
331
387B
  5
3B23
331
2EB4
  5
3A87
331
2CAE
  5
2CAE
331
2F5C
  5
3AF8
331
3883
  5
3B2B
331
2F64
  5
3B00
331
2CB6
  5
2CB6
331
2DD5
  5
3924
331
2DDD
  5
3979
331
2F6C
  5
3B08
331
38A3
  5
3B35
331
3BF2
  5
3BF2
331
38AB
  5
3B3D
331
2D46
  5
2E5C
331
3BFA
  5
3BFA
331
2E6D
  5
3A1E
331
38C3
  5
3B43
331
2D4E
  5
2E64
331
2E75
  5
3A27
331
38CB
  5
3B4B
331
3874
  5
3B1C
331
387C
  5
3B24
331
2CAF
  5
2CAF
331
2F5D
  5
3AF9
331
3884
  5
3B2C
331
2F65
  5
3B01
331
2CB7
  5
2CB7
331
2DD6
  5
3928
331
2DDE
  5
397A
331
2F6D
  5
3B09
331
38A4
  5
3B36
331
3BFB
  5
3BFB
331
38AC
  5
3B3E
331
2D47
  5
2E5D
331
2E6E
  5
3A20
331
38C4
  5
3B44
331
2D4F
  5
2E6B
331
2E76
  5
3A2B
331
38CC
  5
3B4C
331
3875
  5
3B1D
331
387D
  5
3B25
331
2DCF
  5
390F
331
2F5E
  5
3AFA
331
3885
  5
3B2D
331
2CB0
  5
2CB0
331
2F66
  5
3B02
331
2CB8
  5
2CB8
331
2DD7
  5
392E
331
3BF4
  5
3BF4
331
38A5
  5
3B37
331
2DDF
  5
397B
331
3BFC
  5
3BFC
331
38AD
  5
3B3F
331
38C5
  5
3B45
331
2E6F
  5
3A21
331
2D48
  5
2E5E
331
2E77
  5
3A31
331
38CD
  5
3B4D
331
3876
  5
3B1E
331
3A0D
  5
39A2
331
387E
  5
3B26
331
2F5F
  5
3AFB
331
3886
  5
3B2E
331
2CB1
  5
2CB1
331
2DD0
  5
3914
331
2DD8
  5
3931
331
2CB9
  5
2CB9
331
2F67
  5
3B03
331
3BF5
  5
3BF5
331
38A6
  5
3B38
331
2DE0
  5
397C
331
3BFD
  5
3BFD
331
38AE
  5
3B40
331
38C6
  5
3B46
  0
XRECORD
  5
14A
102
{ACAD_REACTORS
330
149
102
}
330
149
100
AcDbXrecord
280
     1
340
148
  0
XRECORD
  5
3C90
102
{ACAD_REACTORS
330
3C8F
102
}
330
3C8F
100
AcDbXrecord
280
     1
102
SHADEPLOT
 70
     0
  0
XRECORD
  5
3C92
102
{ACAD_REACTORS
330
3C91
102
}
330
3C91
100
AcDbXrecord
280
     1
102
SHADEPLOT
 70
     0
  0
LAYOUT
  5
14D
102
{ACAD_XDICTIONARY
360
3C8D
102
}
102
{ACAD_REACTORS
330
147
102
}
330
147
100
AcDbPlotSettings
  1

  2
\\ris\laserc
  4
A4
  6

 40
6.805083274841308
 41
5.069413185119628
 42
6.805084228515625
 43
5.027069091796875
 44
209.9733276367187
 45
296.9683227539062
 46
0.0
 47
0.0
 48
0.0
 49
0.0
140
0.0
141
0.0
142
1.0
143
4.0
 70
   688
 72
     1
 73
     1
 74
     5
  7
monochrome.ctb
 75
    18
147
0.25
148
0.0
149
0.0
100
AcDbLayout
  1
Layout1
 70
     0
 71
     1
 10
-20.1082763671875
 20
-27.22033309936524
 11
1167.765014648437
 21
812.6729774475098
 12
0.0
 22
0.0
 32
0.0
 14
114.7487361907958
 24
78.54526405334468
 34
0.0
 15
1032.738625717163
 25
706.9073764801025
 35
0.0
146
0.0
 13
0.0
 23
0.0
 33
0.0
 16
1.0
 26
0.0
 36
0.0
 17
0.0
 27
1.0
 37
0.0
 76
     0
330
148
331
17F
  0
LAYOUT
  5
146
102
{ACAD_XDICTIONARY
360
3C8B
102
}
102
{ACAD_REACTORS
330
147
102
}
330
147
100
AcDbPlotSettings
  1

  2
\\ris\laserc
  4
A4
  6

 40
6.805083274841308
 41
5.069413185119628
 42
6.805084228515625
 43
5.027069091796875
 44
209.9733276367187
 45
296.9683227539062
 46
11.4
 47
35.65
 48
36.08173645326978
 49
39.13963998603622
140
251.6490471755318
141
212.6978016188405
142
1.0
143
1.0
 70
 11956
 72
     1
 73
     1
 74
     4
  7
monochrome.ctb
 75
    16
147
1.0
148
-36.08173645326978
149
-39.13963998603622
100
AcDbLayout
  1
Model
 70
     1
 71
     0
 10
0.0
 20
0.0
 11
12.0
 21
9.0
 12
0.0
 22
0.0
 32
0.0
 14
0.0
 24
0.0
 34
0.0
 15
0.0
 25
0.0
 35
0.0
146
0.0
 13
0.0
 23
0.0
 33
0.0
 16
1.0
 26
0.0
 36
0.0
 17
0.0
 27
1.0
 37
0.0
 76
     0
330
2
331
16BF
  0
MATERIAL
  5
16C2
102
{ACAD_XDICTIONARY
360
3C95
102
}
102
{ACAD_REACTORS
330
161
102
}
330
161
100
AcDbMaterial
  1
ByBlock
  0
MATERIAL
  5
16C1
102
{ACAD_XDICTIONARY
360
3C93
102
}
102
{ACAD_REACTORS
330
161
102
}
330
161
100
AcDbMaterial
  1
ByLayer
  0
MATERIAL
  5
16C3
102
{ACAD_XDICTIONARY
360
3C97
102
}
102
{ACAD_REACTORS
330
161
102
}
330
161
100
AcDbMaterial
  1
Global
  0
MLINESTYLE
  5
163
102
{ACAD_REACTORS
330
15F
102
}
330
15F
100
AcDbMlineStyle
  2
STANDARD
 70
     0
  3

 62
     0
 51
90.0
 52
90.0
 71
     2
 49
0.5
 62
   256
  6
BYLAYER
 49
-0.5
 62
   256
  6
BYLAYER
  0
ACDBPLACEHOLDER
  5
7
102
{ACAD_REACTORS
330
8
102
}
330
8
  0
TABLESTYLE
  5
16DF
102
{ACAD_XDICTIONARY
360
3C9B
102
}
102
{ACAD_REACTORS
330
16D5
102
}
330
16D5
100
AcDbTableStyle
  3

 70
     0
 71
     1
 40
0.06
 41
0.06
280
     0
281
     0
  7
STANDARD
140
0.4
170
     4
 62
     0
 63
     7
283
     0
274
    -2
284
     0
 64
     0
275
    -2
285
     0
 65
     0
276
    -2
286
     1
 66
     0
277
    -2
287
     1
 67
     0
278
    -2
288
     0
 68
     0
279
    -2
289
     1
 69
     0
  7
STANDARD
140
0.5
170
     5
 62
     0
 63
     7
283
     0
274
    -2
284
     1
 64
     0
275
    -2
285
     0
 65
     0
276
    -2
286
     1
 66
     0
277
    -2
287
     1
 67
     0
278
    -2
288
     0
 68
     0
279
    -2
289
     1
 69
     0
  7
STANDARD
140
0.4
170
     4
 62
     0
 63
     7
283
     0
274
    -2
284
     1
 64
     0
275
    -2
285
     0
 65
     0
276
    -2
286
     1
 66
     0
277
    -2
287
     1
 67
     0
278
    -2
288
     0
 68
     0
279
    -2
289
     1
 69
     0
  0
TABLESTYLE
  5
16D6
102
{ACAD_XDICTIONARY
360
3C99
102
}
102
{ACAD_REACTORS
330
16D5
102
}
330
16D5
100
AcDbTableStyle
  3
Standard
 70
     0
 71
     0
 40
1.5
 41
1.5
280
     0
281
     0
  7
STANDARD
140
4.5
170
     2
 62
     0
 63
     7
283
     0
274
    -2
284
     1
 64
     0
275
    -2
285
     1
 65
     0
276
    -2
286
     1
 66
     0
277
    -2
287
     1
 67
     0
278
    -2
288
     1
 68
     0
279
    -2
289
     1
 69
     0
  7
STANDARD
140
6.0
170
     5
 62
     0
 63
     7
283
     0
274
    -2
284
     1
 64
     0
275
    -2
285
     1
 65
     0
276
    -2
286
     1
 66
     0
277
    -2
287
     1
 67
     0
278
    -2
288
     1
 68
     0
279
    -2
289
     1
 69
     0
  7
STANDARD
140
4.5
170
     5
 62
     0
 63
     7
283
     0
274
    -2
284
     1
 64
     0
275
    -2
285
     1
 65
     0
276
    -2
286
     1
 66
     0
277
    -2
287
     1
 67
     0
278
    -2
288
     1
 68
     0
279
    -2
289
     1
 69
     0
  0
VISUALSTYLE
  5
16CA
102
{ACAD_REACTORS
330
16C4
102
}
330
16C4
100
AcDbVisualStyle
  2
2dWireframe
 70
     4
 71
     0
 72
     2
 73
     0
 90
        0
 40
-0.6
 41
-30.0
 62
     5
 63
     7
 74
     1
 91
        4
 64
     7
 65
   257
 75
     1
175
     1
 42
1.0
 92
        0
 66
   257
 43
1.0
 76
     1
 77
     6
 78
     2
 67
     7
 79
     5
170
     0
171
     0
290
     0
174
     0
 93
        1
 44
0.0
173
     0
291
     0
 45
0.0
1001
ACAD
1000
AcDbSavedByObjectVersion
1070
     0
  0
VISUALSTYLE
  5
16CC
102
{ACAD_REACTORS
330
16C4
102
}
330
16C4
100
AcDbVisualStyle
  2
3D Hidden
 70
     6
 71
     1
 72
     2
 73
     2
 90
        0
 40
-0.6
 41
-30.0
 62
     5
 63
     7
 74
     2
 91
        2
 64
     7
 65
   257
 75
     2
175
     1
 42
40.0
 92
        0
 66
   257
 43
1.0
 76
     1
 77
     6
 78
     2
 67
     7
 79
     3
170
     0
171
     0
290
     0
174
     0
 93
        1
 44
0.0
173
     0
291
     0
 45
0.0
1001
ACAD
1000
AcDbSavedByObjectVersion
1070
     0
  0
VISUALSTYLE
  5
16CB
102
{ACAD_REACTORS
330
16C4
102
}
330
16C4
100
AcDbVisualStyle
  2
3dWireframe
 70
     5
 71
     0
 72
     2
 73
     0
 90
        0
 40
-0.6
 41
-30.0
 62
     5
 63
     7
 74
     1
 91
        4
 64
     7
 65
   257
 75
     1
175
     1
 42
1.0
 92
        0
 66
   257
 43
1.0
 76
     1
 77
     6
 78
     2
 67
     7
 79
     5
170
     0
171
     0
290
     0
174
     0
 93
        1
 44
0.0
173
     0
291
     0
 45
0.0
1001
ACAD
1000
AcDbSavedByObjectVersion
1070
     0
  0
VISUALSTYLE
  5
16C9
102
{ACAD_REACTORS
330
16C4
102
}
330
16C4
100
AcDbVisualStyle
  2
Basic
 70
     7
 71
     1
 72
     0
 73
     1
 90
        0
 40
-0.6
 41
-30.0
 62
     5
 63
     7
 74
     0
 91
        4
 64
     7
 65
   257
 75
     1
175
     1
 42
1.0
 92
        8
 66
     7
 43
1.0
 76
     1
 77
     6
 78
     2
 67
     7
 79
     5
170
     0
171
     0
290
     0
174
     0
 93
        1
 44
0.0
173
     0
291
     1
 45
0.0
1001
ACAD
1000
AcDbSavedByObjectVersion
1070
     0
  0
VISUALSTYLE
  5
16D0
102
{ACAD_REACTORS
330
16C4
102
}
330
16C4
100
AcDbVisualStyle
  2
Brighten
 70
    12
 71
     2
 72
     2
 73
     0
 90
        0
 40
-0.6
 41
-30.0
 62
     5
 63
     7
 74
     1
 91
        4
 64
     7
 65
   257
 75
     1
175
     1
 42
1.0
 92
        8
 66
     7
 43
1.0
 76
     1
 77
     6
 78
     2
 67
     7
 79
     5
170
     0
171
     0
290
     0
174
     0
 93
        1
 44
50.0
173
     0
291
     1
 45
0.0
1001
ACAD
1000
AcDbSavedByObjectVersion
1070
     0
  0
VISUALSTYLE
  5
16D4
102
{ACAD_REACTORS
330
16C4
102
}
330
16C4
100
AcDbVisualStyle
  2
ColorChange
 70
    16
 71
     2
 72
     2
 73
     3
 90
        0
 40
-0.6
 41
-30.0
 62
     5
 63
     8
 74
     1
 91
        4
 64
     7
 65
   257
 75
     1
175
     1
 42
1.0
 92
        8
 66
     8
 43
1.0
 76
     1
 77
     6
 78
     2
 67
     7
 79
     5
170
     0
171
     0
290
     0
174
     0
 93
        1
 44
0.0
173
     0
291
     1
 45
0.0
1001
ACAD
1000
AcDbSavedByObjectVersion
1070
     0
  0
VISUALSTYLE
  5
16CD
102
{ACAD_REACTORS
330
16C4
102
}
330
16C4
100
AcDbVisualStyle
  2
Conceptual
 70
     9
 71
     3
 72
     2
 73
     0
 90
        0
 40
-0.6
 41
-30.0
 62
     5
 63
     7
 74
     2
 91
        2
 64
     7
 65
   257
 75
     1
175
     1
 42
40.0
 92
        8
 66
     7
 43
1.0
 76
     1
 77
     6
 78
     2
 67
     7
 79
     3
170
     0
171
     0
290
     0
174
     0
 93
        1
 44
0.0
173
     0
291
     0
 45
0.0
1001
ACAD
1000
AcDbSavedByObjectVersion
1070
     0
  0
VISUALSTYLE
  5
16CF
102
{ACAD_REACTORS
330
16C4
102
}
330
16C4
100
AcDbVisualStyle
  2
Dim
 70
    11
 71
     2
 72
     2
 73
     0
 90
        0
 40
-0.6
 41
-30.0
 62
     5
 63
     7
 74
     1
 91
        4
 64
     7
 65
   257
 75
     1
175
     1
 42
1.0
 92
        8
 66
     7
 43
1.0
 76
     1
 77
     6
 78
     2
 67
     7
 79
     5
170
     0
171
     0
290
     0
174
     0
 93
        1
 44
-50.0
173
     0
291
     1
 45
0.0
1001
ACAD
1000
AcDbSavedByObjectVersion
1070
     0
  0
VISUALSTYLE
  5
16D3
102
{ACAD_REACTORS
330
16C4
102
}
330
16C4
100
AcDbVisualStyle
  2
Facepattern
 70
    15
 71
     2
 72
     2
 73
     0
 90
        0
 40
-0.6
 41
-30.0
 62
     5
 63
     7
 74
     1
 91
        4
 64
     7
 65
   257
 75
     1
175
     1
 42
1.0
 92
        8
 66
     7
 43
1.0
 76
     1
 77
     6
 78
     2
 67
     7
 79
     5
170
     0
171
     0
290
     0
174
     0
 93
        1
 44
0.0
173
     0
291
     1
 45
0.0
1001
ACAD
1000
AcDbSavedByObjectVersion
1070
     0
  0
VISUALSTYLE
  5
16C5
102
{ACAD_REACTORS
330
16C4
102
}
330
16C4
100
AcDbVisualStyle
  2
Flat
 70
     0
 71
     2
 72
     1
 73
     1
 90
        2
 40
-0.6
 41
30.0
 62
     5
 63
     7
 74
     0
 91
        4
 64
     7
 65
   257
 75
     1
175
     1
 42
1.0
 92
        8
 66
     7
 43
1.0
 76
     1
 77
     6
 78
     2
 67
     7
 79
     5
170
     0
171
     0
290
     0
174
     0
 93
       13
 44
0.0
173
     0
291
     1
 45
0.0
1001
ACAD
1000
AcDbSavedByObjectVersion
1070
     0
  0
VISUALSTYLE
  5
16C6
102
{ACAD_REACTORS
330
16C4
102
}
330
16C4
100
AcDbVisualStyle
  2
FlatWithEdges
 70
     1
 71
     2
 72
     1
 73
     1
 90
        2
 40
-0.6
 41
30.0
 62
     5
 63
     7
 74
     1
 91
        4
 64
     7
 65
   257
 75
     1
175
     1
 42
1.0
 92
        0
 66
   257
 43
1.0
 76
     1
 77
     6
 78
     2
 67
     7
 79
     5
170
     0
171
     0
290
     0
174
     0
 93
       13
 44
0.0
173
     0
291
     1
 45
0.0
1001
ACAD
1000
AcDbSavedByObjectVersion
1070
     0
  0
VISUALSTYLE
  5
16C7
102
{ACAD_REACTORS
330
16C4
102
}
330
16C4
100
AcDbVisualStyle
  2
Gouraud
 70
     2
 71
     2
 72
     2
 73
     1
 90
        2
 40
-0.6
 41
30.0
 62
     5
 63
     7
 74
     0
 91
        4
 64
     7
 65
   257
 75
     1
175
     1
 42
1.0
 92
        0
 66
     7
 43
1.0
 76
     1
 77
     6
 78
     2
 67
     7
 79
     5
170
     0
171
     0
290
     0
174
     0
 93
       13
 44
0.0
173
     0
291
     1
 45
0.0
1001
ACAD
1000
AcDbSavedByObjectVersion
1070
     0
  0
VISUALSTYLE
  5
16C8
102
{ACAD_REACTORS
330
16C4
102
}
330
16C4
100
AcDbVisualStyle
  2
GouraudWithEdges
 70
     3
 71
     2
 72
     2
 73
     1
 90
        2
 40
-0.6
 41
30.0
 62
     5
 63
     7
 74
     1
 91
        4
 64
     7
 65
   257
 75
     1
175
     1
 42
1.0
 92
        0
 66
   257
 43
1.0
 76
     1
 77
     6
 78
     2
 67
     7
 79
     5
170
     0
171
     0
290
     0
174
     0
 93
       13
 44
0.0
173
     0
291
     1
 45
0.0
1001
ACAD
1000
AcDbSavedByObjectVersion
1070
     0
  0
VISUALSTYLE
  5
16D2
102
{ACAD_REACTORS
330
16C4
102
}
330
16C4
100
AcDbVisualStyle
  2
Linepattern
 70
    14
 71
     2
 72
     2
 73
     0
 90
        0
 40
-0.6
 41
-30.0
 62
     5
 63
     7
 74
     1
 91
        4
 64
     7
 65
   257
 75
     7
175
     7
 42
1.0
 92
        8
 66
     7
 43
1.0
 76
     1
 77
     6
 78
     2
 67
     7
 79
     5
170
     0
171
     0
290
     0
174
     0
 93
        1
 44
0.0
173
     0
291
     1
 45
0.0
1001
ACAD
1000
AcDbSavedByObjectVersion
1070
     0
  0
VISUALSTYLE
  5
16CE
102
{ACAD_REACTORS
330
16C4
102
}
330
16C4
100
AcDbVisualStyle
  2
Realistic
 70
     8
 71
     2
 72
     2
 73
     0
 90
        0
 40
-0.6
 41
-30.0
 62
     5
 63
     7
 74
     1
 91
        0
 64
     7
 65
   257
 75
     1
175
     1
 42
1.0
 92
        8
 66
     8
 43
1.0
 76
     1
 77
     6
 78
     2
 67
     7
 79
     5
170
     0
171
     0
290
     0
174
     0
 93
       13
 44
0.0
173
     0
291
     0
 45
0.0
1001
ACAD
1000
AcDbSavedByObjectVersion
1070
     0
  0
VISUALSTYLE
  5
16D1
102
{ACAD_REACTORS
330
16C4
102
}
330
16C4
100
AcDbVisualStyle
  2
Thicken
 70
    13
 71
     2
 72
     2
 73
     0
 90
        0
 40
-0.6
 41
-30.0
 62
     5
 63
     7
 74
     1
 91
        4
 64
     7
 65
   257
 75
     1
175
     1
 42
1.0
 92
       12
 66
     7
 43
1.0
 76
     1
 77
     6
 78
     2
 67
     7
 79
     5
170
     0
171
     0
290
     0
174
     0
 93
        1
 44
0.0
173
     0
291
     1
 45
0.0
1001
ACAD
1000
AcDbSavedByObjectVersion
1070
     0
  0
DICTIONARYVAR
  5
16ED
102
{ACAD_REACTORS
330
16B
102
}
330
16B
100
DictionaryVariables
280
     0
  1
STANDARD
  0
DICTIONARYVAR
  5
16D
102
{ACAD_REACTORS
330
16B
102
}
330
16B
100
DictionaryVariables
280
     0
  1
1
  0
DICTIONARYVAR
  5
16C
102
{ACAD_REACTORS
330
16B
102
}
330
16B
100
DictionaryVariables
280
     0
  1
1
  0
DICTIONARYVAR
  5
3C89
102
{ACAD_REACTORS
330
16B
102
}
330
16B
100
DictionaryVariables
280
     0
  1
0
  0
DICTIONARYVAR
  5
16E
102
{ACAD_REACTORS
330
16B
102
}
330
16B
100
DictionaryVariables
280
     0
  1

  0
DICTIONARYVAR
  5
7B5
102
{ACAD_REACTORS
330
16B
102
}
330
16B
100
DictionaryVariables
280
     0
  1
96
  0
XRECORD
  5
3C88
102
{ACAD_REACTORS
330
16EA
102
}
330
16EA
100
AcDbXrecord
280
     1
1000
ADE02C001
1070
     1
1070
     0
1002
{
1002
}
1002
{
1002
}
1002
{
1002
}
1000

  0
XRECORD
  5
6DC
102
{ACAD_REACTORS
330
6DB
102
}
330
6DB
100
AcDbXrecord
280
     1
  0
DMSTYLIZEDENTITIESTABLE
  5
16E6
102
{ACAD_REACTORS
330
16D9
102
}
330
16D9
100
AcMapDMStylizedEntitiesTable
 70
     1
  0
DICTIONARY
  5
16E7
102
{ACAD_REACTORS
330
16D9
102
}
330
16D9
100
AcDbDictionary
280
     1
281
     1
  0
ACDBDATATABLE
  5
16DD
102
{ACAD_REACTORS
330
16D9
102
}
330
16D9
100
ACDBDATATABLE
 70
     2
 90
        4
 91
       15
  1

 92
        3
  2
OriginalClassName
  3
AcMapDMDefaultStyle
  3
AcMapDMEntityStyle
  3
AcMapDMRasterStyle
  3
AcMapDMSEAnnotationStyle
  3
AcMapDMSEHatchStyle
  3
AcMapDMSETextStyle
  3
AcMapDMThematicStyle
  3
AcMapDMBaseElement
  3
AcMapDMAttachedDwgsQueryElement
  3
AcMapDMFeatureElement
  3
AcMapDMLayerElement
  3
AcMapDMCurrentDwgQueryElement
  3
AcMapDMRasterElement
  3
AcMapDMTopoElement
  3
AcMapDMTopoQueryElement
 92
        3
  2
ProxyDisplayName
  3
Default
  3
Entity
  3
Raster
  3
Annotation
  3
Hatch
  3
Text
  3
Thematic
  3
Map Base
  3
Ade Query
  3
Feature Class
  3
Layer
  3
Ade Project Query
  3
Raster
  3
Topology
  3
Topology Query
 92
        1
  2
CustomObjectType
 93
        2
 93
        2
 93
        2
 93
        2
 93
        2
 93
        2
 93
        2
 93
        1
 93
        1
 93
        1
 93
        1
 93
        1
 93
        1
 93
        1
 93
        1
 92
        1
  2
StyleCoExistanceType
 93
        1
 93
        1
 93
        1
 93
        1
 93
        1
 93
        1
 93
        2
 93
        0
 93
        0
 93
        0
 93
        0
 93
        0
 93
        0
 93
        0
 93
        0
  0
DMMAPMANAGER
  5
16DA
102
{ACAD_REACTORS
330
16D9
102
}
330
16D9
100
AcDbDictionary
281
     1
  3
DisplayMap1
350
16DE
100
AcDbDictionaryWithDefault
340
16DE
100
AcMapDMMapManager
 70
     1
340
16DE
  0
DMSTYLELIBRARY
  5
16DB
102
{ACAD_REACTORS
330
16D9
102
}
330
16D9
100
AcMapDMStyleLibrary
 70
     1
 70
     1
360
16DC
  0
DICTIONARY
  5
3C8D
330
14D
100
AcDbDictionary
280
     1
281
     1
  3
ACAD_XREC_ROUNDTRIP
360
3C8E
  0
DICTIONARY
  5
3C8B
330
146
100
AcDbDictionary
280
     1
281
     1
  3
ACAD_XREC_ROUNDTRIP
360
3C8C
  0
DICTIONARY
  5
3C95
330
16C2
100
AcDbDictionary
280
     1
281
     1
  3
ACAD_XREC_ROUNDTRIP
360
3C96
  0
DICTIONARY
  5
3C93
330
16C1
100
AcDbDictionary
280
     1
281
     1
  3
ACAD_XREC_ROUNDTRIP
360
3C94
  0
DICTIONARY
  5
3C97
330
16C3
100
AcDbDictionary
280
     1
281
     1
  3
ACAD_XREC_ROUNDTRIP
360
3C98
  0
DICTIONARY
  5
3C9B
330
16DF
100
AcDbDictionary
280
     1
281
     1
  3
ACAD_XREC_ROUNDTRIP
360
3C9C
  0
DICTIONARY
  5
3C99
330
16D6
100
AcDbDictionary
280
     1
281
     1
  3
ACAD_XREC_ROUNDTRIP
360
3C9A
  0
DMMAP
  5
16DE
102
{ACAD_REACTORS
330
16DA
330
16E0
102
}
330
16DA
100
AcMapDMMap
 70
     1
  1
Default
 70
     1
330
0
100
AcMapDMMap
 70
     1
 90
        1
360
16E0
 90
        1
 40
1.797693134862314E+99
 70
     1
100
AcMapDMMap
 70
     2
 70
     0
 40
1.797693134862314E+99
290
     1
290
     1
 40
1.0
 40
3.0
  1
Legend
 90
        1
 40
1.797693134862314E+99
  1

 70
     0
 40
1.0
 70
     1
 90
        0
 90
        1
360
16E1
  0
DMSTYLECATEGORY
  5
16DC
102
{ACAD_REACTORS
330
16DB
102
}
330
0
100
AcMapDMStyleCategory
 70
     1
  1
Display Styles
 70
     0
  0
XRECORD
  5
3C8E
102
{ACAD_REACTORS
330
3C8D
102
}
330
3C8D
100
AcDbXrecord
280
     1
102
SHADEPLOT
 70
     0
102
SHADEPLOTRESLEVEL
 70
     2
102
SHADEPLOTCUSTOMDPI
 70
   300
  0
XRECORD
  5
3C8C
102
{ACAD_REACTORS
330
3C8B
102
}
330
3C8B
100
AcDbXrecord
280
     1
102
SHADEPLOT
 70
     0
102
SHADEPLOTRESLEVEL
 70
     2
102
SHADEPLOTCUSTOMDPI
 70
   300
  0
XRECORD
  5
3C96
102
{ACAD_REACTORS
330
3C95
102
}
330
3C95
100
AcDbXrecord
280
     1
102
MATERIAL
148
0.0
149
0.0
149
0.0
 93
        0
 94
       63
282
     0
 72
     1
 77
     1
171
     1
175
     1
179
     1
273
     0
  0
XRECORD
  5
3C94
102
{ACAD_REACTORS
330
3C93
102
}
330
3C93
100
AcDbXrecord
280
     1
102
MATERIAL
148
0.0
149
0.0
149
0.0
 93
        0
 94
       63
282
     0
 72
     1
 77
     1
171
     1
175
     1
179
     1
273
     0
  0
XRECORD
  5
3C98
102
{ACAD_REACTORS
330
3C97
102
}
330
3C97
100
AcDbXrecord
280
     1
102
MATERIAL
148
0.0
149
0.0
149
0.0
 93
        0
 94
       63
282
     0
 72
     1
 77
     1
171
     1
175
     1
179
     1
273
     0
  0
XRECORD
  5
3C9C
102
{ACAD_REACTORS
330
3C9B
102
}
330
3C9B
100
AcDbXrecord
280
     1
102
ACAD_ROUNDTRIP_PRE2007_TABLESTYLE
 90
      512
 91
        0
  1

 92
      512
 93
        0
  2

 94
      512
 95
        0
  3

  0
XRECORD
  5
3C9A
102
{ACAD_REACTORS
330
3C99
102
}
330
3C99
100
AcDbXrecord
280
     1
102
ACAD_ROUNDTRIP_PRE2007_TABLESTYLE
 90
      512
 91
        0
  1

 92
      512
 93
        0
  2

 94
      512
 95
        0
  3

  0
DMBASEELEMENT
  5
16E0
102
{ACAD_XDICTIONARY
360
16E4
102
}
102
{ACAD_REACTORS
330
16DE
102
}
330
16DE
100
AcMapDMBaseElement
 70
     1
  1
Map Base
 70
     1
330
16DE
100
AcMapDMBaseElement
 70
     1
  1

 70
     2
  1

 70
     1
 40
1.797693134862314E+99
 70
     1
 70
     1
 70
     1
 70
     1
360
16E3
100
AcMapDMBaseElement
 70
     1
  0
DMDEFAULTSTYLE
  5
16E1
102
{ACAD_REACTORS
330
16DE
102
}
330
16DE
100
AcMapDMDefaultStyle
 70
     1
 90
        1
  1
Default
100
AcMapDMDefaultStyle
 70
     1
280
   100
 90
     0
1001
AcMapDMDisplayStyleRegapp
1070
     2
1071
        1
1000
Default
1000

  0
DICTIONARY
  5
16E4
330
16E0
100
AcDbDictionary
280
     1
281
     1
  3
AcMapDMSurrogateStyleSets
360
16E5
  0
DMSTYLEREFERENCE
  5
16E3
330
16E0
100
AcMapDMStyleReference
 70
     1
 70
     0
340
16E1
330
16DE
  0
DMSURROGATESTYLESETS
  5
16E5
102
{ACAD_REACTORS
330
16E4
102
}
330
16E4
100
AcMapDMSurrogateStyleSets
 70
     1
  1
Map Base
 70
     1
 40
1.797693134862314E+99
 70
     1
 70
     1
 70
     1
 70
     1
330
16E3
 70
     0
  0
ENDSEC
  0
EOF
