  0
SECTION
  2
HEADER
  9
$ACADVER
  1
AC1015
  9
$ACADMAINTVER
 70
    20
  9
$DWGCODEPAGE
  3
ANSI_1250
  9
$INSBASE
 10
0.0
 20
0.0
 30
0.0
  9
$EXTMIN
 10
0.0
 20
0.0
 30
0.0
  9
$EXTMAX
 10
1156.299999999999
 20
417.565822928638
 30
0.0
  9
$LIMMIN
 10
0.0
 20
0.0
  9
$LIMMAX
 10
0.0
 20
0.0
  9
$ORTHOMODE
 70
     1
  9
$REGENMODE
 70
     1
  9
$FILLMODE
 70
     1
  9
$QTEXTMODE
 70
     0
  9
$MIRRTEXT
 70
     1
  9
$LTSCALE
 40
1.0
  9
$ATTMODE
 70
     1
  9
$TEXTSIZE
 40
0.2
  9
$TRACEWID
 40
0.05
  9
$TEXTSTYLE
  7
STANDARD
  9
$CLAYER
  8
0
  9
$CELTYPE
  6
BYLAYER
  9
$CECOLOR
 62
   256
  9
$CELTSCALE
 40
1.0
  9
$DISPSILH
 70
     0
  9
$DIMSCALE
 40
1.0
  9
$DIMASZ
 40
0.18
  9
$DIMEXO
 40
0.0625
  9
$DIMDLI
 40
0.38
  9
$DIMRND
 40
0.0
  9
$DIMDLE
 40
0.0
  9
$DIMEXE
 40
0.18
  9
$DIMTP
 40
0.0
  9
$DIMTM
 40
0.0
  9
$DIMTXT
 40
10.0
  9
$DIMCEN
 40
0.09
  9
$DIMTSZ
 40
0.0
  9
$DIMTOL
 70
     0
  9
$DIMLIM
 70
     0
  9
$DIMTIH
 70
     1
  9
$DIMTOH
 70
     1
  9
$DIMSE1
 70
     0
  9
$DIMSE2
 70
     0
  9
$DIMTAD
 70
     0
  9
$DIMZIN
 70
     0
  9
$DIMBLK
  1

  9
$DIMASO
 70
     1
  9
$DIMSHO
 70
     1
  9
$DIMPOST
  1

  9
$DIMAPOST
  1

  9
$DIMALT
 70
     0
  9
$DIMALTD
 70
     2
  9
$DIMALTF
 40
25.4
  9
$DIMLFAC
 40
1.0
  9
$DIMTOFL
 70
     0
  9
$DIMTVP
 40
0.0
  9
$DIMTIX
 70
     0
  9
$DIMSOXD
 70
     0
  9
$DIMSAH
 70
     0
  9
$DIMBLK1
  1

  9
$DIMBLK2
  1

  9
$DIMSTYLE
  2
STANDARD
  9
$DIMCLRD
 70
     0
  9
$DIMCLRE
 70
     0
  9
$DIMCLRT
 70
     0
  9
$DIMTFAC
 40
1.0
  9
$DIMGAP
 40
0.09
  9
$DIMJUST
 70
     0
  9
$DIMSD1
 70
     0
  9
$DIMSD2
 70
     0
  9
$DIMTOLJ
 70
     1
  9
$DIMTZIN
 70
     0
  9
$DIMALTZ
 70
     0
  9
$DIMALTTZ
 70
     0
  9
$DIMUPT
 70
     0
  9
$DIMDEC
 70
     4
  9
$DIMTDEC
 70
     4
  9
$DIMALTU
 70
     2
  9
$DIMALTTD
 70
     2
  9
$DIMTXSTY
  7
STANDARD
  9
$DIMAUNIT
 70
     0
  9
$DIMADEC
 70
     5
  9
$DIMALTRND
 40
0.0
  9
$DIMAZIN
 70
     0
  9
$DIMDSEP
 70
    46
  9
$DIMATFIT
 70
     3
  9
$DIMFRAC
 70
     0
  9
$DIMLDRBLK
  1

  9
$DIMLUNIT
 70
     2
  9
$DIMLWD
 70
    -2
  9
$DIMLWE
 70
    -2
  9
$DIMTMOVE
 70
     0
  9
$LUNITS
 70
     2
  9
$LUPREC
 70
     4
  9
$SKETCHINC
 40
0.1
  9
$FILLETRAD
 40
0.0
  9
$AUNITS
 70
     0
  9
$AUPREC
 70
     0
  9
$MENU
  1
acad
  9
$ELEVATION
 40
0.0
  9
$PELEVATION
 40
0.0
  9
$THICKNESS
 40
0.0
  9
$LIMCHECK
 70
     0
  9
$CHAMFERA
 40
0.0
  9
$CHAMFERB
 40
0.0
  9
$CHAMFERC
 40
0.0
  9
$CHAMFERD
 40
0.0
  9
$SKPOLY
 70
     0
  9
$TDCREATE
 40
2311946.475710706
  9
$TDUCREATE
 40
2311946.434044039
  9
$TDUPDATE
 40
2454141.493288542
  9
$TDUUPDATE
 40
2454141.451621875
  9
$TDINDWG
 40
1.2009697106
  9
$TDUSRTIMER
 40
1.2009695949
  9
$USRTIMER
 70
     1
  9
$ANGBASE
 50
0.0
  9
$ANGDIR
 70
     0
  9
$PDMODE
 70
     0
  9
$PDSIZE
 40
0.0
  9
$PLINEWID
 40
1.199999999999999
  9
$SPLFRAME
 70
     0
  9
$SPLINETYPE
 70
     6
  9
$SPLINESEGS
 70
     8
  9
$HANDSEED
  5
39FD
  9
$SURFTAB1
 70
     6
  9
$SURFTAB2
 70
     6
  9
$SURFTYPE
 70
     6
  9
$SURFU
 70
     6
  9
$SURFV
 70
     6
  9
$UCSBASE
  2

  9
$UCSNAME
  2

  9
$UCSORG
 10
0.0
 20
0.0
 30
0.0
  9
$UCSXDIR
 10
1.0
 20
0.0
 30
0.0
  9
$UCSYDIR
 10
0.0
 20
1.0
 30
0.0
  9
$UCSORTHOREF
  2

  9
$UCSORTHOVIEW
 70
     1
  9
$UCSORGTOP
 10
0.0
 20
0.0
 30
0.0
  9
$UCSORGBOTTOM
 10
0.0
 20
0.0
 30
0.0
  9
$UCSORGLEFT
 10
0.0
 20
0.0
 30
0.0
  9
$UCSORGRIGHT
 10
0.0
 20
0.0
 30
0.0
  9
$UCSORGFRONT
 10
0.0
 20
0.0
 30
0.0
  9
$UCSORGBACK
 10
0.0
 20
0.0
 30
0.0
  9
$PUCSBASE
  2

  9
$PUCSNAME
  2

  9
$PUCSORG
 10
0.0
 20
0.0
 30
0.0
  9
$PUCSXDIR
 10
1.0
 20
0.0
 30
0.0
  9
$PUCSYDIR
 10
0.0
 20
1.0
 30
0.0
  9
$PUCSORTHOREF
  2

  9
$PUCSORTHOVIEW
 70
     0
  9
$PUCSORGTOP
 10
0.0
 20
0.0
 30
0.0
  9
$PUCSORGBOTTOM
 10
0.0
 20
0.0
 30
0.0
  9
$PUCSORGLEFT
 10
0.0
 20
0.0
 30
0.0
  9
$PUCSORGRIGHT
 10
0.0
 20
0.0
 30
0.0
  9
$PUCSORGFRONT
 10
0.0
 20
0.0
 30
0.0
  9
$PUCSORGBACK
 10
0.0
 20
0.0
 30
0.0
  9
$USERI1
 70
     0
  9
$USERI2
 70
     0
  9
$USERI3
 70
     0
  9
$USERI4
 70
     0
  9
$USERI5
 70
     0
  9
$USERR1
 40
0.0
  9
$USERR2
 40
0.0
  9
$USERR3
 40
0.0
  9
$USERR4
 40
0.0
  9
$USERR5
 40
0.0
  9
$WORLDVIEW
 70
     1
  9
$SHADEDGE
 70
     3
  9
$SHADEDIF
 70
    70
  9
$TILEMODE
 70
     1
  9
$MAXACTVP
 70
    16
  9
$PINSBASE
 10
0.0
 20
0.0
 30
0.0
  9
$PLIMCHECK
 70
     0
  9
$PEXTMIN
 10
114.7487361907958
 20
78.54526405334468
 30
0.0
  9
$PEXTMAX
 10
1032.738625717163
 20
706.9073764801025
 30
0.0
  9
$PLIMMIN
 10
-20.1082763671875
 20
-27.22033309936524
  9
$PLIMMAX
 10
1167.765014648437
 20
812.6729774475098
  9
$UNITMODE
 70
     0
  9
$VISRETAIN
 70
     0
  9
$PLINEGEN
 70
     1
  9
$PSLTSCALE
 70
     0
  9
$TREEDEPTH
 70
  3020
  9
$CMLSTYLE
  2
STANDARD
  9
$CMLJUST
 70
     0
  9
$CMLSCALE
 40
1.0
  9
$PROXYGRAPHICS
 70
     0
  9
$MEASUREMENT
 70
     1
  9
$CELWEIGHT
370
    -1
  9
$ENDCAPS
280
     0
  9
$JOINSTYLE
280
     0
  9
$LWDISPLAY
290
     0
  9
$INSUNITS
 70
     0
  9
$HYPERLINKBASE
  1

  9
$STYLESHEET
  1
monochrome.ctb
  9
$XEDIT
290
     1
  9
$CEPSNTYPE
380
     0
  9
$PSTYLEMODE
290
     1
  9
$FINGERPRINTGUID
  2
{44CFACF6-FF42-4479-A730-8E27374F1164}
  9
$VERSIONGUID
  2
{F5A51452-CEC8-40B3-BEBA-EA036F48E6F7}
  9
$EXTNAMES
290
     1
  9
$PSVPSCALE
 40
0.0
  9
$OLESTARTUP
290
     0
  0
ENDSEC
  0
SECTION
  2
CLASSES
  0
CLASS
  1
IMAGE
  2
AcDbRasterImage
  3
ISM
 90
    34943
280
     0
281
     1
  0
CLASS
  1
DICTIONARYVAR
  2
AcDbDictionaryVar
  3
ObjectDBX Classes
 90
        0
280
     0
281
     0
  0
CLASS
  1
RASTERVARIABLES
  2
AcDbRasterVariables
  3
ISM
 90
    32768
280
     0
281
     0
  0
CLASS
  1
IMAGEDEF
  2
AcDbRasterImageDef
  3
ISM
 90
    32768
280
     0
281
     0
  0
CLASS
  1
IMAGEDEF_REACTOR
  2
AcDbRasterImageDefReactor
  3
ISM
 90
    32769
280
     0
281
     0
  0
CLASS
  1
IDBUFFER
  2
AcDbIdBuffer
  3
ObjectDBX Classes
 90
    32768
280
     0
281
     0
  0
CLASS
  1
SPATIAL_FILTER
  2
AcDbSpatialFilter
  3
ObjectDBX Classes
 90
    32768
280
     0
281
     0
  0
CLASS
  1
SORTENTSTABLE
  2
AcDbSortentsTable
  3
ObjectDBX Classes
 90
        0
280
     0
281
     0
  0
CLASS
  1
LAYER_INDEX
  2
AcDbLayerIndex
  3
ObjectDBX Classes
 90
    32768
280
     0
281
     0
  0
CLASS
  1
SPATIAL_INDEX
  2
AcDbSpatialIndex
  3
ObjectDBX Classes
 90
    32768
280
     0
281
     0
  0
CLASS
  1
OBJECT_PTR
  2
CAseDLPNTableRecord
  3
ASE-LPNTableRecord
 90
    32769
280
     0
281
     0
  0
CLASS
  1
LAYOUT
  2
AcDbLayout
  3
ObjectDBX Classes
 90
        0
280
     0
281
     0
  0
CLASS
  1
PLOTSETTINGS
  2
AcDbPlotSettings
  3
ObjectDBX Classes
 90
    32768
280
     0
281
     0
  0
CLASS
  1
ACDBDICTIONARYWDFLT
  2
AcDbDictionaryWithDefault
  3
ObjectDBX Classes
 90
        0
280
     0
281
     0
  0
CLASS
  1
ACDBPLACEHOLDER
  2
AcDbPlaceHolder
  3
ObjectDBX Classes
 90
        0
280
     0
281
     0
  0
CLASS
  1
VBA_PROJECT
  2
AcDbVbaProject
  3
acad
 90
    32768
280
     0
281
     0
  0
CLASS
  1
WIPEOUT
  2
AcDbWipeout
  3
"WipeOut|Product Desc: Object Enabler for WipeOut entity                        |Company: Autodesk, Inc.                        |WEB Address: www.autodesk.com"
 90
    34943
280
     0
281
     1
  0
CLASS
  1
WIPEOUTVARIABLES
  2
AcDbWipeoutVariables
  3
"WipeOut|Product Desc:     WipeOut Dbx Application|Company:          Autodesk, Inc.|WEB Address:      www.autodesk.com"
 90
    32768
280
     0
281
     0
  0
CLASS
  1
RTEXT
  2
RText
  3
RText|AutoCAD Express Tool|expresstools@autodesk.com
 90
    35839
280
     0
281
     1
  0
CLASS
  1
ARCALIGNEDTEXT
  2
AcDbArcAlignedText
  3
ATEXT|AutoCAD Express Tool|expresstools@autodesk.com
 90
    32768
280
     0
281
     1
  0
CLASS
  1
MATERIAL
  2
AcDbMaterial
  3
ObjectDBX Classes
 90
     1024
280
     0
281
     0
  0
CLASS
  1
VISUALSTYLE
  2
AcDbVisualStyle
  3
ObjectDBX Classes
 90
     4095
280
     0
281
     0
  0
CLASS
  1
TABLESTYLE
  2
AcDbTableStyle
  3
ObjectDBX Classes
 90
     4095
280
     0
281
     0
  0
CLASS
  1
DMMAPMANAGER
  2
AcMapDMMapManager
  3
AcMapDisplayManagement
 90
     1024
280
     0
281
     0
  0
CLASS
  1
DMSTYLELIBRARY
  2
AcMapDMStyleLibrary
  3
AcMapDisplayManagement
 90
     1024
280
     0
281
     0
  0
CLASS
  1
DMSTYLECATEGORY
  2
AcMapDMStyleCategory
  3
AcMapDisplayManagement
 90
     1024
280
     0
281
     0
  0
CLASS
  1
ACDBDATATABLE
  2
AcDbDataTable
  3
AcMapAnnotObj|Product Desc:     AutoCAD MAP DBX App for Annotation Entity|Company:          Autodesk,Inc.|WEB Address:      www.autodesk.com
 90
        0
280
     0
281
     0
  0
CLASS
  1
DMMAP
  2
AcMapDMMap
  3
AcMapDisplayManagement
 90
     1024
280
     0
281
     0
  0
CLASS
  1
DMBASEELEMENT
  2
AcMapDMBaseElement
  3
AcMapDisplayManagement
 90
     1024
280
     0
281
     0
  0
CLASS
  1
DMDEFAULTSTYLE
  2
AcMapDMDefaultStyle
  3
AcMapDisplayManagement
 90
     1024
280
     0
281
     0
  0
CLASS
  1
DMSTYLEREFERENCE
  2
AcMapDMStyleReference
  3
AcMapDisplayManagement
 90
     1024
280
     0
281
     0
  0
CLASS
  1
DMSURROGATESTYLESETS
  2
AcMapDMSurrogateStyleSets
  3
AcMapDisplayManagement
 90
     1153
280
     0
281
     0
  0
CLASS
  1
DMSTYLIZEDENTITIESTABLE
  2
AcMapDMStylizedEntitiesTable
  3
AcMapDisplayManagement
 90
     1024
280
     0
281
     0
  0
CLASS
  1
MAPGWSUNDOOBJECT
  2
AcMapGWSUndoRecorder
  3
AcMapFeatureSourceManager
 90
     1025
280
     0
281
     0
  0
ENDSEC
  0
SECTION
  2
TABLES
  0
TABLE
  2
VPORT
  5
157
330
0
100
AcDbSymbolTable
 70
     1
  0
VPORT
  5
16BF
330
157
100
AcDbSymbolTableRecord
100
AcDbViewportTableRecord
  2
*Active
 70
     0
 10
0.0
 20
0.0
 11
1.0
 21
1.0
 12
578.1499999999998
 22
208.782911464319
 13
0.0
 23
0.0
 14
1.0
 24
1.0
 15
0.0
 25
0.0
 16
0.0
 26
0.0
 36
1.0
 17
0.0
 27
0.0
 37
0.0
 40
747.7260212752311
 41
1.55400254129606
 42
50.0
 43
0.0
 44
0.0
 50
0.0
 51
0.0
 71
     0
 72
   100
 73
     1
 74
     1
 75
     0
 76
     0
 77
     0
 78
     0
281
     0
 65
     1
110
0.0
120
0.0
130
0.0
111
1.0
121
0.0
131
0.0
112
0.0
122
1.0
132
0.0
 79
     0
146
0.0
  0
ENDTAB
  0
TABLE
  2
LTYPE
  5
152
330
0
100
AcDbSymbolTable
 70
     1
  0
LTYPE
  5
153
330
152
100
AcDbSymbolTableRecord
100
AcDbLinetypeTableRecord
  2
BYBLOCK
 70
     0
  3

 72
    65
 73
     0
 40
0.0
  0
LTYPE
  5
154
330
152
100
AcDbSymbolTableRecord
100
AcDbLinetypeTableRecord
  2
BYLAYER
 70
     0
  3

 72
    65
 73
     0
 40
0.0
  0
LTYPE
  5
A
330
152
100
AcDbSymbolTableRecord
100
AcDbLinetypeTableRecord
  2
CONTINUOUS
 70
     0
  3
Solid line
 72
    65
 73
     0
 40
0.0
  0
ENDTAB
  0
TABLE
  2
LAYER
  5
14E
102
{ACAD_XDICTIONARY
360
18FA
102
}
330
0
100
AcDbSymbolTable
 70
     5
  0
LAYER
  5
6
330
14E
100
AcDbSymbolTableRecord
100
AcDbLayerTableRecord
  2
0
 70
     0
 62
     7
  6
CONTINUOUS
370
    -3
390
7
  0
LAYER
  5
C
330
14E
100
AcDbSymbolTableRecord
100
AcDbLayerTableRecord
  2
mechanical
 70
     0
 62
     6
  6
CONTINUOUS
370
    -3
390
7
  0
LAYER
  5
174
330
14E
100
AcDbSymbolTableRecord
100
AcDbLayerTableRecord
  2
copper
 70
     0
 62
     1
  6
CONTINUOUS
370
    -3
390
7
  0
LAYER
  5
41F
330
14E
100
AcDbSymbolTableRecord
100
AcDbLayerTableRecord
  2
Defpoints
 70
     0
 62
     7
  6
CONTINUOUS
290
     0
370
    -3
390
7
  0
LAYER
  5
794
330
14E
100
AcDbSymbolTableRecord
100
AcDbLayerTableRecord
  2
kapton
 70
     0
 62
     2
  6
CONTINUOUS
370
    -3
390
7
  0
ENDTAB
  0
TABLE
  2
STYLE
  5
14F
330
0
100
AcDbSymbolTable
 70
     1
  0
STYLE
  5
150
330
14F
100
AcDbSymbolTableRecord
100
AcDbTextStyleTableRecord
  2
STANDARD
 70
     0
 40
0.0
 41
1.0
 50
0.0
 71
     0
 42
0.2
  3
txt
  4

  0
ENDTAB
  0
TABLE
  2
VIEW
  5
155
330
0
100
AcDbSymbolTable
 70
     0
  0
ENDTAB
  0
TABLE
  2
UCS
  5
156
330
0
100
AcDbSymbolTable
 70
     0
  0
ENDTAB
  0
TABLE
  2
APPID
  5
159
330
0
100
AcDbSymbolTable
 70
     8
  0
APPID
  5
15A
330
159
100
AcDbSymbolTableRecord
100
AcDbRegAppTableRecord
  2
ACAD
 70
     0
  0
APPID
  5
189
330
159
100
AcDbSymbolTableRecord
100
AcDbRegAppTableRecord
  2
DCO15
 70
     0
  0
APPID
  5
16E2
330
159
100
AcDbSymbolTableRecord
100
AcDbRegAppTableRecord
  2
AcMapDMDisplayStyleRegapp
 70
     0
  0
APPID
  5
16E9
330
159
100
AcDbSymbolTableRecord
100
AcDbRegAppTableRecord
  2
ADE
 70
     0
  0
APPID
  5
16EC
330
159
100
AcDbSymbolTableRecord
100
AcDbRegAppTableRecord
  2
MapGWS
 70
     0
  0
APPID
  5
1738
330
159
100
AcDbSymbolTableRecord
100
AcDbRegAppTableRecord
  2
ACAD_PSEXT
 70
     0
  0
APPID
  5
18F8
330
159
100
AcDbSymbolTableRecord
100
AcDbRegAppTableRecord
  2
AcAecLayerStandard
 70
     0
  0
APPID
  5
3569
330
159
100
AcDbSymbolTableRecord
100
AcDbRegAppTableRecord
  2
ACAD_EXEMPT_FROM_CAD_STANDARDS
 70
     0
  0
ENDTAB
  0
TABLE
  2
DIMSTYLE
  5
15B
330
0
100
AcDbSymbolTable
 70
     1
100
AcDbDimStyleTable
 71
     1
340
15C
  0
DIMSTYLE
105
15C
330
15B
100
AcDbSymbolTableRecord
100
AcDbDimStyleTableRecord
  2
STANDARD
 70
     0
140
10.0
179
     5
340
150
  0
ENDTAB
  0
TABLE
  2
BLOCK_RECORD
  5
1
330
0
100
AcDbSymbolTable
 70
     0
  0
BLOCK_RECORD
  5
2
102
{ACAD_XDICTIONARY
360
3
102
}
330
1
100
AcDbSymbolTableRecord
100
AcDbBlockTableRecord
  2
*MODEL_SPACE
340
146
  0
BLOCK_RECORD
  5
148
102
{ACAD_XDICTIONARY
360
149
102
}
330
1
100
AcDbSymbolTableRecord
100
AcDbBlockTableRecord
  2
*PAPER_SPACE
340
14D
  0
ENDTAB
  0
ENDSEC
  0
SECTION
  2
BLOCKS
  0
BLOCK
  5
5
330
2
100
AcDbEntity
  8
0
100
AcDbBlockBegin
  2
*MODEL_SPACE
 70
     0
 10
0.0
 20
0.0
 30
0.0
  3
*MODEL_SPACE
  1

  0
ENDBLK
  5
145
330
2
100
AcDbEntity
  8
0
100
AcDbBlockEnd
  0
BLOCK
  5
14B
330
148
100
AcDbEntity
 67
     1
  8
0
100
AcDbBlockBegin
  2
*PAPER_SPACE
 70
     0
 10
0.0
 20
0.0
 30
0.0
  3
*PAPER_SPACE
  1

  0
ENDBLK
  5
14C
330
148
100
AcDbEntity
 67
     1
  8
0
100
AcDbBlockEnd
  0
ENDSEC
  0
SECTION
  2
ENTITIES
  0
LWPOLYLINE
  5
2F92
330
2
100
AcDbEntity
  8
mechanical
  6
Continuous
100
AcDbPolyline
 90
        2
 70
   128
 43
0.25
 10
972.1921412540067
 20
10.00000000000045
 42
0.3846436892416937
 10
184.1078587459924
 20
10.00000000000045
  0
LWPOLYLINE
  5
2F93
330
2
100
AcDbEntity
  8
mechanical
  6
Continuous
100
AcDbPolyline
 90
        2
 70
   128
 43
0.25
 10
1146.3
 20
184.1078587459928
 42
0.3933080422118196
 10
10.0
 20
184.1078587459928
  0
LWPOLYLINE
  5
2F94
330
2
100
AcDbEntity
  8
mechanical
  6
Continuous
100
AcDbPolyline
 90
        2
 70
   128
 43
0.25
 10
10.0
 20
184.1078587459928
 10
184.1078587459924
 20
10.0
  0
LWPOLYLINE
  5
2F95
330
2
100
AcDbEntity
  8
mechanical
  6
Continuous
100
AcDbPolyline
 90
        2
 70
   128
 43
0.25
 10
10.0
 20
184.1078587459928
 10
184.1078587459924
 20
10.0
  0
LWPOLYLINE
  5
2F96
330
2
100
AcDbEntity
  8
mechanical
  6
Continuous
100
AcDbPolyline
 90
        2
 70
   128
 43
0.25
 10
10.0
 20
184.1078587459928
 10
184.1078587459924
 20
10.0
  0
LWPOLYLINE
  5
2F97
330
2
100
AcDbEntity
  8
mechanical
  6
Continuous
100
AcDbPolyline
 90
        2
 70
   128
 43
0.25
 10
1146.3
 20
184.1078587459928
 10
972.1921412540067
 20
10.0
  0
LWPOLYLINE
  5
2F98
330
2
100
AcDbEntity
  8
mechanical
  6
Continuous
100
AcDbPolyline
 90
        2
 70
   129
 43
0.25
 10
375.6499999999996
 20
209.0
 42
0.9999999999999998
 10
361.6499999999996
 20
209.0
 42
0.9999999999999998
  0
LWPOLYLINE
  5
2F99
330
2
100
AcDbEntity
  8
mechanical
  6
Continuous
100
AcDbPolyline
 90
        2
 70
   129
 43
0.125
 10
1146.2375
 20
184.1078587459928
 42
1.0
 10
1146.362499999999
 20
184.1078587459928
 42
1.0
  0
LWPOLYLINE
  5
2F9A
330
2
100
AcDbEntity
  8
mechanical
  6
Continuous
100
AcDbPolyline
 90
        2
 70
   129
 43
0.125
 10
972.1296412540068
 20
10.0
 42
1.0
 10
972.2546412540069
 20
10.0
 42
1.0
  0
LWPOLYLINE
  5
2F9B
330
2
100
AcDbEntity
  8
mechanical
  6
Continuous
100
AcDbPolyline
 90
        2
 70
   129
 43
0.125
 10
184.0453587459924
 20
10.00000000000045
 42
1.0
 10
184.1703587459924
 20
10.00000000000045
 42
1.0
  0
LWPOLYLINE
  5
2F9C
330
2
100
AcDbEntity
  8
mechanical
  6
Continuous
100
AcDbPolyline
 90
        2
 70
   129
 43
0.125
 10
9.9375
 20
184.1078587459928
 42
1.0
 10
10.0625
 20
184.1078587459928
 42
1.0
  0
LWPOLYLINE
  5
2FA0
330
2
100
AcDbEntity
  8
mechanical
  6
Continuous
100
AcDbPolyline
 90
        2
 70
   129
 43
0.25
 10
349.6499999999997
 20
293.0
 42
0.9999999999999998
 10
335.6499999999996
 20
293.0
 42
0.9999999999999998
  0
LWPOLYLINE
  5
2FA1
330
2
100
AcDbEntity
  8
mechanical
  6
Continuous
100
AcDbPolyline
 90
        2
 70
   129
 43
0.25
 10
780.6499999999996
 20
209.0
 42
-0.9999999999999998
 10
794.6499999999996
 20
209.0
 42
-0.9999999999999998
  0
LWPOLYLINE
  5
2FA2
330
2
100
AcDbEntity
  8
mechanical
  6
Continuous
100
AcDbPolyline
 90
        2
 70
   129
 43
0.25
 10
806.6499999999996
 20
293.0
 42
-0.9999999999999998
 10
820.6499999999996
 20
293.0
 42
-0.9999999999999998
  0
LWPOLYLINE
  5
3028
330
2
100
AcDbEntity
  8
copper
  6
Continuous
100
AcDbPolyline
 90
        2
 70
   129
 43
2.25
 10
574.0249999999996
 20
402.8103881281931
 42
1.0
 10
576.2749999999996
 20
402.8103881281931
 42
1.0
  0
LWPOLYLINE
  5
3029
330
2
100
AcDbEntity
  8
copper
  6
Continuous
100
AcDbPolyline
 90
        2
 70
   129
 43
2.25
 10
574.0249999999996
 20
400.3103881281931
 42
1.0
 10
576.2749999999996
 20
400.3103881281931
 42
1.0
  0
LWPOLYLINE
  5
302A
330
2
100
AcDbEntity
  8
copper
  6
Continuous
100
AcDbPolyline
 90
        2
 70
   128
 43
4.5
 10
575.1499999999996
 20
402.8103881281931
 10
575.1499999999996
 20
400.3103881281931
  0
LWPOLYLINE
  5
302B
330
2
100
AcDbEntity
  8
copper
  6
Continuous
100
AcDbPolyline
 90
        2
 70
   129
 43
2.25
 10
568.0249999999996
 20
402.7669084403369
 42
1.0
 10
570.2749999999996
 20
402.7669084403369
 42
1.0
  0
LWPOLYLINE
  5
302C
330
2
100
AcDbEntity
  8
copper
  6
Continuous
100
AcDbPolyline
 90
        2
 70
   129
 43
2.25
 10
568.0249999999996
 20
400.2669084403369
 42
1.0
 10
570.2749999999996
 20
400.2669084403369
 42
1.0
  0
LWPOLYLINE
  5
302D
330
2
100
AcDbEntity
  8
copper
  6
Continuous
100
AcDbPolyline
 90
        2
 70
   128
 43
4.5
 10
569.1499999999996
 20
402.7669084403369
 10
569.1499999999996
 20
400.2669084403369
  0
LWPOLYLINE
  5
302E
330
2
100
AcDbEntity
  8
copper
  6
Continuous
100
AcDbPolyline
 90
        2
 70
   129
 43
2.25
 10
562.0249999999996
 20
402.6799422139228
 42
1.0
 10
564.2749999999996
 20
402.6799422139228
 42
1.0
  0
LWPOLYLINE
  5
302F
330
2
100
AcDbEntity
  8
copper
  6
Continuous
100
AcDbPolyline
 90
        2
 70
   129
 43
2.25
 10
562.0249999999996
 20
399.6799422139229
 42
1.0
 10
564.2749999999996
 20
399.6799422139229
 42
1.0
  0
LWPOLYLINE
  5
3030
330
2
100
AcDbEntity
  8
copper
  6
Continuous
100
AcDbPolyline
 90
        2
 70
   128
 43
4.5
 10
563.1499999999996
 20
402.6799422139228
 10
563.1499999999996
 20
399.6799422139229
  0
LWPOLYLINE
  5
3031
330
2
100
AcDbEntity
  8
copper
  6
Continuous
100
AcDbPolyline
 90
        2
 70
   129
 43
2.25
 10
557.1499999999996
 20
403.6744757421506
 42
1.0
 10
557.1499999999996
 20
401.4244757421506
 42
1.0
  0
LWPOLYLINE
  5
3032
330
2
100
AcDbEntity
  8
copper
  6
Continuous
100
AcDbPolyline
 90
        2
 70
   129
 43
2.25
 10
554.6499999999996
 20
403.6744757421506
 42
1.0
 10
554.6499999999996
 20
401.4244757421506
 42
1.0
  0
LWPOLYLINE
  5
3033
330
2
100
AcDbEntity
  8
copper
  6
Continuous
100
AcDbPolyline
 90
        2
 70
   128
 43
4.5
 10
557.1499999999996
 20
402.5494757421506
 10
554.6499999999996
 20
402.5494757421506
  0
LWPOLYLINE
  5
3034
330
2
100
AcDbEntity
  8
copper
  6
Continuous
100
AcDbPolyline
 90
        4
 70
   128
 10
571.7092123841939
 20
226.180040955559
 40
0.5
 41
0.5
 42
0.4113259762827774
 10
577.6499999999996
 20
232.1797487729082
 40
0.5
 41
0.5
 10
577.6499999999996
 20
394.2748542222603
 40
0.5
 41
0.5
 42
0.1989123673796574
 10
575.1499999999996
 20
400.3103881281931
 40
0.0
 41
0.0
  0
LWPOLYLINE
  5
305F
330
2
100
AcDbEntity
  8
copper
  6
Continuous
100
AcDbPolyline
 90
        4
 70
   128
 10
571.6993436534949
 20
227.1799922584505
 40
0.5
 41
0.5
 42
0.4113259762827774
 10
576.6499999999996
 20
232.1797487729082
 40
0.5
 41
0.5
 10
576.6499999999996
 20
388.494266611956
 40
0.5
 41
0.5
 42
0.2914734195860881
 10
569.1499999999996
 20
400.2669084403369
 40
0.0
 41
0.0
  0
LWPOLYLINE
  5
3076
330
2
100
AcDbEntity
  8
copper
100
AcDbPolyline
 90
        2
 70
   128
 43
0.5
 10
571.6993436534949
 20
227.1799922584505
 42
0.0373940479043851
 10
474.4153497368301
 20
218.9279039736739
 42
0.0373940479043851
  0
LWPOLYLINE
  5
3077
330
2
100
AcDbEntity
  8
copper
100
AcDbPolyline
 90
        2
 70
   128
 43
0.5
 10
571.7092123841939
 20
226.180040955559
 42
0.0373062883894825
 10
474.7999426179226
 20
217.9768462321836
 42
0.0373062883894825
  0
LWPOLYLINE
  5
30B4
330
2
100
AcDbEntity
  8
copper
100
AcDbPolyline
 90
        2
 70
   128
 43
0.5
 10
577.0896891671136
 20
399.8229397360724
 42
0.1439278700963342
 10
577.2015865830167
 20
397.0050229453505
  0
LWPOLYLINE
  5
30B5
330
2
100
AcDbEntity
  8
copper
100
AcDbPolyline
 90
        2
 70
   128
 43
0.5
 10
577.2238297128933
 20
396.9382281646472
 42
0.3360847324527215
 10
575.2368438113076
 20
398.3122744796647
  0
LWPOLYLINE
  5
30B6
330
2
100
AcDbEntity
  8
copper
100
AcDbPolyline
 90
        2
 70
   128
 43
0.5
 10
571.1157847701356
 20
400.6352699984581
 42
0.1581394831193099
 10
572.5921853954246
 20
397.9257834881587
  0
LWPOLYLINE
  5
30B7
330
2
100
AcDbEntity
  8
copper
100
AcDbPolyline
 90
        2
 70
   128
 43
0.5
 10
572.8812349185331
 20
397.6433901828818
 42
0.2863047326809761
 10
569.7906565488255
 20
398.3722952380063
  0
LWPOLYLINE
  5
30B8
330
2
100
AcDbEntity
  8
copper
100
AcDbPolyline
 90
        2
 70
   128
 43
0.5
 10
570.3350389790139
 20
398.8763718273212
 10
571.464841806579
 20
398.8763718273212
  0
LWPOLYLINE
  5
30B9
330
2
100
AcDbEntity
  8
copper
100
AcDbPolyline
 90
        2
 70
   128
 43
0.5
 10
571.2342735310885
 20
399.6484410573048
 10
571.2342735310885
 20
399.0492234818421
  0
LWPOLYLINE
  5
30BA
330
2
100
AcDbEntity
  8
copper
100
AcDbPolyline
 90
        2
 70
   128
 43
0.5
 10
576.3183688478402
 20
398.1388818895093
 10
576.3183688478402
 20
398.6343839916253
  0
LWPOLYLINE
  5
30BB
330
2
100
AcDbEntity
  8
copper
  6
Continuous
100
AcDbPolyline
 90
        2
 70
   128
 43
0.5
 10
469.8840658955551
 20
216.8142657005542
 42
0.0009581548465543
 10
467.4195413897236
 20
216.3946004051609
  0
LWPOLYLINE
  5
30BC
330
2
100
AcDbEntity
  8
copper
  6
Continuous
100
AcDbPolyline
 90
        2
 70
   128
 43
0.5
 10
470.693067655573
 20
215.1249033780759
 42
0.0011529678845086
 10
467.7354341591176
 20
214.6225050295052
  0
LWPOLYLINE
  5
30BD
330
2
100
AcDbEntity
  8
copper
100
AcDbPolyline
 90
        2
 70
   128
 43
1.199999999999999
 10
463.6765882499239
 20
215.7386264778861
 10
467.4195413897236
 20
216.3946004051609
  0
LWPOLYLINE
  5
30BE
330
2
100
AcDbEntity
  8
copper
100
AcDbPolyline
 90
        2
 70
   128
 43
1.199999999999999
 10
463.9924757322178
 20
213.9665612706972
 10
467.735434159089
 20
214.6225050295002
  0
LWPOLYLINE
  5
30BF
330
2
100
AcDbEntity
  8
copper
100
AcDbPolyline
 90
        2
 70
   129
 43
0.6
 10
463.4012618622464
 20
215.8577708450812
 42
1.0
 10
463.9519146376569
 20
215.619482110701
 42
1.0
  0
LWPOLYLINE
  5
30C0
330
2
100
AcDbEntity
  8
copper
100
AcDbPolyline
 90
        2
 70
   129
 43
0.6
 10
463.7171493445261
 20
214.0857056378895
 42
1.0
 10
464.2678021199367
 20
213.8474169035089
 42
1.0
  0
LWPOLYLINE
  5
30C1
330
2
100
AcDbEntity
  8
copper
100
AcDbPolyline
 90
        2
 70
   129
 43
0.6
 10
467.4601077713837
 20
214.7416493966912
 42
1.0
 10
468.0107605467942
 20
214.5033606623106
 42
1.0
  0
LWPOLYLINE
  5
30C2
330
2
100
AcDbEntity
  8
copper
100
AcDbPolyline
 90
        2
 70
   129
 43
0.6
 10
467.1442150020184
 20
216.5137447723519
 42
1.0
 10
467.6948677774289
 20
216.2754560379712
 42
1.0
  0
LWPOLYLINE
  5
30C3
330
2
100
AcDbEntity
  8
copper
100
AcDbPolyline
 90
        2
 70
   128
 43
0.5
 10
469.8840658955551
 20
216.8142657005542
 10
474.4153497368347
 20
218.9279039736762
  0
LWPOLYLINE
  5
30C4
330
2
100
AcDbEntity
  8
copper
100
AcDbPolyline
 90
        2
 70
   128
 43
0.5
 10
474.7999426179258
 20
217.9768462321858
 10
470.693067655573
 20
215.1249033780759
  0
LWPOLYLINE
  5
30C5
330
2
100
AcDbEntity
  8
copper
100
AcDbPolyline
 90
        2
 70
   129
 43
0.25
 10
470.5783483273626
 20
215.1745468644058
 42
1.0
 10
470.8077869837834
 20
215.0752598917466
 42
1.0
  0
LWPOLYLINE
  5
30C6
330
2
100
AcDbEntity
  8
copper
100
AcDbPolyline
 90
        2
 70
   129
 43
0.25
 10
474.6852232897153
 20
218.0264897185152
 42
1.0
 10
474.9146619461362
 20
217.927202745856
 42
1.0
  0
LWPOLYLINE
  5
30C7
330
2
100
AcDbEntity
  8
copper
100
AcDbPolyline
 90
        2
 70
   129
 43
0.25
 10
474.3006304086239
 20
218.9775474600051
 42
1.0
 10
474.5300690650451
 20
218.8782604873463
 42
1.0
  0
LWPOLYLINE
  5
30C8
330
2
100
AcDbEntity
  8
copper
100
AcDbPolyline
 90
        2
 70
   129
 43
0.25
 10
469.7693465673446
 20
216.863909186884
 42
1.0
 10
469.9987852237654
 20
216.7646222142248
 42
1.0
  0
LWPOLYLINE
  5
30E3
330
2
100
AcDbEntity
  8
copper
  6
Continuous
100
AcDbPolyline
 90
        2
 70
   128
 43
0.5
 10
932.9763240293205
 20
120.9124693894096
 42
-0.0009581548465543
 10
935.0714836078205
 20
119.5485389144147
  0
LWPOLYLINE
  5
30E4
330
2
100
AcDbEntity
  8
copper
  6
Continuous
100
AcDbPolyline
 90
        2
 70
   128
 43
0.5
 10
931.5629322389872
 20
119.6833426460099
 42
-0.0011529678845086
 10
934.0777876170442
 20
118.0476463332853
  0
LWPOLYLINE
  5
3152
330
2
100
AcDbEntity
  8
copper
  6
Continuous
100
AcDbPolyline
 90
        2
 70
   129
 43
2.25
 10
582.2749999999996
 20
402.8103881282041
 42
-1.0
 10
580.0249999999996
 20
402.8103881282041
 42
-1.0
  0
LWPOLYLINE
  5
3153
330
2
100
AcDbEntity
  8
copper
  6
Continuous
100
AcDbPolyline
 90
        2
 70
   129
 43
2.25
 10
582.2749999999996
 20
400.3103881282042
 42
-1.0
 10
580.0249999999996
 20
400.3103881282042
 42
-1.0
  0
LWPOLYLINE
  5
3154
330
2
100
AcDbEntity
  8
copper
  6
Continuous
100
AcDbPolyline
 90
        2
 70
   128
 43
4.5
 10
581.1499999999996
 20
402.8103881282041
 10
581.1499999999996
 20
400.3103881282042
  0
LWPOLYLINE
  5
3155
330
2
100
AcDbEntity
  8
copper
  6
Continuous
100
AcDbPolyline
 90
        2
 70
   129
 43
2.25
 10
588.2749999999996
 20
402.7669084403478
 42
-1.0
 10
586.0249999999996
 20
402.7669084403478
 42
-1.0
  0
LWPOLYLINE
  5
3156
330
2
100
AcDbEntity
  8
copper
  6
Continuous
100
AcDbPolyline
 90
        2
 70
   129
 43
2.25
 10
588.2749999999996
 20
400.2669084403478
 42
-1.0
 10
586.0249999999996
 20
400.2669084403478
 42
-1.0
  0
LWPOLYLINE
  5
3157
330
2
100
AcDbEntity
  8
copper
  6
Continuous
100
AcDbPolyline
 90
        2
 70
   128
 43
4.5
 10
587.1499999999996
 20
402.7669084403478
 10
587.1499999999996
 20
400.2669084403478
  0
LWPOLYLINE
  5
3158
330
2
100
AcDbEntity
  8
copper
  6
Continuous
100
AcDbPolyline
 90
        2
 70
   129
 43
2.25
 10
594.2749999999996
 20
402.6799422139339
 42
-1.0
 10
592.0249999999996
 20
402.6799422139339
 42
-1.0
  0
LWPOLYLINE
  5
3159
330
2
100
AcDbEntity
  8
copper
  6
Continuous
100
AcDbPolyline
 90
        2
 70
   129
 43
2.25
 10
594.2749999999996
 20
399.679942213934
 42
-1.0
 10
592.0249999999996
 20
399.679942213934
 42
-1.0
  0
LWPOLYLINE
  5
315A
330
2
100
AcDbEntity
  8
copper
  6
Continuous
100
AcDbPolyline
 90
        2
 70
   128
 43
4.5
 10
593.1499999999996
 20
402.6799422139339
 10
593.1499999999996
 20
399.679942213934
  0
LWPOLYLINE
  5
315B
330
2
100
AcDbEntity
  8
copper
  6
Continuous
100
AcDbPolyline
 90
        2
 70
   129
 43
2.25
 10
599.1499999999996
 20
403.6744757421615
 42
-1.0
 10
599.1499999999996
 20
401.4244757421615
 42
-1.0
  0
LWPOLYLINE
  5
315C
330
2
100
AcDbEntity
  8
copper
  6
Continuous
100
AcDbPolyline
 90
        2
 70
   129
 43
2.25
 10
601.6499999999996
 20
403.6744757421615
 42
-1.0
 10
601.6499999999996
 20
401.4244757421615
 42
-1.0
  0
LWPOLYLINE
  5
315D
330
2
100
AcDbEntity
  8
copper
  6
Continuous
100
AcDbPolyline
 90
        2
 70
   128
 43
4.5
 10
599.1499999999996
 20
402.5494757421616
 10
601.6499999999996
 20
402.5494757421616
  0
LWPOLYLINE
  5
315E
330
2
100
AcDbEntity
  8
copper
  6
Continuous
100
AcDbPolyline
 90
        4
 70
   128
 10
584.5907876158053
 20
226.1800409555699
 40
0.5
 41
0.5
 42
-0.4113259762827774
 10
578.6499999999996
 20
232.1797487729189
 40
0.5
 41
0.5
 10
578.6499999999996
 20
394.2748542222713
 40
0.5
 41
0.5
 42
-0.1989123673796574
 10
581.1499999999996
 20
400.3103881282042
 40
0.0
 41
0.0
  0
LWPOLYLINE
  5
3189
330
2
100
AcDbEntity
  8
copper
  6
Continuous
100
AcDbPolyline
 90
        4
 70
   128
 10
584.6006563465043
 20
227.1799922584614
 40
0.5
 41
0.5
 42
-0.4113259762827774
 10
579.6499999999996
 20
232.1797487729189
 40
0.5
 41
0.5
 10
579.6499999999996
 20
388.4942666119668
 40
0.5
 41
0.5
 42
-0.2914734195860881
 10
587.1499999999996
 20
400.2669084403478
 40
0.0
 41
0.0
  0
LWPOLYLINE
  5
319A
330
2
100
AcDbEntity
  8
copper
100
AcDbPolyline
 90
        2
 70
   128
 43
0.5
 10
584.6006563465043
 20
227.1799922584614
 42
-0.1403899696948136
 10
929.6571443054345
 20
124.6518605110212
 42
-0.1403899696948136
  0
LWPOLYLINE
  5
319B
330
2
100
AcDbEntity
  8
copper
100
AcDbPolyline
 90
        2
 70
   128
 43
0.5
 10
584.5907876158053
 20
226.18004095557
 42
-0.1403006062634337
 10
928.9264718339026
 20
123.9317631209544
 42
-0.1403006062634337
  0
LWPOLYLINE
  5
326A
330
2
100
AcDbEntity
  8
copper
100
AcDbPolyline
 90
        2
 70
   128
 43
0.5
 10
579.2103108328856
 20
399.8229397360832
 42
-0.1439278700963342
 10
579.098413416983
 20
397.0050229453613
  0
LWPOLYLINE
  5
326B
330
2
100
AcDbEntity
  8
copper
100
AcDbPolyline
 90
        2
 70
   128
 43
0.5
 10
579.0761702871058
 20
396.938228164658
 42
-0.3360847324527215
 10
581.0631561886911
 20
398.3122744796753
  0
LWPOLYLINE
  5
326C
330
2
100
AcDbEntity
  8
copper
100
AcDbPolyline
 90
        2
 70
   128
 43
0.5
 10
585.1842152298636
 20
400.6352699984691
 42
-0.1581394831193099
 10
583.7078146045747
 20
397.9257834881696
  0
LWPOLYLINE
  5
326D
330
2
100
AcDbEntity
  8
copper
100
AcDbPolyline
 90
        2
 70
   128
 43
0.5
 10
583.418765081466
 20
397.6433901828928
 42
-0.2863047326809761
 10
586.5093434511736
 20
398.3722952380171
  0
LWPOLYLINE
  5
326E
330
2
100
AcDbEntity
  8
copper
100
AcDbPolyline
 90
        2
 70
   128
 43
0.5
 10
585.9649610209853
 20
398.8763718273322
 10
584.8351581934203
 20
398.8763718273322
  0
LWPOLYLINE
  5
326F
330
2
100
AcDbEntity
  8
copper
100
AcDbPolyline
 90
        2
 70
   128
 43
0.5
 10
585.0657264689107
 20
399.6484410573157
 10
585.0657264689107
 20
399.049223481853
  0
LWPOLYLINE
  5
3270
330
2
100
AcDbEntity
  8
copper
100
AcDbPolyline
 90
        2
 70
   128
 43
0.5
 10
579.981631152159
 20
398.1388818895202
 10
579.981631152159
 20
398.6343839916362
  0
LWPOLYLINE
  5
3273
330
2
100
AcDbEntity
  8
copper
100
AcDbPolyline
 90
        2
 70
   128
 43
1.199999999999999
 10
938.2460775040613
 20
117.4600098641135
 10
935.0714836078205
 20
119.5485389144146
  0
LWPOLYLINE
  5
3274
330
2
100
AcDbEntity
  8
copper
100
AcDbPolyline
 90
        2
 70
   128
 43
1.199999999999999
 10
937.2523983468882
 20
115.959142870473
 10
934.0777876170687
 20
118.0476463332692
  0
LWPOLYLINE
  5
3275
330
2
100
AcDbEntity
  8
copper
100
AcDbPolyline
 90
        2
 70
   129
 43
0.6
 10
938.5460775040384
 20
117.4600098641288
 42
-1.0
 10
937.946077504038
 20
117.4600098641288
 42
-1.0
  0
LWPOLYLINE
  5
3276
330
2
100
AcDbEntity
  8
copper
100
AcDbPolyline
 90
        2
 70
   129
 43
0.6
 10
937.5523983468765
 20
115.9591428704807
 42
-1.0
 10
936.9523983468766
 20
115.9591428704807
 42
-1.0
  0
LWPOLYLINE
  5
3277
330
2
100
AcDbEntity
  8
copper
100
AcDbPolyline
 90
        2
 70
   129
 43
0.6
 10
934.3777876170683
 20
118.0476463332692
 42
-1.0
 10
933.7777876170685
 20
118.0476463332692
 42
-1.0
  0
LWPOLYLINE
  5
3278
330
2
100
AcDbEntity
  8
copper
100
AcDbPolyline
 90
        2
 70
   129
 43
0.6
 10
935.3714836078207
 20
119.5485389144146
 42
-1.0
 10
934.7714836078207
 20
119.5485389144146
 42
-1.0
  0
LWPOLYLINE
  5
3279
330
2
100
AcDbEntity
  8
copper
100
AcDbPolyline
 90
        2
 70
   128
 43
0.5
 10
932.9763240293205
 20
120.9124693894096
 10
929.6571443054345
 20
124.6518605110212
  0
LWPOLYLINE
  5
327A
330
2
100
AcDbEntity
  8
copper
100
AcDbPolyline
 90
        2
 70
   128
 43
0.5
 10
928.9264718339026
 20
123.9317631209544
 10
931.5629322389872
 20
119.6833426460099
  0
LWPOLYLINE
  5
327B
330
2
100
AcDbEntity
  8
copper
100
AcDbPolyline
 90
        2
 70
   129
 43
0.25
 10
931.6879322389873
 20
119.6833426460099
 42
-1.0
 10
931.4379322389873
 20
119.6833426460099
 42
-1.0
  0
LWPOLYLINE
  5
327C
330
2
100
AcDbEntity
  8
copper
100
AcDbPolyline
 90
        2
 70
   129
 43
0.25
 10
929.0514718339027
 20
123.9317631209543
 42
-1.0
 10
928.8014718339027
 20
123.9317631209543
 42
-1.0
  0
LWPOLYLINE
  5
327D
330
2
100
AcDbEntity
  8
copper
100
AcDbPolyline
 90
        2
 70
   129
 43
0.25
 10
929.7821443054344
 20
124.6518605110212
 42
-1.0
 10
929.5321443054344
 20
124.6518605110212
 42
-1.0
  0
LWPOLYLINE
  5
327E
330
2
100
AcDbEntity
  8
copper
100
AcDbPolyline
 90
        2
 70
   129
 43
0.25
 10
933.1013240293204
 20
120.9124693894096
 42
-1.0
 10
932.8513240293204
 20
120.9124693894096
 42
-1.0
  0
LWPOLYLINE
  5
3567
330
2
100
AcDbEntity
  8
copper
  6
Continuous
100
AcDbPolyline
 90
      340
 70
   128
 43
1.769
 10
554.650000000142
 20
402.2066635079643
 42
0.1776982839935106
 10
24.21993871128143
 20
190.298649910211
 42
0.9999999999999996
 10
31.28026271130603
 20
182.4378496319522
 42
-0.1819379435019846
 10
568.3910011865655
 20
391.9156359097158
 42
-0.9999999999999998
 10
568.4329988134404
 20
388.3938863162131
 42
0.1829321740648674
 10
31.30438697008595
 20
177.7173506979077
 42
0.9999999999999998
 10
38.39491343298687
 20
169.8837825148322
 42
-0.1828780898565634
 10
568.3906325764747
 20
377.8266121926041
 42
-0.9999999999999996
 10
568.4333674234539
 20
374.3048714677841
 42
0.1826502942274797
 10
41.28212032972624
 20
167.7461967061215
 42
0.9999999999999998
 10
48.36573694290564
 20
159.9063796369865
 42
-0.1825942827798485
 10
568.3902507940952
 20
363.7375518075206
 42
-0.977439989253874
 10
568.4337492055783
 20
360.2158204310243
 42
0.1823582867774568
 10
51.260435027928
 20
157.7746986088565
 42
1.0
 10
58.33688650749991
 20
149.9284134714656
 42
-0.1823002431971134
 10
568.3898551207862
 20
349.6484527483891
 42
-1.0
 10
568.4341448792133
 20
346.1267312350809
 42
0.1820555956502693
 10
61.23936332363882
 20
147.8028372135448
 42
1.0
 10
68.30837998006609
 20
139.9498530984993
 42
-0.0992091469449858
 10
325.907060579169
 20
292.6644577822601
 42
-1.0
 10
327.0728536870775
 20
289.3409941628486
 42
0.0989610765475566
 10
71.21893990888475
 20
137.8305918721731
 42
1.0
 10
78.28023654281515
 20
129.9706652918787
 42
-0.1001715779817544
 10
333.9570292305989
 20
280.5495017012231
 42
-1.0
 10
335.1068747360878
 20
277.2204869350339
 42
0.0999139889989551
 10
81.19920214260401
 20
127.857940340479
 42
1.0
 10
88.25247683299313
 20
119.9908142996733
 42
-0.1028083506606697
 10
346.5211928990466
 20
269.9335060680788
 42
0.4128186527774836
 10
349.8746082271428
 20
276.5899922976225
 10
349.2692959440478
 20
278.4391742265388
 42
-0.351705622178337
 10
350.0460365991898
 20
280.5025151881097
 42
0.4070135839703402
 10
355.3259443264606
 20
300.0858252471021
 42
-0.4784976775869254
 10
356.3505375687682
 20
302.6298431636379
 42
-0.0707476413686907
 10
568.3894447839325
 20
335.5593128600664
 42
-1.0
 10
568.4345552160675
 20
332.0376017633247
 42
0.0683680017908348
 10
364.2597346169837
 20
301.3190665012014
 42
1.0
 10
367.2391192510768
 20
291.1818270741124
 42
-0.0683072614227324
 10
568.3890189531857
 20
321.4701298242509
 42
-1.0
 10
568.4349810468143
 20
317.94842973964
 42
0.0709176593982369
 10
360.8219130553743
 20
285.5829221200782
 42
1.0
 10
363.9064733413552
 20
275.4771889036233
 42
-0.0708545589242385
 10
568.3885767341098
 20
307.3809011437338
 42
-1.0
 10
568.4354232658892
 20
303.8592127131
 42
0.1810772131062402
 10
91.18019031211407
 20
117.8848586205264
 42
1.0
 10
98.22512308366095
 20
110.0102615994483
 42
-0.1810098255225448
 10
568.3881171620724
 20
293.2916241248027
 42
-1.0
 10
568.4358828379272
 20
289.7699480408605
 42
0.1807253348661959
 10
101.1619479259179
 20
107.9113207842625
 42
1.0
 10
108.1981992811534
 20
100.0289656244169
 42
-0.1806552584468526
 10
568.3876391952185
 20
279.2022958575249
 42
-1.0
 10
568.436360804781
 20
275.6806328689977
 42
0.180359284124316
 10
111.1445220424211
 20
97.93729877530928
 42
1.0
 10
118.1717313415775
 20
90.04688145644331
 42
-0.1802863546390056
 10
568.3871417065902
 20
265.1129131936069
 42
-1.0
 10
568.4368582934089
 20
261.5912641110043
 42
0.069224578580636
 10
381.0097081332728
 20
232.8146819786208
 42
1.0
 10
384.0368880300075
 20
222.6916123911485
 42
-0.069150648278138
 10
568.3866234752509
 20
251.0234727214775
 42
-1.0
 10
568.4373765247487
 20
247.5018384236032
 42
0.0673995626973955
 10
389.5526811456657
 20
220.6478419625146
 42
1.0
 10
392.5092116083238
 20
210.503913550732
 42
-0.0673225030509411
 10
568.3860831762831
 20
236.933970738179
 42
-1.0
 10
568.4379168237169
 20
233.412352179477
 42
0.0706060508524532
 10
385.2288746190465
 20
204.6547280012497
 42
-0.5566183672635234
 10
382.9767400743817
 20
206.6266052074935
 42
0.5012592784050508
 10
366.8589142906594
 20
223.4111240360284
 42
-0.2688435467055517
 10
365.233354480416
 20
224.1014990906544
 42
0.3232284551751448
 10
359.3282045727487
 20
225.9387030225279
 42
0.1010347894385234
 10
121.1279636397494
 20
87.96276218579578
 42
1.0
 10
128.1457473091059
 20
80.06396048109962
 42
-0.0967631088119149
 10
351.8502594319116
 20
212.1835632105831
 42
-1.0
 10
353.0266354433543
 20
208.863830769602
 42
0.0964491238067332
 10
131.1123280328097
 20
77.98767800448314
 42
1.0
 10
138.1202775792612
 20
70.08014999919613
 42
-0.0965197726984103
 10
356.7308601985906
 20
198.9666529005893
 42
-1.0
 10
357.9063066751082
 20
195.6465912173004
 42
0.0961922640775943
 10
141.0976753448076
 20
68.01201033177119
 42
1.0
 10
148.0953551509456
 20
60.09539278822581
 42
-0.0990751443625141
 10
368.4386585705383
 20
188.121901069484
 42
0.3348795846405781
 10
372.0087213710908
 20
193.3891181714215
 42
-0.7625287568370027
 10
375.2343412331402
 20
194.4525915971258
 42
0.3348795846406015
 10
381.2370131263542
 20
192.3414652292226
 42
-0.0212344480748106
 10
434.4330759931636
 20
206.8141673070617
 42
-1.0
 10
435.2125777215778
 20
203.3795114210572
 42
0.1254861869619399
 10
151.0840710416851
 20
58.03572005638824
 42
1.0
 10
158.0710159116565
 20
50.10962660601944
 42
-0.1322150213987736
 10
454.0003837744307
 20
196.5804475459458
 42
0.4130062354233667
 10
458.1532723266804
 20
202.7726605875251
 10
457.9770826432731
 20
203.262943784793
 42
-1.001374337234775
 10
461.4339519222612
 20
203.9371213508352
 10
461.5273765985007
 20
203.4067734232483
 42
0.9958846488126022
 10
471.9322015470324
 20
205.2447275160933
 10
471.764698007024
 20
205.7416889737922
 42
-1.001374337234618
 10
475.2354747745612
 20
206.3401613896052
 10
475.3193575244754
 20
205.8049534615977
 42
0.9958846488159046
 10
485.7618631077094
 20
207.4150884252339
 10
485.1422460647272
 20
211.4337383130918
 42
-1.00136687013141
 10
488.6287646511573
 20
211.9323854853724
 10
489.1604529983546
 20
207.9011599022243
 42
0.9958846488084809
 10
499.6356516082355
 20
209.2827066949678
 10
499.104003469728
 20
213.3139375812127
 42
-1.001366870129205
 10
502.6005865382703
 20
213.7362735857544
 10
503.0440521585115
 20
209.6943915433908
 42
0.9958846488076817
 10
513.5469405719559
 20
210.8466903031414
 10
513.1035152667013
 20
214.8885767685657
 42
-1.001366870033514
 10
516.608492759753
 20
215.2343998868699
 10
516.9635238425066
 20
211.183791891605
 42
0.9958846487944633
 10
527.4890856110892
 20
212.1062922508083
 10
527.1340949303407
 20
216.1569037872058
 42
-1.001366870124061
 10
530.6457927809155
 20
216.4260488451553
 10
530.9122197542351
 20
212.3686495712207
 42
0.9958846488177034
 10
541.4554276001203
 20
213.0609109203192
 10
541.1890410965497
 20
217.1183128515123
 42
-1.001366869971207
 10
544.70578202782
 20
217.3106512987376
 10
544.8834776393673
 20
213.2483986638712
 42
0.9958846488187022
 10
555.4392958565367
 20
213.7100903608586
 10
555.2616407631358
 20
217.7723447681243
 42
-1.001366869949371
 10
558.781745089595
 20
217.8877847386724
 10
558.8706048864305
 20
213.8226183889234
 42
0.9958846488301379
 10
569.4339917387369
 20
214.0535202414995
 10
569.3451330714556
 20
218.1186866158138
 42
-1.001366869934253
 10
572.8669194987819
 20
218.1571731882274
 10
572.8669166503459
 20
207.0467934710696
 42
-0.4138065312225253
 10
571.1255807817792
 20
205.2687690185289
 42
0.179380328290619
 10
161.0715865395204
 20
48.05876448761506
 42
1.0
 10
168.0472989610848
 20
40.12278362752982
 42
-0.1793150670766129
 10
571.085973872121
 20
194.7016555054306
 42
-1.0
 10
571.1260261278785
 20
191.1798832503283
 42
0.1789327911608691
 10
171.0602998967856
 20
38.08109693572175
 42
1.0
 10
178.0242469792797
 20
30.13478980396349
 42
-0.1788645026937802
 10
571.0855077966121
 20
180.6127178996188
 42
-1.0
 10
571.1264922033874
 20
177.0909563690203
 42
0.1784642473462479
 10
181.0502966056278
 20
28.10266623190916
 42
1.0
 10
188.0019066467252
 20
20.14556413148864
 42
-0.3752940519039434
 10
968.2980933532686
 20
20.14556413149325
 42
1.0
 10
975.2497033943713
 20
28.10266623192013
 42
0.1784642473462479
 10
585.1735077966118
 20
177.0909563690311
 42
-1.0
 10
585.2144922033871
 20
180.6127178996296
 42
-0.1788645026937802
 10
978.2757530207195
 20
30.1347898039744
 42
1.0
 10
985.2397001032136
 20
38.08109693573272
 42
0.1789327911608689
 10
585.1739738721208
 20
191.1798832503391
 42
-1.0
 10
585.2140261278782
 20
194.7016555054415
 42
-0.1793150670766132
 10
988.2527010389145
 20
40.12278362754045
 42
1.0
 10
995.2284134604783
 20
48.05876448762603
 42
0.1793803282906189
 10
585.1744192182199
 20
205.2687690185398
 42
-0.4138065312227785
 10
583.4330833496533
 20
207.0467934710821
 10
583.4330805012178
 20
218.1571731882858
 42
-1.001366869842867
 10
586.9548669285445
 20
218.1186866158736
 10
586.8660082612623
 20
214.0535202415067
 42
0.9958846488256959
 10
597.4293951135701
 20
213.822618389
 10
597.5182549104052
 20
217.887784738731
 42
-1.001366869919294
 10
601.0383592368611
 20
217.7723447680815
 10
600.860704143462
 20
213.7100903608626
 42
0.9958846488230982
 10
611.4165223606301
 20
213.2483986638384
 10
611.5942179721791
 20
217.310651298748
 42
-1.001366869964069
 10
615.1109589034481
 20
217.1183128514975
 10
614.8445723998689
 20
213.0609109201749
 42
0.9958846488037471
 10
625.3877802457691
 20
212.3686495713087
 10
625.6542072190864
 20
216.4260488452127
 42
-1.001366869993201
 10
629.1659050696539
 20
216.1569037871598
 10
628.8109143889087
 20
212.1062922508061
 42
0.9958846488101256
 10
639.3364761575067
 20
211.1837918917702
 10
639.6915072402462
 20
215.2343998868799
 42
-1.001366870029997
 10
643.1964847332984
 20
214.8885767685801
 10
642.7530594280415
 20
210.8466903031376
 42
0.995884648812585
 10
653.2559478414805
 20
209.6943915433347
 10
653.6994134617288
 20
213.7362735857662
 42
-1.001366870123694
 10
657.1959965302689
 20
213.3139375812053
 10
656.6643483917546
 20
209.282706694909
 42
0.9958846488101716
 10
667.1395470016459
 20
207.9011599022466
 10
667.6712353488414
 20
211.9323854853807
 42
-1.001366870069051
 10
671.1577539352766
 20
211.4337383131328
 10
670.538136892289
 20
207.415088425238
 42
0.9958846488101256
 10
680.9806424755243
 20
205.8049534616117
 10
681.6002996017091
 20
209.82359716898
 42
-1.001366870132093
 10
685.0750884554649
 20
209.2488769955381
 10
684.3677984529567
 20
205.2447275160474
 42
0.9958846488046535
 10
694.7726234014658
 20
203.4067734230763
 10
695.4799533425589
 20
207.4109158477073
 42
-1.001366869997348
 10
698.9413528155214
 20
206.7603971742408
 10
698.146727673326
 20
202.7726605875733
 42
0.9958846488076048
 10
708.5089023763121
 20
200.7077652193324
 10
709.3035672933852
 20
204.6954938800513
 42
-1.001366869904648
 10
712.7499241325117
 20
203.9694874108207
 10
711.8683433839232
 20
200.0000683619727
 42
0.9958846488007651
 10
722.1829186014379
 20
197.7092179654568
 10
723.0645389421716
 20
201.678628220919
 42
-1.001366870018082
 10
726.4942070792049
 20
200.8774807152933
 10
725.5260917898131
 20
196.928275100661
 42
0.9958846488258343
 10
735.7881410166096
 20
194.412563844612
 10
736.7562956965139
 20
198.3617598026927
 42
-1.001366870030837
 10
740.1676370341515
 20
197.4858539093034
 10
739.1134496005256
 20
193.5587479702671
 42
0.9958846488061141
 10
749.3180714191285
 20
190.8193774228083
 10
750.3722980228344
 20
194.7464728467878
 42
-1.00136687007031
 10
753.7636832170546
 20
193.7962269205273
 10
752.6239271461604
 20
189.8930963436566
 42
0.9958846488210385
 10
762.7662475678989
 20
186.9313748983177
 10
763.906042569718
 20
190.8344941066067
 42
-1.001366869957245
 10
767.2758518081582
 20
189.8103620094255
 10
766.0510714766301
 20
185.9330710296629
 42
0.9958846488060677
 10
776.126246269569
 20
182.750413280437
 10
777.3510652742552
 20
186.6276920434706
 42
-1.001366869969423
 10
780.697689049728
 20
185.5301629270481
 10
779.3884694440508
 20
181.6805634379742
 42
0.9958846488154284
 10
789.3916864467187
 20
178.2784895036616
 10
790.7009444493428
 20
182.1280759337907
 42
-1.001366869967166
 10
794.0227843286061
 20
180.9576740060373
 10
792.6297507656259
 20
177.1376046750442
 42
0.9958846488129843
 10
802.5562321853863
 20
173.5177394731147
 10
803.949303850833
 20
177.3377949093735
 42
-1.001366870007164
 10
807.2447732381174
 20
176.0950791842681
 10
805.7685910663076
 20
172.3063645742037
 42
0.9958846488207003
 10
815.6135957615616
 20
168.4704370452445
 10
817.0898157230325
 20
172.2591369310752
 42
-1.001366870049682
 10
820.3573406178247
 20
170.9447009615943
 10
818.7987148995771
 20
167.1891506595331
 42
0.9958846488041928
 10
828.5575406438438
 20
163.1389929403784
 10
830.1162038210414
 20
166.8945276960999
 42
-1.001366869917877
 10
833.3542235697246
 20
165.5089992903667
 10
831.7138987445101
 20
161.7884070431136
 42
0.995884648812585
 10
841.3818844729771
 20
157.52595359338
 10
843.0222464083163
 20
161.246529479086
 42
-1.001366869925645
 10
846.2292144497869
 20
159.7905704010406
 10
844.5079739788834
 20
156.1067132590398
 42
0.9958846488207159
 10
854.080502013749
 20
151.6339999350371
 10
855.8017792284681
 20
155.3178399086484
 42
-1.001366870046584
 10
858.9761638326191
 20
153.7921455615129
 10
857.1748298244974
 20
150.1467830291441
 42
0.9958846488110172
 10
866.6473280813743
 20
145.4659461135425
 10
868.4486984493778
 20
149.1112906787027
 42
-1.001366869930159
 10
871.5889834488844
 20
147.5165897732571
 10
869.7084162667666
 20
143.9114629689596
 42
0.995884648805991
 10
879.0763604379758
 20
139.0247381494002
 10
880.9569635785832
 20
142.6298461960701
 42
-1.001366869966168
 10
884.0616490929242
 20
140.9669004023064
 10
882.10274694386
 20
137.403731226976
 42
0.9958846488058988
 10
891.3616626593316
 20
132.3134525282427
 10
893.3206003484146
 20
135.8766021646724
 42
-1.001366870036664
 10
896.3882035002589
 20
134.1462057480246
 10
894.3519020061266
 20
130.6266960625883
 42
0.9958846488129077
 10
903.4973669706241
 20
125.3352947321145
 10
905.5337035693369
 20
128.8547841067157
 42
-1.001366870069576
 10
908.5627591928924
 20
127.0577635488596
 10
906.4500309433752
 20
123.5835943611715
 42
0.9958846488179492
 10
915.477677048711
 20
118.0935977078201
 10
917.590439950537
 20
121.5677458223247
 42
-1.001366869951471
 10
920.5795012912931
 20
119.7049594263167
 10
918.3913553794299
 20
116.2777900884301
 42
0.9958846488065596
 10
927.2968707906898
 20
110.5918202752147
 10
927.5694204562119
 20
111.089726933895
 42
-1.001374337265881
 10
930.5170598317941
 20
109.1620644338501
 10
930.1701718321501
 20
108.7127726838285
 42
0.9958846488083734
 10
938.9493030470312
 20
102.8335454753523
 10
939.2326685489088
 20
103.3253771064005
 42
-1.001374337163765
 10
942.1374781218128
 20
101.3337591842747
 10
941.7808544370105
 20
100.8921553931049
 42
0.4130062354234925
 10
943.0827825355386
 20
93.55083610390357
 42
-0.0276479948315361
 10
998.2289840883423
 20
50.10962660603047
 42
1.0
 10
1005.215928958314
 20
58.03572005639967
 42
0.0227358280918038
 10
959.4606583570362
 20
94.81295311098824
 42
-1.0
 10
961.5401160142114
 20
97.65554697083093
 42
-0.0230748031179517
 10
1008.204644849054
 20
60.09539278823632
 42
1.0
 10
1015.202324655192
 20
68.01201033178194
 42
0.0961922640775941
 10
798.3936933248915
 20
195.6465912173113
 42
-1.0
 10
799.5691398014091
 20
198.9666529006002
 42
-0.0965197726984102
 10
1018.179722420738
 20
70.08014999920738
 42
1.0
 10
1025.187671967189
 20
77.98767800449406
 42
0.096449123806733
 10
803.273364556645
 20
208.8638307696129
 42
-1.0
 10
804.4497405680877
 20
212.1835632105939
 42
-0.0967631088119148
 10
1028.154252690893
 20
80.06396048111026
 42
1.0
 10
1035.17203636025
 20
87.96276218580663
 42
0.1010347894385236
 10
796.9717954272505
 20
225.9387030225387
 42
0.3232284551751309
 10
791.0666455195833
 20
224.1014990906657
 42
-0.2688435467055111
 10
789.4410857093398
 20
223.4111240360396
 42
0.5012592784050495
 10
773.3232599256175
 20
206.6266052075044
 42
-0.5566183672635697
 10
771.0711253809522
 20
204.6547280012609
 42
0.0706060508524528
 10
587.8620831762832
 20
233.4123521794881
 42
-1.0
 10
587.9139168237165
 20
236.9339707381901
 42
-0.0673225030509405
 10
763.7907883916741
 20
210.5039135507429
 42
1.0
 10
766.7473188543326
 20
220.647841962526
 42
0.0673995626973949
 10
587.8626234752509
 20
247.501838423614
 42
-1.0
 10
587.9133765247488
 20
251.0234727214887
 42
-0.0691506482781376
 10
772.2631119699908
 20
222.6916123911594
 42
1.0
 10
775.290291866726
 20
232.8146819786317
 42
0.0692245785806359
 10
587.8631417065903
 20
261.5912641110152
 42
-1.0
 10
587.9128582934095
 20
265.1129131936179
 42
-0.1802863546390053
 10
1038.128268658422
 20
90.04688145645435
 42
1.0
 10
1045.155477957577
 20
97.93729877532001
 42
0.1803592841243155
 10
587.8636391952186
 20
275.6806328690089
 42
-1.0
 10
587.9123608047811
 20
279.2022958575359
 42
-0.1806552584468525
 10
1048.101800718846
 20
100.0289656244282
 42
1.0
 10
1055.138052074081
 20
107.9113207842736
 42
0.1807253348661955
 10
587.8641171620724
 20
289.7699480408716
 42
-1.0
 10
587.9118828379273
 20
293.2916241248138
 42
-0.1810098255225445
 10
1058.074876916337
 20
110.0102615994593
 42
1.0
 10
1065.119809687885
 20
117.8848586205373
 42
0.1810772131062403
 10
587.8645767341099
 20
303.8592127131109
 42
-1.0
 10
587.9114232658898
 20
307.3809011437449
 42
-0.0708545589242383
 10
792.3935266586441
 20
275.4771889036342
 42
1.0
 10
795.4780869446245
 20
285.582922120089
 42
0.0709176593982364
 10
587.8650189531859
 20
317.9484297396508
 42
-1.0
 10
587.9109810468139
 20
321.470129824262
 42
-0.0683072614227324
 10
789.0608807489229
 20
291.181827074123
 42
1.0
 10
792.040265383016
 20
301.3190665012122
 42
0.0683680017908349
 10
587.8654447839326
 20
332.0376017633358
 42
-1.0
 10
587.9105552160672
 20
335.5593128600775
 42
-0.0707476413686906
 10
799.949462431231
 20
302.629843163649
 42
-0.4784976775869098
 10
800.9740556735387
 20
300.085825247113
 42
0.4070135839703473
 10
806.2539634008095
 20
280.5025151881202
 42
-0.351705622178427
 10
807.0307040559514
 20
278.4391742265488
 10
806.4253917728569
 20
276.5899922976351
 42
0.4128186527775826
 10
809.7788071009526
 20
269.9335060680898
 42
-0.1028083506606698
 10
1068.047523167005
 20
119.9908142996838
 42
1.0
 10
1075.100797857395
 20
127.8579403404895
 42
0.0999139889989552
 10
821.1931252639114
 20
277.2204869350451
 42
-1.0
 10
822.3429707694007
 20
280.5495017012343
 42
-0.1001715779817542
 10
1078.019763457183
 20
129.970665291889
 42
1.0
 10
1085.081060091116
 20
137.8305918721842
 42
0.0989610765475568
 10
829.2271463129223
 20
289.3409941628594
 42
-1.0
 10
830.3929394208307
 20
292.6644577822709
 42
-0.0992091469449852
 10
1087.991620019932
 20
139.9498530985107
 42
1.0
 10
1095.060636676359
 20
147.8028372135557
 42
0.1820555956502689
 10
587.8658551207863
 20
346.126731235092
 42
-1.0
 10
587.9101448792134
 20
349.6484527484001
 42
-0.1823002431971127
 10
1097.963113492498
 20
149.928413471476
 42
1.0
 10
1105.039564972072
 20
157.7746986088679
 42
0.1823582867775103
 10
587.8662507942586
 20
360.2158204310374
 42
-1.0
 10
587.9097492057412
 20
363.7375518075336
 42
-0.1825942827798994
 10
1107.934263057093
 20
159.9063796369972
 42
1.0
 10
1115.017879670267
 20
167.7461967061374
 42
0.1826502942275
 10
587.8666325765457
 20
374.3048714677951
 42
-1.0
 10
587.9093674234541
 20
377.8266121926158
 42
-0.1828780898566
 10
1117.905086567012
 20
169.883782514843
 42
1.0
 10
1124.995613029946
 20
177.7173506978889
 42
0.1829321740648791
 10
587.8670011865592
 20
388.3938863162238
 42
-1.0
 10
587.9089988134405
 20
391.9156359097265
 42
-0.1831521896420604
 10
1127.875600659827
 20
179.8606509151634
 42
1.0
 10
1134.972795086778
 20
187.6881784472812
 42
0.1789107320086268
 10
601.6499999998577
 20
402.2066635079752
  0
LWPOLYLINE
  5
36B9
330
2
100
AcDbEntity
  8
copper
  6
Continuous
100
AcDbPolyline
 90
      346
 70
   128
 43
1.769
 10
563.159085931194
 20
398.3816052699966
 42
0.0025418837664532
 10
554.7736799576114
 20
398.1865539106341
 42
-0.0841208282729603
 10
553.3295272350333
 20
398.3893392880399
 42
0.0850164725983135
 10
551.8245991231383
 20
398.5979299236799
 42
0.176784084934827
 10
26.57338004463964
 20
187.6783831508057
 42
1.0
 10
28.92682137797237
 20
185.0581163913791
 42
-0.1819379435019726
 10
568.3490035596774
 20
395.4373855032185
 42
-1.0
 10
568.4749964403222
 20
384.8721367227103
 42
0.1829321740648791
 10
33.6678957910317
 20
175.1061613035297
 42
1.0
 10
36.03140461200928
 20
172.4949719091809
 42
-0.1828780898565997
 10
568.3478977296367
 20
381.3483529174252
 42
-1.0
 10
568.4761022703623
 20
370.7831307429637
 42
0.1826502942275003
 10
43.64332586745604
 20
165.1329243497464
 42
1.0
 10
46.00453140518129
 20
162.5196519933663
 42
-0.1825942827798994
 10
568.3467523827757
 20
367.2592831840192
 42
-1.0
 10
568.4772476172233
 20
356.69408905453
 42
0.1823582867775104
 10
53.6192521877847
 20
155.1592702297265
 42
1.0
 10
55.97806934764321
 20
152.5438418505956
 42
-0.1823002431971127
 10
568.3455653623586
 20
353.1701742616974
 42
-1.0
 10
568.4784346376404
 20
342.6050097217724
 42
0.1820555956502689
 10
63.5957022091161
 20
145.185175841863
 42
1.0
 10
65.95204109459155
 20
142.5675144701812
 42
-0.0992091469449851
 10
324.74126747126
 20
295.9879214016717
 42
-1.0
 10
328.2386467949855
 20
286.0175305434363
 42
0.0989610765475565
 10
73.57270545352822
 20
135.2106163454084
 42
1.0
 10
75.92647099817168
 20
132.5906408186439
 42
-0.1001715779817542
 10
332.80718372511
 20
283.8785164674124
 42
-1.0
 10
336.2567202415776
 20
273.8914721688445
 42
0.0999139889989554
 10
83.55029370606734
 20
125.2355649935436
 42
1.0
 10
85.90138526953069
 20
122.6131896466081
 42
-0.1028083506606696
 10
345.4095715732033
 20
273.2754788429424
 42
0.4128186527775273
 10
346.5273766825685
 20
275.4943075861239
 10
345.9220643994745
 20
277.343489515039
 42
-0.3517056221783641
 10
348.2522863649005
 20
283.5335123997523
 42
0.4070135839703538
 10
352.2516655826375
 20
298.367310130707
 42
-0.4784976775869123
 10
355.3254453095601
 20
305.9993638803149
 42
-0.0707476413686906
 10
568.344334351797
 20
339.0810239568078
 42
-1.0
 10
568.4796656482022
 20
328.5158906665833
 42
0.0683680017908348
 10
365.2528628283476
 20
297.9399866921718
 42
1.0
 10
366.245991039712
 20
294.560906883142
 42
-0.0683072614227323
 10
568.3430568595572
 20
324.991829908862
 42
-1.0
 10
568.4809431404419
 20
314.4267296550292
 42
0.0709176593982366
 10
361.8500998173681
 20
282.2143443812597
 42
1.0
 10
362.8782865793614
 20
278.8457666424414
 42
-0.0708545589242389
 10
568.3417302023308
 20
310.9025895743677
 42
-1.0
 10
568.4822697976692
 20
300.3375242824661
 42
0.1810772131062408
 10
93.52850123596272
 20
115.2599929468339
 42
1.0
 10
95.87681215981229
 20
112.6351272731408
 42
-0.1810098255225448
 10
568.3403514862175
 20
296.8133002087448
 42
-1.0
 10
568.4836485137825
 20
286.2482719569184
 42
0.1807253348661955
 10
103.50736504433
 20
105.283869064314
 42
1.0
 10
105.8527821627412
 20
102.6564173443657
 42
-0.1806552584468526
 10
568.3389175856559
 20
282.7239588460519
 42
-1.0
 10
568.4850824143431
 20
272.1589698804705
 42
0.1803592841243159
 10
113.4869251421396
 20
95.3071596690204
 42
1.0
 10
115.8293282418581
 20
92.67702056273197
 42
-0.1802863546390061
 10
568.337425119772
 20
268.6345622762094
 42
-1.0
 10
568.486574880228
 20
258.0696150284018
 42
0.069224578580636
 10
382.0187680988515
 20
229.4403254494635
 42
1.0
 10
383.0278280644297
 20
226.0659689203055
 42
-0.0691506482781376
 10
568.3358704257525
 20
254.5451070193525
 42
-1.0
 10
568.4881295742465
 20
243.9802041257284
 42
0.0673995626973954
 10
390.5381912998855
 20
217.2665324919206
 42
1.0
 10
391.5237014541049
 20
213.8852230213264
 42
-0.0673225030509406
 10
568.3342495288493
 20
240.4555892968808
 42
-1.0
 10
568.4897504711498
 20
229.890733620775
 42
0.0706060508524527
 10
386.2584998203479
 20
201.2865896512341
 42
-0.5566183672636001
 10
379.502096186352
 20
207.2022212699647
 42
0.50125927840508
 10
367.2933037596231
 20
219.9160146258307
 42
-0.2688435467055776
 10
362.4166243288919
 20
221.9871397897085
 42
0.3232284551751243
 10
360.4482410263363
 20
222.5995411003327
 42
0.1010347894385235
 10
123.467224862868
 20
85.32982828423058
 42
1.0
 10
125.8064860859872
 20
82.69689438266494
 42
-0.0967631088119149
 10
350.6738834204689
 20
215.5032956515641
 42
-1.0
 10
354.203011454797
 20
205.5440983286209
 42
0.0964491238067332
 10
133.4483112149605
 20
75.3518353360539
 42
1.0
 10
135.7842943971104
 20
72.71599266762513
 42
-0.0965197726984102
 10
355.5554137220729
 20
202.2867145838782
 42
-1.0
 10
359.081753151625
 20
192.3265295340115
 42
0.0961922640775941
 10
143.4302352801869
 20
65.37313781725595
 42
1.0
 10
145.7627952155662
 20
62.73426530274076
 42
-0.099075144362514
 10
367.3012117858752
 20
191.4551725573855
 42
0.3348795846406447
 10
368.4912327193929
 20
193.2109115913649
 42
-0.7625287568371162
 10
378.1680923055424
 20
196.4013318684764
 42
0.3348795846406382
 10
380.1689829366137
 20
195.6976230791756
 42
-0.0212344480748107
 10
433.6535742647411
 20
210.2488231931033
 42
-1.0
 10
435.9920794500012
 20
199.9448555350157
 42
0.1254861869619379
 10
153.4130526650092
 20
55.39368890626537
 42
1.0
 10
155.7420342883329
 20
52.75165775614238
 42
-0.1322150213987736
 10
453.3120794657552
 20
200.0345351503151
 42
0.4138110066416832
 10
454.695442555691
 20
202.1033567762432
 10
454.5239561327957
 20
202.5697832727351
 42
-1.004128701519027
 10
464.8944857248334
 20
204.5923007110795
 10
464.9922698276878
 20
204.0384926862716
 42
0.9986263370886598
 10
468.4605710247028
 20
204.6511486810862
 10
468.2972482733571
 20
205.1241563533326
 42
-1.004128701499281
 10
478.7095000162416
 20
206.919560054606
 10
478.7972284701758
 20
206.3608023637201
 42
0.998626337153369
 10
482.2780899736294
 20
206.897518075222
 10
481.6584909917255
 20
210.9160472623738
 42
-1.004106238074977
 10
492.1179686895993
 20
212.4119776149769
 10
492.6496405402736
 20
208.3808729563182
 42
0.9986263372093915
 10
496.1413998017255
 20
208.8413920343877
 10
495.6097670822542
 20
212.8725018541678
 42
-1.004106238050913
 10
506.0994380011321
 20
214.1395004121094
 10
506.5428897714127
 20
210.0977396256904
 42
0.9986263370821577
 10
510.0438790371404
 20
210.4818421152138
 10
509.6004665015207
 20
214.5236072062368
 42
-1.004106238036268
 10
520.1153205059958
 20
215.5610688184226
 10
520.4703403919679
 20
211.5105823525439
 42
0.9986263370705058
 10
523.978887499833
 20
211.8180847965799
 10
523.6239069332368
 20
215.8685747084615
 42
-1.004106238036362
 10
534.1589218598082
 20
216.6760038565069
 10
534.4253402948352
 20
212.6187263277533
 42
0.9986263370175002
 10
537.9397694729864
 20
212.8494818541331
 10
537.6733904231955
 20
216.906761969675
 42
-1.004106238035192
 10
548.2235344789587
 20
217.4837730049622
 10
548.401224214806
 20
213.4216422724688
 42
0.9986263369824927
 10
551.9198568817764
 20
213.5755406679225
 10
551.7422065783189
 20
217.6376731252225
 42
-1.004106238038405
 10
562.3024407443359
 20
217.9839904523758
 10
562.3912973278961
 20
213.9189462122371
 42
0.9986263371389085
 10
565.9124528923175
 20
213.9959140778998
 10
565.8235963505871
 20
218.0609583191615
 42
-1.00410623802925
 10
576.3888767815505
 20
218.1764171746358
 10
576.3888724215348
 20
207.0663749715468
 42
-0.4129928167099158
 10
571.16474234534
 20
201.7469867464487
 42
0.1793803282906193
 10
163.3968240133754
 20
45.41343753425337
 42
1.0
 10
165.7220614872303
 20
42.7681105808914
 42
-0.1793150670766132
 10
571.0459216163635
 20
198.2234277605329
 42
-1.0
 10
571.1660783836359
 20
187.6581109952258
 42
0.1789327911608691
 10
173.3816155909503
 20
35.43232789180246
 42
1.0
 10
175.702931285115
 20
32.78355884788294
 42
-0.1788645026937805
 10
571.0445233898376
 20
184.1344794302171
 42
-1.0
 10
571.1674766101623
 20
173.569194838422
 42
0.1784642473462476
 10
183.3674999526602
 20
25.45029886510241
 42
1.0
 10
185.6847032996929
 20
22.79793149829538
 42
-0.3752940519039436
 10
970.6152967003008
 20
22.79793149829999
 42
1.0
 10
972.9325000473391
 20
25.45029886511327
 42
0.1784642473462478
 10
585.1325233898369
 20
173.569194838433
 42
-1.0
 10
585.2554766101629
 20
184.1344794302278
 42
-0.1788645026937798
 10
980.5970687148843
 20
32.78355884789397
 42
1.0
 10
982.918384409049
 20
35.43232789181337
 42
0.1789327911608689
 10
585.1339216163633
 20
187.6581109952368
 42
-1.0
 10
585.2540783836357
 20
198.2234277605438
 42
-0.1793150670766131
 10
990.5779385127688
 20
42.76811058090248
 42
1.0
 10
992.9031759866239
 20
45.41343753426434
 42
0.1793803282906193
 10
585.1352576546592
 20
201.7469867464595
 42
-0.4129928167097812
 10
579.9111275784643
 20
207.0663749715552
 10
579.9111232184486
 20
218.1764171746483
 42
-1.004106238031106
 10
590.476403649412
 20
218.0609583191791
 10
590.3875471076822
 20
213.9959140779156
 42
0.9986263370272796
 10
593.9087026721099
 20
213.9189462125693
 10
593.9975592556615
 20
217.983990452321
 42
-1.004106238047622
 10
604.5577934216798
 20
217.6376731252214
 10
604.380143118236
 20
213.5755406682484
 42
0.9986263371481674
 10
607.8987757851914
 20
213.4216422724327
 10
608.0764655210409
 20
217.4837730049835
 42
-1.004106238050819
 10
618.6266095768001
 20
216.9067619696314
 10
618.3602305270337
 20
212.8494818544678
 42
0.9986263372025774
 10
621.8746597051822
 20
212.6187263280324
 10
622.141078140186
 20
216.676003856448
 42
-1.004106238061596
 10
632.6760930667537
 20
215.8685747083695
 10
632.3211125001667
 20
211.8180847965941
 42
0.9986263371217946
 10
635.8296596080581
 20
211.5105823528562
 10
636.1846794940007
 20
215.5610688184004
 42
-1.004106238040791
 10
646.6995334984876
 20
214.5236072063319
 10
646.2561209628574
 20
210.4818421152117
 42
0.998626337053496
 10
649.7571102285714
 20
210.0977396255651
 10
650.2005619988777
 20
214.1395004122151
 42
-1.004106238027925
 10
660.6902329177533
 20
212.8725018542426
 10
660.1586001982759
 20
208.8413920344144
 42
0.9986263371436939
 10
663.6503594597502
 20
208.3808729565169
 10
664.1820313104012
 20
212.4119776149993
 42
-1.004106238048979
 10
674.6415090082846
 20
210.9160472624538
 10
674.0219100263775
 20
206.8975180752831
 42
0.9986263371947746
 10
677.5027715298192
 20
206.3608023637036
 10
678.1224095209036
 20
210.3793255365284
 42
-1.0041062380261
 10
688.5466982833699
 20
208.6551778836514
 10
687.8394289752896
 20
204.6511486810601
 42
0.9986263370829377
 10
691.3077301722783
 20
204.0384926860956
 10
692.0150383487139
 20
208.0425150228887
 42
-1.004106238031122
 10
702.3991592685752
 20
206.0909735670409
 10
701.6045574442618
 20
202.1033567760194
 42
0.9986263369921157
 10
705.0586417853578
 20
201.4150531178922
 10
705.853282318631
 20
205.4026621949837
 42
-1.00410623802532
 10
716.1922756738217
 20
203.2246590422015
 10
715.3107208555425
 20
199.2553592510924
 42
0.9986263369426476
 10
718.7489385814278
 20
198.4917366803138
 10
719.6305319309563
 20
202.4610279139032
 42
-1.004106238061611
 10
729.919459553515
 20
200.0576033342848
 10
728.9513727944554
 20
196.1085163823886
 42
0.9986263370833018
 10
732.3720817245016
 20
195.2699396255572
 10
733.3402068185537
 20
199.2190171797608
 42
-1.00410623804299
 10
743.5741544531743
 20
196.5913191103415
 10
742.5199981362129
 20
192.6643311821074
 42
0.9986263371065536
 10
745.9215644521577
 20
191.7512007645723
 10
746.9757588895967
 20
195.6781784596517
 42
-1.004106238053517
 10
757.1498385408635
 20
192.8274619564091
 10
756.0101161581246
 20
188.9244486821253
 42
0.9986263371623678
 10
759.3909151848988
 20
187.9372007387183
 10
760.5306754552998
 20
191.8402029489481
 42
-1.004106238031792
 10
770.6400277222696
 20
188.7678295871129
 10
769.41528363422
 20
184.8906551454544
 42
0.998626337019477
 10
772.773700615558
 20
183.8297612107667
 10
773.9984823403683
 20
187.7069237628278
 42
-1.004106238058508
 10
784.0382787375355
 20
184.4143609865702
 10
782.7290979135819
 20
180.5648772161795
 42
0.9986263371546694
 10
786.0635287834607
 20
179.4308440000885
 10
787.3727469755176
 20
183.2803150616994
 42
-1.004106238032822
 10
797.338192239004
 20
179.7691354831731
 10
795.9451999772441
 20
175.9491809954926
 42
0.9986263370225978
 10
799.2540521260216
 20
174.7425501411189
 10
800.6470814693521
 20
178.5624911067659
 42
-1.00410623804012
 10
810.5334158473429
 20
174.8343717553031
 10
809.0572774766073
 20
171.0457710585727
 42
0.9986263370861628
 10
812.3389705121789
 20
169.7671188848068
 10
813.8151456598938
 20
173.5557052517761
 42
-1.004106238032244
 10
823.6176471859817
 20
169.612426772737
 10
822.0590677478057
 20
165.8569893997783
 42
0.9986263371245517
 10
825.3120342490852
 20
164.5069266224408
 10
826.8706501424881
 20
168.2623488658039
 42
-1.004106238040666
 10
836.5846368909114
 20
164.1057946698801
 10
834.9443608025444
 20
160.3853143132694
 42
0.9986263370933933
 10
838.1670470696867
 20
158.964485757542
 10
839.8073592738802
 20
162.6849501913595
 42
-1.004106238048402
 10
849.4281915958405
 20
158.3171055552823
 10
847.7070022952206
 20
154.6333592119074
 42
0.9986263369964852
 10
850.8978690909716
 20
153.1424435023623
 10
852.6190941505852
 20
156.826173136978
 42
-1.004106238049525
 10
862.14217689019
 20
152.2491242551309
 10
860.3408964616674
 20
148.6038713771216
 42
0.998626337105149
 10
863.4984197456288
 20
147.0435806117706
 10
865.2997355599259
 20
150.6888160044948
 42
-1.004106238047607
 10
874.7205202490782
 20
145.9047489927553
 10
872.8400090298519
 20
142.299730645302
 42
0.9986263369984097
 10
875.9626806889551
 20
140.6708100607952
 10
877.843226902884
 20
144.2758101528637
 42
-1.004106238044191
 10
887.1572139335777
 20
139.2870100041049
 10
885.1983701042927
 20
135.7239480369388
 42
0.9986263371643445
 10
888.2846986700632
 20
134.0271756463964
 10
890.2435770868097
 20
137.5902185978916
 42
-1.004106238055342
 10
899.4463178603137
 20
132.399068090744
 10
897.4100770148748
 20
128.8796643133623
 42
0.9986263371414571
 10
900.4585883776121
 20
127.1158505384815
 10
902.4948633869948
 20
130.6352345493969
 42
-1.004106238037844
 10
911.5819624386535
 20
125.244213110232
 10
909.46929713784
 20
121.7701484800092
 42
0.9986263371423936
 10
912.4785352508087
 20
119.9401357640277
 10
914.5912342752644
 20
123.4141798856128
 42
-1.004106238061487
 10
923.5583513738887
 20
117.82586240432
 10
921.3702706807366
 20
114.3987962234624
 42
0.9986263370186966
 10
924.3387982545446
 20
112.5034586269544
 10
924.6112246785409
 20
113.0011745355332
 42
-1.00412870152444
 10
933.4540760865793
 20
107.2182306673045
 10
933.1073134339563
 20
106.7691282904583
 42
0.9986263369149742
 10
936.0337126239333
 20
104.8093710753693
 10
936.3169507451862
 20
105.3010146951026
 42
-1.004128701505842
 10
945.0313137146368
 20
99.32620600825686
 10
944.6748194853581
 20
98.88478880578663
 42
0.4138110066416843
 10
945.1060252505204
 20
96.43371191050256
 42
-0.0276479948315361
 10
1000.557965711666
 20
52.75165775615369
 42
1.0
 10
1002.88694733499
 20
55.39368890627656
 42
0.0227358280918039
 10
957.3812006998609
 20
91.97035925114539
 42
-1.0
 10
963.6195736713862
 20
100.4981408306735
 42
-0.0230748031179517
 10
1010.537204784433
 20
62.73426530275168
 42
1.0
 10
1012.869764719812
 20
65.37313781726687
 42
0.096192264077594
 10
797.2182468483743
 20
192.3265295340225
 42
-1.0
 10
800.7445862779263
 20
202.2867145838891
 42
-0.0965197726984101
 10
1020.515705602888
 20
72.71599266763615
 42
1.0
 10
1022.851688785039
 20
75.35183533606522
 42
0.0964491238067333
 10
802.0969885452023
 20
205.5440983286317
 42
-1.0
 10
805.6261165795303
 20
215.5032956515749
 42
-0.0967631088119149
 10
1030.493513914012
 20
82.69689438267567
 42
1.0
 10
1032.832775137131
 20
85.32982828424133
 42
0.1010347894385234
 10
795.8517589736629
 20
222.5995411003436
 42
0.323228455175074
 10
793.8833756711074
 20
221.9871397897193
 42
-0.2688435467055705
 10
789.0066962403757
 20
219.9160146258419
 42
0.5012592784050499
 10
776.7979038136477
 20
207.2022212699756
 42
-0.5566183672635607
 10
770.0415001796523
 20
201.2865896512452
 42
0.0706060508524529
 10
587.8102495288499
 20
229.8907336207859
 42
-1.0
 10
587.965750471149
 20
240.455589296892
 42
-0.0673225030509408
 10
764.7762985458939
 20
213.8852230213374
 42
1.0
 10
765.7618087001138
 20
217.2665324919316
 42
0.0673995626973951
 10
587.8118704257531
 20
243.9802041257393
 42
-1.0
 10
587.9641295742467
 20
254.5451070193632
 42
-0.0691506482781375
 10
773.2721719355691
 20
226.0659689203169
 42
1.0
 10
774.2812319011477
 20
229.4403254494743
 42
0.0692245785806358
 10
587.8134251197716
 20
258.0696150284127
 42
-1.0
 10
587.9625748802282
 20
268.6345622762204
 42
-0.1802863546390056
 10
1040.47067175814
 20
92.67702056274288
 42
1.0
 10
1042.813074857859
 20
95.30715966903143
 42
0.1803592841243159
 10
587.8149175856565
 20
272.1589698804816
 42
-1.0
 10
587.9610824143433
 20
282.723958846063
 42
-0.1806552584468526
 10
1050.447217837258
 20
102.6564173443766
 42
1.0
 10
1052.792634955669
 20
105.283869064325
 42
0.1807253348661957
 10
587.8163514862172
 20
286.2482719569292
 42
-1.0
 10
587.9596485137827
 20
296.8133002087559
 42
-0.1810098255225444
 10
1060.423187840186
 20
112.6351272731519
 42
1.0
 10
1062.771498764036
 20
115.2599929468447
 42
0.1810772131062404
 10
587.8177302023305
 20
300.3375242824769
 42
-1.0
 10
587.9582697976702
 20
310.9025895743787
 42
-0.0708545589242383
 10
793.4217134206378
 20
278.8457666424524
 42
1.0
 10
794.4499001826311
 20
282.2143443812707
 42
0.0709176593982365
 10
587.8190568595577
 20
314.4267296550397
 42
-1.0
 10
587.9569431404411
 20
324.9918299088731
 42
-0.0683072614227326
 10
790.0540089602873
 20
294.5609068831527
 42
1.0
 10
791.0471371716517
 20
297.9399866921825
 42
0.0683680017908347
 10
587.8203343517975
 20
328.5158906665941
 42
-1.0
 10
587.9556656482027
 20
339.081023956819
 42
-0.0707476413686906
 10
800.9745546904392
 20
305.9993638803254
 42
-0.4784976775868782
 10
804.0483344173617
 20
298.3673101307177
 42
0.4070135839703401
 10
808.0477136350987
 20
283.5335123997634
 42
-0.351705622178373
 10
810.3779356005247
 20
277.3434895150499
 10
809.7726233174308
 20
275.494307586135
 42
0.4128186527775248
 10
810.8904284267961
 20
273.2754788429535
 42
-0.1028083506606695
 10
1070.398614730468
 20
122.6131896466192
 42
1.0
 10
1072.749706293932
 20
125.2355649935545
 42
0.0999139889989553
 10
820.0432797584216
 20
273.8914721688554
 42
-1.0
 10
823.4928162748902
 20
283.8785164674236
 42
-0.1001715779817542
 10
1080.373529001827
 20
132.5906408186539
 42
1.0
 10
1082.727294546472
 20
135.2106163454191
 42
0.0989610765475568
 10
828.0613532050137
 20
286.0175305434475
 42
-1.0
 10
831.5587325287392
 20
295.9879214016826
 42
-0.0992091469449851
 10
1090.347958905407
 20
142.567514470192
 42
1.0
 10
1092.704297790884
 20
145.1851758418738
 42
0.182055595650269
 10
587.8215653623592
 20
342.6050097217835
 42
-1.0
 10
587.9544346376405
 20
353.1701742617083
 42
-0.1823002431971127
 10
1100.321930652356
 20
152.5438418506065
 42
1.0
 10
1102.680747812214
 20
155.1592702297373
 42
0.1823582867775102
 10
587.8227523827763
 20
356.694089054541
 42
-1.0
 10
587.9532476172244
 20
367.2592831840299
 42
-0.1825942827798991
 10
1110.295468594818
 20
162.5196519933772
 42
1.0
 10
1112.656674132543
 20
165.1329243497575
 42
0.1826502942274999
 10
587.8238977296373
 20
370.7831307429746
 42
-1.0
 10
587.9521022703625
 20
381.3483529174364
 42
-0.1828780898565998
 10
1120.26859538799
 20
172.4949719091918
 42
1.0
 10
1122.632104208968
 20
175.1061613035405
 42
0.1829321740648792
 10
587.8250035596774
 20
384.8721367227208
 42
-1.0
 10
587.9509964403223
 20
395.4373855032292
 42
-0.1831521896420603
 10
1130.241332135477
 20
182.4698267592026
 42
1.0
 10
1132.607063611128
 20
185.079002603242
 42
0.1779961507598377
 10
604.4754008768609
 20
398.5979299236907
 42
0.0850164725983064
 10
602.9704727649659
 20
398.3893392880509
 42
-0.0841208282729765
 10
601.5263200423873
 20
398.186553910645
 42
0.002541883766452
 10
593.1409140688088
 20
398.3816052700074
  0
LWPOLYLINE
  5
38EB
330
2
100
AcDbEntity
  8
mechanical
  6
Continuous
100
AcDbPolyline
 90
        2
 70
   128
 43
2.0
 10
0.0
 20
416.5658229286379
 10
2.0
 20
416.5658229286379
  0
LWPOLYLINE
  5
38EC
330
2
100
AcDbEntity
  8
mechanical
  6
Continuous
100
AcDbPolyline
 90
        2
 70
   128
 43
2.0
 10
0.0
 20
1.0
 10
2.0
 20
1.0
  0
LWPOLYLINE
  5
38ED
330
2
100
AcDbEntity
  8
mechanical
  6
Continuous
100
AcDbPolyline
 90
        2
 70
   128
 43
2.0
 10
100.0
 20
416.5658229286379
 10
102.0
 20
416.5658229286379
  0
LWPOLYLINE
  5
38EE
330
2
100
AcDbEntity
  8
mechanical
  6
Continuous
100
AcDbPolyline
 90
        2
 70
   128
 43
2.0
 10
100.0
 20
1.0
 10
102.0
 20
1.0
  0
LWPOLYLINE
  5
38EF
330
2
100
AcDbEntity
  8
mechanical
  6
Continuous
100
AcDbPolyline
 90
        2
 70
   128
 43
2.0
 10
200.0
 20
416.5658229286379
 10
202.0
 20
416.5658229286379
  0
LWPOLYLINE
  5
38F0
330
2
100
AcDbEntity
  8
mechanical
  6
Continuous
100
AcDbPolyline
 90
        2
 70
   128
 43
2.0
 10
200.0
 20
1.0
 10
202.0
 20
1.0
  0
LWPOLYLINE
  5
38F1
330
2
100
AcDbEntity
  8
mechanical
  6
Continuous
100
AcDbPolyline
 90
        2
 70
   128
 43
2.0
 10
300.0
 20
416.5658229286379
 10
302.0
 20
416.5658229286379
  0
LWPOLYLINE
  5
38F2
330
2
100
AcDbEntity
  8
mechanical
  6
Continuous
100
AcDbPolyline
 90
        2
 70
   128
 43
2.0
 10
300.0
 20
1.0
 10
302.0
 20
1.0
  0
LWPOLYLINE
  5
38F3
330
2
100
AcDbEntity
  8
mechanical
  6
Continuous
100
AcDbPolyline
 90
        2
 70
   128
 43
2.0
 10
400.0
 20
416.5658229286379
 10
402.0
 20
416.5658229286379
  0
LWPOLYLINE
  5
38F4
330
2
100
AcDbEntity
  8
mechanical
  6
Continuous
100
AcDbPolyline
 90
        2
 70
   128
 43
2.0
 10
400.0
 20
1.0
 10
402.0
 20
1.0
  0
LWPOLYLINE
  5
38F5
330
2
100
AcDbEntity
  8
mechanical
  6
Continuous
100
AcDbPolyline
 90
        2
 70
   128
 43
2.0
 10
500.0
 20
416.5658229286379
 10
502.0
 20
416.5658229286379
  0
LWPOLYLINE
  5
38F6
330
2
100
AcDbEntity
  8
mechanical
  6
Continuous
100
AcDbPolyline
 90
        2
 70
   128
 43
2.0
 10
500.0
 20
1.0
 10
502.0
 20
1.0
  0
LWPOLYLINE
  5
38F7
330
2
100
AcDbEntity
  8
mechanical
  6
Continuous
100
AcDbPolyline
 90
        2
 70
   128
 43
2.0
 10
600.0
 20
416.5658229286379
 10
602.0
 20
416.5658229286379
  0
LWPOLYLINE
  5
38F8
330
2
100
AcDbEntity
  8
mechanical
  6
Continuous
100
AcDbPolyline
 90
        2
 70
   128
 43
2.0
 10
600.0
 20
1.0
 10
602.0
 20
1.0
  0
LWPOLYLINE
  5
38F9
330
2
100
AcDbEntity
  8
mechanical
  6
Continuous
100
AcDbPolyline
 90
        2
 70
   128
 43
2.0
 10
700.0
 20
416.5658229286379
 10
702.0
 20
416.5658229286379
  0
LWPOLYLINE
  5
38FA
330
2
100
AcDbEntity
  8
mechanical
  6
Continuous
100
AcDbPolyline
 90
        2
 70
   128
 43
2.0
 10
700.0
 20
1.0
 10
702.0
 20
1.0
  0
LWPOLYLINE
  5
38FB
330
2
100
AcDbEntity
  8
mechanical
  6
Continuous
100
AcDbPolyline
 90
        2
 70
   128
 43
2.0
 10
800.0
 20
416.5658229286379
 10
802.0
 20
416.5658229286379
  0
LWPOLYLINE
  5
38FC
330
2
100
AcDbEntity
  8
mechanical
  6
Continuous
100
AcDbPolyline
 90
        2
 70
   128
 43
2.0
 10
800.0
 20
1.0
 10
802.0
 20
1.0
  0
LWPOLYLINE
  5
38FD
330
2
100
AcDbEntity
  8
mechanical
  6
Continuous
100
AcDbPolyline
 90
        2
 70
   128
 43
2.0
 10
900.0
 20
416.5658229286379
 10
902.0
 20
416.5658229286379
  0
LWPOLYLINE
  5
38FE
330
2
100
AcDbEntity
  8
mechanical
  6
Continuous
100
AcDbPolyline
 90
        2
 70
   128
 43
2.0
 10
900.0
 20
1.0
 10
902.0
 20
1.0
  0
LWPOLYLINE
  5
38FF
330
2
100
AcDbEntity
  8
mechanical
  6
Continuous
100
AcDbPolyline
 90
        2
 70
   128
 43
2.0
 10
1000.0
 20
416.5658229286379
 10
1002.0
 20
416.5658229286379
  0
LWPOLYLINE
  5
3900
330
2
100
AcDbEntity
  8
mechanical
  6
Continuous
100
AcDbPolyline
 90
        2
 70
   128
 43
2.0
 10
1000.0
 20
1.0
 10
1002.0
 20
1.0
  0
LWPOLYLINE
  5
3901
330
2
100
AcDbEntity
  8
mechanical
  6
Continuous
100
AcDbPolyline
 90
        2
 70
   128
 43
2.0
 10
1100.0
 20
416.5658229286379
 10
1102.0
 20
416.5658229286379
  0
LWPOLYLINE
  5
3902
330
2
100
AcDbEntity
  8
mechanical
  6
Continuous
100
AcDbPolyline
 90
        2
 70
   128
 43
2.0
 10
1100.0
 20
1.0
 10
1102.0
 20
1.0
  0
LWPOLYLINE
  5
3903
330
2
100
AcDbEntity
  8
mechanical
  6
Continuous
100
AcDbPolyline
 90
        2
 70
   128
 43
2.0
 10
1154.3
 20
416.5658229286379
 10
1156.299999999999
 20
416.5658229286379
  0
LWPOLYLINE
  5
3904
330
2
100
AcDbEntity
  8
mechanical
  6
Continuous
100
AcDbPolyline
 90
        2
 70
   128
 43
2.0
 10
1154.3
 20
1.0
 10
1156.299999999999
 20
1.0
  0
LWPOLYLINE
  5
3905
330
2
100
AcDbEntity
  8
mechanical
100
AcDbPolyline
 90
       16
 70
   129
 43
0.5
 10
400.4332003038398
 20
69.09795815557675
 10
399.1207003038399
 20
68.47295815557675
 10
398.3082003038398
 20
66.66045815557669
 10
397.8707003038398
 20
63.72295815557652
 10
397.8707003038398
 20
61.91045815557675
 10
398.3082003038398
 20
58.91045815557664
 10
399.1207003038399
 20
57.16045815557652
 10
400.4332003038398
 20
56.59795815557675
 10
401.2457003038398
 20
56.59795815557675
 10
402.5582003038398
 20
57.16045815557652
 10
403.3082003038398
 20
58.91045815557664
 10
403.6832003038398
 20
61.91045815557675
 10
403.6832003038398
 20
63.72295815557652
 10
403.3082003038398
 20
66.66045815557669
 10
402.5582003038398
 20
68.47295815557675
 10
401.2457003038398
 20
69.09795815557675
  0
POINT
  5
3907
330
2
100
AcDbEntity
  8
mechanical
100
AcDbPoint
 10
446.8082003038398
 20
50.03545815557675
 30
0.0
  0
LWPOLYLINE
  5
390B
330
2
100
AcDbEntity
  8
mechanical
100
AcDbPolyline
 90
        3
 70
   128
 43
0.5
 10
326.8707003038398
 20
56.59795815557675
 10
330.2457003038398
 20
69.09795815557675
 10
333.4957003038399
 20
56.59795815557675
  0
LWPOLYLINE
  5
390C
330
2
100
AcDbEntity
  8
mechanical
100
AcDbPolyline
 90
        2
 70
   128
 43
0.5
 10
328.1207003038399
 20
60.72295815557669
 10
332.2457003038398
 20
60.72295815557669
  0
LWPOLYLINE
  5
390D
330
2
100
AcDbEntity
  8
mechanical
100
AcDbPolyline
 90
        2
 70
   128
 43
0.5
 10
337.3082003038399
 20
69.09795815557675
 10
337.3082003038399
 20
56.59795815557675
  0
LWPOLYLINE
  5
390E
330
2
100
AcDbEntity
  8
mechanical
100
AcDbPolyline
 90
        2
 70
   128
 43
0.5
 10
334.3707003038399
 20
69.09795815557675
 10
340.1832003038399
 20
69.09795815557675
  0
LWPOLYLINE
  5
390F
330
2
100
AcDbEntity
  8
mechanical
100
AcDbPolyline
 90
        3
 70
   128
 43
0.5
 10
342.3082003038398
 20
69.09795815557675
 10
342.3082003038398
 20
56.59795815557675
 10
347.3082003038399
 20
56.59795815557675
  0
LWPOLYLINE
  5
3910
330
2
100
AcDbEntity
  8
mechanical
100
AcDbPolyline
 90
        2
 70
   128
 43
0.5
 10
349.3707003038398
 20
69.09795815557675
 10
349.3707003038398
 20
56.59795815557675
  0
LWPOLYLINE
  5
3911
330
2
100
AcDbEntity
  8
mechanical
100
AcDbPolyline
 90
       18
 70
   128
 43
0.5
 10
358.4957003038399
 20
66.09795815557664
 10
358.0582003038399
 20
67.28545815557669
 10
357.3082003038398
 20
68.47295815557675
 10
356.4957003038399
 20
69.09795815557675
 10
354.8082003038398
 20
69.09795815557675
 10
353.9332003038398
 20
68.47295815557675
 10
353.1207003038399
 20
67.28545815557669
 10
352.6832003038399
 20
66.09795815557664
 10
352.2457003038399
 20
64.34795815557652
 10
352.2457003038399
 20
61.34795815557669
 10
352.6832003038399
 20
59.53545815557664
 10
353.1207003038399
 20
58.28545815557664
 10
353.9332003038398
 20
57.09795815557658
 10
354.8082003038398
 20
56.59795815557675
 10
356.4957003038399
 20
56.59795815557675
 10
357.3082003038398
 20
57.09795815557658
 10
358.0582003038399
 20
58.28545815557664
 10
358.4957003038399
 20
59.53545815557664
  0
LWPOLYLINE
  5
3912
330
2
100
AcDbEntity
  8
mechanical
100
AcDbPolyline
 90
        4
 70
   128
 43
0.5
 10
366.8707003038398
 20
56.59795815557675
 10
361.4332003038398
 20
56.59795815557675
 10
361.4332003038398
 20
69.09795815557675
 10
366.8707003038398
 20
69.09795815557675
  0
LWPOLYLINE
  5
3913
330
2
100
AcDbEntity
  8
mechanical
100
AcDbPolyline
 90
        2
 70
   128
 43
0.5
 10
361.4332003038398
 20
63.03545815557658
 10
364.7457003038399
 20
63.03545815557658
  0
LWPOLYLINE
  5
3914
330
2
100
AcDbEntity
  8
mechanical
100
AcDbPolyline
 90
       16
 70
   129
 43
0.5
 10
381.4957003038399
 20
69.09795815557675
 10
380.3082003038398
 20
68.47295815557675
 10
379.4957003038399
 20
66.66045815557669
 10
379.0582003038398
 20
63.66045815557658
 10
379.0582003038398
 20
61.91045815557675
 10
379.4957003038399
 20
58.91045815557664
 10
380.3082003038398
 20
57.09795815557658
 10
381.4957003038399
 20
56.59795815557675
 10
382.3082003038398
 20
56.59795815557675
 10
383.6207003038398
 20
57.09795815557658
 10
384.4332003038399
 20
58.91045815557664
 10
384.8707003038398
 20
61.91045815557675
 10
384.8707003038398
 20
63.66045815557658
 10
384.4332003038399
 20
66.66045815557669
 10
383.6207003038398
 20
68.47295815557675
 10
382.3082003038398
 20
69.09795815557675
  0
LWPOLYLINE
  5
3915
330
2
100
AcDbEntity
  8
mechanical
100
AcDbPolyline
 90
       16
 70
   129
 43
0.5
 10
389.8082003038398
 20
69.09795815557675
 10
388.5582003038398
 20
68.47295815557675
 10
387.7457003038399
 20
66.66045815557669
 10
387.4332003038398
 20
63.66045815557658
 10
387.4332003038398
 20
61.91045815557675
 10
387.7457003038399
 20
58.91045815557664
 10
388.5582003038398
 20
57.09795815557658
 10
389.8082003038398
 20
56.59795815557675
 10
390.6832003038399
 20
56.59795815557675
 10
391.9332003038399
 20
57.09795815557658
 10
392.8082003038398
 20
58.91045815557664
 10
393.2457003038398
 20
61.91045815557675
 10
393.2457003038398
 20
63.66045815557658
 10
392.8082003038398
 20
66.66045815557669
 10
391.9332003038399
 20
68.47295815557675
 10
390.6832003038399
 20
69.09795815557675
  0
LWPOLYLINE
  5
394F
330
2
100
AcDbEntity
  8
mechanical
100
AcDbPolyline
 90
       18
 70
   128
 43
0.25
 10
17.26994159407377
 20
185.0580334832127
 10
17.49091246319455
 20
185.4999752214543
 10
17.60139789775496
 20
186.0524023942563
 10
17.49091246319455
 20
186.4722470455858
 10
17.04897072495296
 20
186.9141887838274
 10
16.62912607362347
 20
187.0246742183878
 10
16.07669890082147
 20
186.9141887838274
 10
15.63475716257986
 20
186.6932179147066
 10
14.99394164212953
 20
186.2733732633771
 10
14.17634942638264
 20
185.4557810476302
 10
13.75650477505311
 20
184.8149655271799
 10
13.53553390593231
 20
184.3730237889382
 10
13.42504847137192
 20
183.8205966161363
 10
13.53553390593231
 20
183.4007519648068
 10
13.97747564417389
 20
182.9588102265652
 10
14.39732029550342
 20
182.8483247920048
 10
14.94974746830539
 20
182.9588102265652
 10
15.391689206547
 20
183.179781095686
  0
LWPOLYLINE
  5
3950
330
2
100
AcDbEntity
  8
mechanical
100
AcDbPolyline
 90
       23
 70
   128
 43
0.25
 10
19.85530076278706
 20
183.1355869218618
 10
20.07627163190787
 20
183.5775286601034
 10
19.85530076278706
 20
184.1078587459933
 10
19.63432989366629
 20
184.3288296151141
 10
19.12609689468846
 20
184.5277033973228
 10
18.37479593967774
 20
184.2625383543779
 10
17.42462120245835
 20
183.5333344862793
 10
16.56283481288722
 20
182.6715480967081
 10
16.01040764008522
 20
181.8981500547853
 10
15.92201929243691
 20
181.3236257950713
 10
16.12089307464563
 20
180.8153927960935
 10
16.23137850920602
 20
180.704907361533
 10
16.76170859509594
 20
180.4839364924123
 10
17.31413576789791
 20
180.5944219269727
 10
17.95495128834827
 20
181.0142665783022
 10
18.08753380982071
 20
181.1468490997746
 10
18.50737846115024
 20
181.7876646202249
 10
18.61786389571065
 20
182.3400917930269
 10
18.39689302658979
 20
182.8704218789168
 10
18.2864075920294
 20
182.9809073134772
 10
17.77817459305163
 20
183.179781095686
 10
17.20365033333755
 20
183.0913927480376
 10
16.56283481288722
 20
182.6715480967081
  0
LWPOLYLINE
  5
398E
330
2
100
AcDbEntity
  8
mechanical
100
AcDbPolyline
 90
        4
 70
     1
 43
1.0
 10
318.5582003038399
 20
75.16045815557664
 10
446.8082003038398
 20
75.16045815557664
 10
446.8082003038398
 20
50.03545815557675
 10
318.5582003038399
 20
50.03545815557675
  0
LWPOLYLINE
  5
39A5
330
2
100
AcDbEntity
  8
kapton
  6
Continuous
100
AcDbPolyline
 90
        2
 70
   128
 43
0.25
 10
972.1921412540067
 20
10.00000000000045
 42
0.3846436892416937
 10
184.1078587459924
 20
10.00000000000045
  0
LWPOLYLINE
  5
39A6
330
2
100
AcDbEntity
  8
kapton
  6
Continuous
100
AcDbPolyline
 90
        2
 70
   128
 43
0.25
 10
1146.3
 20
184.1078587459928
 42
0.3933080422118196
 10
10.0
 20
184.1078587459928
  0
LWPOLYLINE
  5
39A7
330
2
100
AcDbEntity
  8
kapton
  6
Continuous
100
AcDbPolyline
 90
        2
 70
   128
 43
0.25
 10
10.0
 20
184.1078587459928
 10
184.1078587459924
 20
10.0
  0
LWPOLYLINE
  5
39A8
330
2
100
AcDbEntity
  8
kapton
  6
Continuous
100
AcDbPolyline
 90
        2
 70
   128
 43
0.25
 10
10.0
 20
184.1078587459928
 10
184.1078587459924
 20
10.0
  0
LWPOLYLINE
  5
39A9
330
2
100
AcDbEntity
  8
kapton
  6
Continuous
100
AcDbPolyline
 90
        2
 70
   128
 43
0.25
 10
10.0
 20
184.1078587459928
 10
184.1078587459924
 20
10.0
  0
LWPOLYLINE
  5
39AA
330
2
100
AcDbEntity
  8
kapton
  6
Continuous
100
AcDbPolyline
 90
        2
 70
   128
 43
0.25
 10
1146.3
 20
184.1078587459928
 10
972.1921412540067
 20
10.0
  0
LWPOLYLINE
  5
39AB
330
2
100
AcDbEntity
  8
kapton
  6
Continuous
100
AcDbPolyline
 90
        2
 70
   129
 43
0.25
 10
375.6499999999996
 20
209.0
 42
0.9999999999999998
 10
361.6499999999996
 20
209.0
 42
0.9999999999999998
  0
LWPOLYLINE
  5
39AC
330
2
100
AcDbEntity
  8
kapton
  6
Continuous
100
AcDbPolyline
 90
        2
 70
   129
 43
0.125
 10
1146.2375
 20
184.1078587459928
 42
1.0
 10
1146.362499999999
 20
184.1078587459928
 42
1.0
  0
LWPOLYLINE
  5
39AD
330
2
100
AcDbEntity
  8
kapton
  6
Continuous
100
AcDbPolyline
 90
        2
 70
   129
 43
0.125
 10
972.1296412540068
 20
10.0
 42
1.0
 10
972.2546412540069
 20
10.0
 42
1.0
  0
LWPOLYLINE
  5
39AE
330
2
100
AcDbEntity
  8
kapton
  6
Continuous
100
AcDbPolyline
 90
        2
 70
   129
 43
0.125
 10
184.0453587459924
 20
10.00000000000045
 42
1.0
 10
184.1703587459924
 20
10.00000000000045
 42
1.0
  0
LWPOLYLINE
  5
39AF
330
2
100
AcDbEntity
  8
kapton
  6
Continuous
100
AcDbPolyline
 90
        2
 70
   129
 43
0.125
 10
9.9375
 20
184.1078587459928
 42
1.0
 10
10.0625
 20
184.1078587459928
 42
1.0
  0
LWPOLYLINE
  5
39B0
330
2
100
AcDbEntity
  8
kapton
  6
Continuous
100
AcDbPolyline
 90
        2
 70
   129
 43
0.25
 10
349.6499999999997
 20
293.0
 42
0.9999999999999998
 10
335.6499999999996
 20
293.0
 42
0.9999999999999998
  0
LWPOLYLINE
  5
39B1
330
2
100
AcDbEntity
  8
kapton
  6
Continuous
100
AcDbPolyline
 90
        2
 70
   129
 43
0.25
 10
780.6499999999996
 20
209.0
 42
-0.9999999999999998
 10
794.6499999999996
 20
209.0
 42
-0.9999999999999998
  0
LWPOLYLINE
  5
39B2
330
2
100
AcDbEntity
  8
kapton
  6
Continuous
100
AcDbPolyline
 90
        2
 70
   129
 43
0.25
 10
806.6499999999996
 20
293.0
 42
-0.9999999999999998
 10
820.6499999999996
 20
293.0
 42
-0.9999999999999998
  0
HATCH
  5
39B3
330
2
100
AcDbEntity
  8
kapton
100
AcDbHatch
 10
0.0
 20
0.0
 30
0.0
210
0.0
220
0.0
230
1.0
  2
ANSI37
 70
     0
 71
     1
 91
        1
 92
        7
 72
     0
 73
     1
 93
        4
 10
603.1500000000001
 20
405.065822928638
 10
553.1500000000001
 20
405.065822928638
 10
553.1500000000001
 20
400.0658229286379
 10
603.1500000000001
 20
400.0658229286379
 97
        1
330
39B4
 75
     0
 76
     1
 52
0.0
 41
0.5
 77
     0
 78
     2
 53
45.0
 43
0.0
 44
0.0
 45
-1.122532015133643
 46
1.122532015133644
 79
     0
 53
135.0
 43
0.0
 44
0.0
 45
-1.122532015133644
 46
-1.122532015133643
 79
     0
 47
0.0646116985712494
 98
        1
 10
592.5226862862218
 20
403.6455137151715
1001
ACAD
1010
0.0
1020
0.0
1030
0.0
  0
LWPOLYLINE
  5
39B4
102
{ACAD_REACTORS
330
39B3
102
}
330
2
100
AcDbEntity
  8
kapton
100
AcDbPolyline
 90
        4
 70
     1
 43
0.25
 10
553.1500000000001
 20
405.065822928638
 10
603.1500000000001
 20
405.065822928638
 10
603.1500000000001
 20
400.0658229286379
 10
553.1500000000001
 20
400.0658229286379
  0
LWPOLYLINE
  5
39C8
330
2
100
AcDbEntity
  8
copper
100
AcDbPolyline
 90
        2
 70
   128
 43
0.5
 10
548.5188407653534
 20
402.6504889298957
 42
0.1346900899421399
 10
553.5686121237024
 20
404.2319145258802
  0
LWPOLYLINE
  5
39C9
330
2
100
AcDbEntity
  8
copper
100
AcDbPolyline
 90
        2
 70
   128
 43
0.5
 10
553.9017181157669
 20
400.6947320343222
 42
0.1048012284961556
 10
549.8182760856029
 20
401.4151624681731
  0
LWPOLYLINE
  5
39CA
330
2
100
AcDbEntity
  8
copper
100
AcDbPolyline
 90
        2
 70
   128
 43
1.199999999999999
 10
553.4522533091794
 20
403.5997724821767
 10
551.3158925826409
 20
402.6012050808085
  0
LWPOLYLINE
  5
39CB
330
2
100
AcDbEntity
  8
copper
100
AcDbPolyline
 90
        2
 70
   128
 43
1.199999999999999
 10
553.9133416984696
 20
401.2032129881581
 10
551.8307709929477
 20
401.8177148406589
  0
LWPOLYLINE
  5
39CC
330
2
100
AcDbEntity
  8
copper
100
AcDbPolyline
 90
        2
 70
   128
 43
0.5
 10
558.2224119952879
 20
398.9172884875967
 42
0.4071607595117997
 10
561.1499999999996
 20
401.9164144440944
  0
LWPOLYLINE
  5
39CD
330
2
100
AcDbEntity
  8
copper
100
AcDbPolyline
 90
        2
 70
   128
 43
1.199999999999999
 10
561.7849164807558
 20
400.7170229469275
 10
559.7696420755656
 20
398.5169402047709
  0
LWPOLYLINE
  5
39CE
330
2
100
AcDbEntity
  8
copper
100
AcDbPolyline
 90
        2
 70
   128
 43
0.5
 10
607.7811592346442
 20
402.6504889298956
 42
-0.1346900899421399
 10
602.7313878762953
 20
404.2319145258801
  0
LWPOLYLINE
  5
39CF
330
2
100
AcDbEntity
  8
copper
100
AcDbPolyline
 90
        2
 70
   128
 43
0.5
 10
602.3982818842307
 20
400.694732034322
 42
-0.1048012284961556
 10
606.4817239143948
 20
401.415162468173
  0
LWPOLYLINE
  5
39D0
330
2
100
AcDbEntity
  8
copper
100
AcDbPolyline
 90
        2
 70
   128
 43
1.199999999999999
 10
602.8477466908183
 20
403.5997724821767
 10
604.9841074173567
 20
402.6012050808084
  0
LWPOLYLINE
  5
39D1
330
2
100
AcDbEntity
  8
copper
100
AcDbPolyline
 90
        2
 70
   128
 43
1.199999999999999
 10
602.3866583015281
 20
401.203212988158
 10
604.4692290070501
 20
401.8177148406588
  0
LWPOLYLINE
  5
39D2
330
2
100
AcDbEntity
  8
copper
100
AcDbPolyline
 90
        2
 70
   128
 43
0.5
 10
598.0775880047096
 20
398.9172884875967
 42
-0.4071607595117997
 10
595.1499999999981
 20
401.9164144440944
  0
LWPOLYLINE
  5
39D3
330
2
100
AcDbEntity
  8
copper
100
AcDbPolyline
 90
        2
 70
   128
 43
1.199999999999999
 10
594.5150835192419
 20
400.7170229469274
 10
596.5303579244321
 20
398.5169402047708
  0
LWPOLYLINE
  5
39D6
330
2
100
AcDbEntity
  8
mechanical
100
AcDbPolyline
 90
        4
 70
   128
 43
0.5
 10
410.5582003038398
 20
56.66045815557669
 10
410.5582003038398
 20
69.09795815557675
 10
406.4332003038398
 20
60.78545815557678
 10
412.6832003038398
 20
60.78545815557678
  0
LWPOLYLINE
  5
39DA
330
2
100
AcDbEntity
  8
mechanical
100
AcDbPolyline
 90
       18
 70
   128
 43
0.5
 10
429.9332003038398
 20
65.47295815557678
 10
429.6207003038398
 20
66.47295815557672
 10
428.9957003038398
 20
67.41045815557672
 10
428.2457003038398
 20
67.84795815557675
 10
426.9957003038398
 20
67.84795815557675
 10
426.2457003038398
 20
67.41045815557672
 10
425.6207003038398
 20
66.47295815557672
 10
425.3082003038398
 20
65.47295815557678
 10
424.9957003038398
 20
64.03545815557681
 10
424.9957003038398
 20
61.66045815557684
 10
425.3082003038398
 20
60.22295815557672
 10
425.6207003038398
 20
59.22295815557678
 10
426.2457003038398
 20
58.28545815557678
 10
426.9957003038398
 20
57.84795815557675
 10
428.2457003038398
 20
57.84795815557675
 10
428.9957003038398
 20
58.28545815557678
 10
429.6207003038398
 20
59.22295815557678
 10
429.9332003038398
 20
60.22295815557672
  0
LWPOLYLINE
  5
39DB
330
2
100
AcDbEntity
  8
mechanical
100
AcDbPolyline
 90
       23
 70
   128
 43
0.5
 10
435.9957003038398
 20
66.41045815557678
 10
435.6832003038398
 20
67.41045815557672
 10
434.6207003038398
 20
67.91045815557684
 10
433.9957003038398
 20
67.91045815557684
 10
432.9332003038398
 20
67.41045815557672
 10
432.3082003038398
 20
66.03545815557684
 10
431.9332003038398
 20
63.59795815557678
 10
431.9332003038398
 20
61.22295815557666
 10
432.3082003038398
 20
59.34795815557666
 10
432.9332003038398
 20
58.41045815557666
 10
433.9957003038398
 20
57.84795815557661
 10
434.3082003038398
 20
57.84795815557661
 10
435.2457003038398
 20
58.41045815557666
 10
435.9957003038398
 20
59.34795815557666
 10
436.3082003038398
 20
60.72295815557684
 10
436.3082003038398
 20
61.22295815557666
 10
435.9957003038398
 20
62.59795815557684
 10
435.2457003038398
 20
63.59795815557678
 10
434.3082003038398
 20
64.09795815557661
 10
433.9957003038398
 20
64.09795815557661
 10
432.9332003038398
 20
63.59795815557678
 10
432.3082003038398
 20
62.59795815557684
 10
431.9332003038398
 20
61.22295815557666
  0
VIEWPORT
  5
17F
102
{ACAD_XDICTIONARY
360
39EF
102
}
330
148
100
AcDbEntity
 67
     1
  8
0
  6
Continuous
100
AcDbViewport
 10
539.4629528462933
 20
436.6083350012517
 30
0.0
 40
1387.054359180414
 41
867.4927515749562
 68
     1
 69
     1
 12
539.4629528462933
 22
436.6083350012517
 13
0.0
 23
0.0
 14
10.0
 24
10.0
 15
10.0
 25
10.0
 16
0.0
 26
0.0
 36
1.0
 17
0.0
 27
0.0
 37
0.0
 42
50.0
 43
0.0
 44
0.0
 45
867.4927515749562
 50
0.0
 51
0.0
 72
   100
 90
    32800
  1

281
     0
 71
     1
 74
     0
110
0.0
120
0.0
130
0.0
111
1.0
121
0.0
131
0.0
112
0.0
122
1.0
132
0.0
 79
     0
146
0.0
  0
VIEWPORT
  5
181
102
{ACAD_XDICTIONARY
360
39F1
102
}
330
148
100
AcDbEntity
 67
     1
  8
0
  6
Continuous
100
AcDbViewport
 10
573.7436809539794
 20
392.7263202667236
 30
0.0
 40
917.9898895263672
 41
628.3621124267579
 68
     2
 69
     2
 12
454.7134502953538
 22
167.0708391774632
 13
0.0
 23
0.0
 14
1.0
 24
1.0
 15
0.0
 25
0.0
 16
0.0
 26
0.0
 36
1.0
 17
0.0
 27
0.0
 37
0.0
 42
50.0
 43
0.0
 44
0.0
 45
558.6397812350369
 50
0.0
 51
0.0
 72
   100
 90
    32800
  1

281
     0
 71
     1
 74
     0
110
0.0
120
0.0
130
0.0
111
1.0
121
0.0
131
0.0
112
0.0
122
1.0
132
0.0
 79
     1
146
0.0
  0
ENDSEC
  0
SECTION
  2
OBJECTS
  0
DICTIONARY
  5
9
330
0
100
AcDbDictionary
281
     1
  3
ACAD_COLOR
350
162
  3
ACAD_GROUP
350
15E
  3
ACAD_LAYOUT
350
147
  3
ACAD_MATERIAL
350
161
  3
ACAD_MLINESTYLE
350
15F
  3
ACAD_PLOTSETTINGS
350
160
  3
ACAD_PLOTSTYLENAME
350
8
  3
ACAD_TABLESTYLE
350
16D5
  3
ACAD_VISUALSTYLE
350
16C4
  3
AcDbVariableDictionary
350
16B
  3
ADE_QUERY_LIBRARY
350
16EA
  3
ASE_INDEX_DICTIONARY
350
6DB
  3
Autodesk_MAP
350
16D9
  3
DWGPROPS
350
39EA
1001
ADE
1000
ADE02C004
1000
[Query]
1000
CaseSensitiveMatch=0
1000
SaveCurrQueryInSession=1
1000
MkSelSetWithQryObj=0
1000
ShowBlockAsInsPt=0
1000
CreateAssociativeHatchObjects=0
1000
ReferenceBoundaryForAreaLocation=1
1000
ShowImageAsBoundary=1
1000
DefaultJoinOperator=2
1000
ColorForAdd=red
1000
ColorForRemove=red
1000
BlockLocnForQuery=1
1000
TextLocnForQuery=1
1000
IncludeAllObjectsInGroups=0
1000
AlwaysUseLibraryDefinitions=0
1000
PreviewDefinitionsFrom=2
1000
[Save Back]
1000
RedefineBlockDefinitions=1
1000
RedefineLayerDefinitions=1
1000
RedefineTextStyleDefinitions=1
1000
RemoveUnusedGroups=1
1000
EraseSavedBackObjects=1
1000
RemoveLockAfterSave=1
1000
CreateHistoryFileOfChanges=0
1000
CreateBackupFileOfSourceDwg=1
1000
DontAddObjectsToSaveSet=0
1000
MarkObjectsForEditingWithoutPrompting=0
1000
FdoDontAddObjsToSvSet=0
1000
FdoEditWithoutPrompt=1
1000
FdoRemUnusedGrps=1
1000
FdoEraseSvdBkObjs=1
1000
FdoRemoveLockOnSave=1
1000
FdoTesselationMaxPointsDistance=0
1000
FdoTesselationMaxCurvesDistance=0
1000
[Coordinate Transformation]
1000
RestoreLastActiveDwgsOnStartup=1
1000
ActivateDwgsOnAttach=1
1000
AdjustSizesAndScalesForChangesInUnits=1
1000
AdjustRotationsForMapDistortions=1
1000
AdjustSizesAndScalesForMapDistortions=1
1000
AdjustElevations=1
1000
AdjustZeroRotationObjects=1
1000
ReconnectDbOnWSOpen=1
1000
NoOfSQLConditionsInHistory=10
  0
DICTIONARY
  5
18FA
330
14E
100
AcDbDictionary
280
     1
281
     1
  3
ACAD_LAYERFILTERS
360
39DD
  3
ACLYDICTIONARY
360
39DC
  0
DICTIONARY
  5
3
330
2
100
AcDbDictionary
280
     1
281
     1
  3
ACAD_LAYOUTSELFREF
360
4
  3
ACAD_SORTENTS
360
1703
  0
DICTIONARY
  5
149
330
148
100
AcDbDictionary
280
     1
281
     1
  3
ACAD_LAYOUTSELFREF
360
14A
  0
DICTIONARY
  5
39EF
330
17F
100
AcDbDictionary
280
     1
281
     1
  3
ACAD_XREC_ROUNDTRIP
360
39F0
  0
DICTIONARY
  5
39F1
330
181
100
AcDbDictionary
280
     1
281
     1
  3
ACAD_XREC_ROUNDTRIP
360
39F2
  0
DICTIONARY
  5
162
102
{ACAD_REACTORS
330
9
102
}
330
9
100
AcDbDictionary
281
     1
  0
DICTIONARY
  5
15E
102
{ACAD_REACTORS
330
9
102
}
330
9
100
AcDbDictionary
281
     1
  0
DICTIONARY
  5
147
102
{ACAD_REACTORS
330
9
102
}
330
9
100
AcDbDictionary
281
     1
  3
Layout1
350
14D
  3
Model
350
146
  0
DICTIONARY
  5
161
102
{ACAD_REACTORS
330
9
102
}
330
9
100
AcDbDictionary
281
     1
  3
ByBlock
350
16C2
  3
ByLayer
350
16C1
  3
Global
350
16C3
  0
DICTIONARY
  5
15F
102
{ACAD_REACTORS
330
9
102
}
330
9
100
AcDbDictionary
281
     1
  3
STANDARD
350
163
  0
DICTIONARY
  5
160
102
{ACAD_REACTORS
330
9
102
}
330
9
100
AcDbDictionary
281
     1
  0
ACDBDICTIONARYWDFLT
  5
8
102
{ACAD_REACTORS
330
9
102
}
330
9
100
AcDbDictionary
281
     1
  3
Normal
350
7
100
AcDbDictionaryWithDefault
340
7
  0
DICTIONARY
  5
16D5
102
{ACAD_REACTORS
330
9
102
}
330
9
100
AcDbDictionary
281
     1
  3
Legend
350
16DF
  3
Standard
350
16D6
  0
DICTIONARY
  5
16C4
102
{ACAD_REACTORS
330
9
102
}
330
9
100
AcDbDictionary
281
     1
  3
2dWireframe
350
16CA
  3
3D Hidden
350
16CC
  3
3dWireframe
350
16CB
  3
Basic
350
16C9
  3
Brighten
350
16D0
  3
ColorChange
350
16D4
  3
Conceptual
350
16CD
  3
Dim
350
16CF
  3
Facepattern
350
16D3
  3
Flat
350
16C5
  3
FlatWithEdges
350
16C6
  3
Gouraud
350
16C7
  3
GouraudWithEdges
350
16C8
  3
Linepattern
350
16D2
  3
Realistic
350
16CE
  3
Thicken
350
16D1
  0
DICTIONARY
  5
16B
102
{ACAD_REACTORS
330
9
102
}
330
9
100
AcDbDictionary
281
     1
  3
CTABLESTYLE
350
16ED
  3
DIMASSOC
350
16D
  3
HIDETEXT
350
16C
  3
INDEXCTL
350
39E9
  3
PROJECTNAME
350
16E
  3
SORTENTS
350
7B5
  0
DICTIONARY
  5
16EA
102
{ACAD_REACTORS
330
9
102
}
330
9
100
AcDbDictionary
281
     1
  3
_CurrQry
350
39E8
  0
DICTIONARY
  5
6DB
102
{ACAD_REACTORS
330
9
102
}
330
9
100
AcDbDictionary
281
     1
  3
ASEBlockHierarchyIndexRecord
350
6DC
1001
DCO15
1040
1584427516.13
  0
DICTIONARY
  5
16D9
102
{ACAD_REACTORS
330
9
102
}
330
9
100
AcDbDictionary
281
     1
  3
AcMapDMStylizedEntities
350
16E6
  3
FSD_Dictionary
350
16E7
  3
MAP_DISPLAY_CUSTOMOBJ_REG_TABLE
350
16DD
  3
MAP_DISPLAY_MANAGEMENT_DICTIONARY
350
16DA
  3
MAP_DISPLAY_STYLELIBRARY_DICTIONARY
350
16DB
1001
MapGWS
1000
C:\Documents and Settings\All Users\Application Data\Autodesk\Autodesk Map 3D 2007\R17.0\MapCache\ATLICE-C6GWS12.xml
  0
XRECORD
  5
39EA
102
{ACAD_REACTORS
330
9
102
}
330
9
100
AcDbXrecord
280
     1
  1
DWGPROPS COOKIE
  2

  3

  4

  6

  7

  8
janez
  9

300
=
301
=
302
=
303
=
304
=
305
=
306
=
307
=
308
=
309
=
 40
1.200969710648148
 41
2311946.475710706
 42
2454141.493288542
  1

 90
        0
  0
DICTIONARY
  5
39DD
102
{ACAD_REACTORS
330
18FA
102
}
330
18FA
100
AcDbDictionary
281
     1
  0
DICTIONARY
  5
39DC
102
{ACAD_REACTORS
330
18FA
102
}
330
18FA
100
AcDbDictionary
281
     1
1001
ACAD
1000
<All
  0
XRECORD
  5
4
102
{ACAD_REACTORS
330
3
102
}
330
3
100
AcDbXrecord
280
     1
340
2
  0
SORTENTSTABLE
  5
1703
102
{ACAD_REACTORS
330
3
102
}
330
3
100
AcDbSortentsTable
330
2
331
326D
  5
3512
331
2FA1
  5
2FA1
331
30BF
  5
3387
331
3156
  5
3416
331
2FA2
  5
2FA2
331
30C0
  5
3388
331
3157
  5
3418
331
326E
  5
3513
331
30C1
  5
3389
331
3158
  5
341A
331
326F
  5
3514
331
30C2
  5
338A
331
3159
  5
341C
331
3270
  5
3515
331
3567
  5
30BC
331
30C3
  5
338B
331
315A
  5
341F
331
30C4
  5
338C
331
315B
  5
3420
331
30C5
  5
338D
331
315C
  5
3421
331
3273
  5
3517
331
3028
  5
3133
331
305F
  5
31BF
331
30C6
  5
338E
331
315D
  5
3425
331
3274
  5
3518
331
3029
  5
3134
331
30C7
  5
338F
331
315E
  5
3426
331
3275
  5
3519
331
302A
  5
3136
331
30C8
  5
3390
331
3276
  5
351A
331
302B
  5
3137
331
3277
  5
351B
331
3278
  5
351C
331
302C
  5
3139
331
3189
  5
3463
331
302D
  5
313A
331
3279
  5
351D
331
302E
  5
313C
331
327A
  5
351E
331
36B9
  5
2FB1
331
302F
  5
313D
331
3076
  5
3266
331
327B
  5
351F
331
3077
  5
3274
331
327C
  5
3520
331
327D
  5
3521
331
2F92
  5
2F92
331
2F93
  5
2F93
331
327E
  5
3522
331
2F94
  5
2F94
331
2F95
  5
2F95
331
2F96
  5
2F96
331
30B4
  5
332A
331
30E3
  5
339F
331
319A
  5
3474
331
30B5
  5
332E
331
30E4
  5
33A1
331
319B
  5
3475
331
2F97
  5
2F97
331
30B6
  5
3330
331
30B7
  5
3334
331
2F98
  5
2F98
331
2F99
  5
2F99
331
3030
  5
313E
331
2F9A
  5
2F9A
331
3031
  5
313F
331
30B8
  5
3337
331
3032
  5
3140
331
30B9
  5
337A
331
2F9B
  5
2F9B
331
2F9C
  5
2F9C
331
3033
  5
3141
331
30BA
  5
337C
331
3034
  5
3147
331
30BB
  5
3380
331
3152
  5
3412
331
30BC
  5
3382
331
3153
  5
3413
331
326A
  5
350F
331
30BD
  5
3385
331
3154
  5
3414
331
326B
  5
3510
331
2FA0
  5
2FA0
331
30BE
  5
3386
331
3155
  5
3415
331
326C
  5
3511
  0
XRECORD
  5
14A
102
{ACAD_REACTORS
330
149
102
}
330
149
100
AcDbXrecord
280
     1
340
148
  0
XRECORD
  5
39F0
102
{ACAD_REACTORS
330
39EF
102
}
330
39EF
100
AcDbXrecord
280
     1
102
SHADEPLOT
 70
     0
  0
XRECORD
  5
39F2
102
{ACAD_REACTORS
330
39F1
102
}
330
39F1
100
AcDbXrecord
280
     1
102
SHADEPLOT
 70
     0
  0
LAYOUT
  5
14D
102
{ACAD_XDICTIONARY
360
39ED
102
}
102
{ACAD_REACTORS
330
147
102
}
330
147
100
AcDbPlotSettings
  1

  2
\\ris\laserc
  4
A4
  6

 40
6.805083274841308
 41
5.069413185119628
 42
6.805084228515625
 43
5.027069091796875
 44
209.9733276367187
 45
296.9683227539062
 46
0.0
 47
0.0
 48
0.0
 49
0.0
140
0.0
141
0.0
142
1.0
143
4.0
 70
   688
 72
     1
 73
     1
 74
     5
  7
monochrome.ctb
 75
    18
147
0.25
148
0.0
149
0.0
100
AcDbLayout
  1
Layout1
 70
     0
 71
     1
 10
-20.1082763671875
 20
-27.22033309936524
 11
1167.765014648437
 21
812.6729774475098
 12
0.0
 22
0.0
 32
0.0
 14
114.7487361907958
 24
78.54526405334468
 34
0.0
 15
1032.738625717163
 25
706.9073764801025
 35
0.0
146
0.0
 13
0.0
 23
0.0
 33
0.0
 16
1.0
 26
0.0
 36
0.0
 17
0.0
 27
1.0
 37
0.0
 76
     0
330
148
331
17F
  0
LAYOUT
  5
146
102
{ACAD_XDICTIONARY
360
39EB
102
}
102
{ACAD_REACTORS
330
147
102
}
330
147
100
AcDbPlotSettings
  1

  2
\\ris\laserc
  4
A4
  6

 40
6.805083274841308
 41
5.069413185119628
 42
6.805084228515625
 43
5.027069091796875
 44
209.9733276367187
 45
296.9683227539062
 46
11.4
 47
35.65
 48
36.08173645326978
 49
39.13963998603622
140
251.6490471755318
141
212.6978016188405
142
1.0
143
1.0
 70
 11956
 72
     1
 73
     1
 74
     4
  7
monochrome.ctb
 75
    16
147
1.0
148
-36.08173645326978
149
-39.13963998603622
100
AcDbLayout
  1
Model
 70
     1
 71
     0
 10
0.0
 20
0.0
 11
12.0
 21
9.0
 12
0.0
 22
0.0
 32
0.0
 14
0.0
 24
0.0
 34
0.0
 15
0.0
 25
0.0
 35
0.0
146
0.0
 13
0.0
 23
0.0
 33
0.0
 16
1.0
 26
0.0
 36
0.0
 17
0.0
 27
1.0
 37
0.0
 76
     0
330
2
331
16BF
  0
MATERIAL
  5
16C2
102
{ACAD_XDICTIONARY
360
39F5
102
}
102
{ACAD_REACTORS
330
161
102
}
330
161
100
AcDbMaterial
  1
ByBlock
  0
MATERIAL
  5
16C1
102
{ACAD_XDICTIONARY
360
39F3
102
}
102
{ACAD_REACTORS
330
161
102
}
330
161
100
AcDbMaterial
  1
ByLayer
  0
MATERIAL
  5
16C3
102
{ACAD_XDICTIONARY
360
39F7
102
}
102
{ACAD_REACTORS
330
161
102
}
330
161
100
AcDbMaterial
  1
Global
  0
MLINESTYLE
  5
163
102
{ACAD_REACTORS
330
15F
102
}
330
15F
100
AcDbMlineStyle
  2
STANDARD
 70
     0
  3

 62
     0
 51
90.0
 52
90.0
 71
     2
 49
0.5
 62
   256
  6
BYLAYER
 49
-0.5
 62
   256
  6
BYLAYER
  0
ACDBPLACEHOLDER
  5
7
102
{ACAD_REACTORS
330
8
102
}
330
8
  0
TABLESTYLE
  5
16DF
102
{ACAD_XDICTIONARY
360
39FB
102
}
102
{ACAD_REACTORS
330
16D5
102
}
330
16D5
100
AcDbTableStyle
  3

 70
     0
 71
     1
 40
0.06
 41
0.06
280
     0
281
     0
  7
STANDARD
140
0.4
170
     4
 62
     0
 63
     7
283
     0
274
    -2
284
     0
 64
     0
275
    -2
285
     0
 65
     0
276
    -2
286
     1
 66
     0
277
    -2
287
     1
 67
     0
278
    -2
288
     0
 68
     0
279
    -2
289
     1
 69
     0
  7
STANDARD
140
0.5
170
     5
 62
     0
 63
     7
283
     0
274
    -2
284
     1
 64
     0
275
    -2
285
     0
 65
     0
276
    -2
286
     1
 66
     0
277
    -2
287
     1
 67
     0
278
    -2
288
     0
 68
     0
279
    -2
289
     1
 69
     0
  7
STANDARD
140
0.4
170
     4
 62
     0
 63
     7
283
     0
274
    -2
284
     1
 64
     0
275
    -2
285
     0
 65
     0
276
    -2
286
     1
 66
     0
277
    -2
287
     1
 67
     0
278
    -2
288
     0
 68
     0
279
    -2
289
     1
 69
     0
  0
TABLESTYLE
  5
16D6
102
{ACAD_XDICTIONARY
360
39F9
102
}
102
{ACAD_REACTORS
330
16D5
102
}
330
16D5
100
AcDbTableStyle
  3
Standard
 70
     0
 71
     0
 40
1.5
 41
1.5
280
     0
281
     0
  7
STANDARD
140
4.5
170
     2
 62
     0
 63
     7
283
     0
274
    -2
284
     1
 64
     0
275
    -2
285
     1
 65
     0
276
    -2
286
     1
 66
     0
277
    -2
287
     1
 67
     0
278
    -2
288
     1
 68
     0
279
    -2
289
     1
 69
     0
  7
STANDARD
140
6.0
170
     5
 62
     0
 63
     7
283
     0
274
    -2
284
     1
 64
     0
275
    -2
285
     1
 65
     0
276
    -2
286
     1
 66
     0
277
    -2
287
     1
 67
     0
278
    -2
288
     1
 68
     0
279
    -2
289
     1
 69
     0
  7
STANDARD
140
4.5
170
     5
 62
     0
 63
     7
283
     0
274
    -2
284
     1
 64
     0
275
    -2
285
     1
 65
     0
276
    -2
286
     1
 66
     0
277
    -2
287
     1
 67
     0
278
    -2
288
     1
 68
     0
279
    -2
289
     1
 69
     0
  0
VISUALSTYLE
  5
16CA
102
{ACAD_REACTORS
330
16C4
102
}
330
16C4
100
AcDbVisualStyle
  2
2dWireframe
 70
     4
 71
     0
 72
     2
 73
     0
 90
        0
 40
-0.6
 41
-30.0
 62
     5
 63
     7
 74
     1
 91
        4
 64
     7
 65
   257
 75
     1
175
     1
 42
1.0
 92
        0
 66
   257
 43
1.0
 76
     1
 77
     6
 78
     2
 67
     7
 79
     5
170
     0
171
     0
290
     0
174
     0
 93
        1
 44
0.0
173
     0
291
     0
 45
0.0
1001
ACAD
1000
AcDbSavedByObjectVersion
1070
     0
  0
VISUALSTYLE
  5
16CC
102
{ACAD_REACTORS
330
16C4
102
}
330
16C4
100
AcDbVisualStyle
  2
3D Hidden
 70
     6
 71
     1
 72
     2
 73
     2
 90
        0
 40
-0.6
 41
-30.0
 62
     5
 63
     7
 74
     2
 91
        2
 64
     7
 65
   257
 75
     2
175
     1
 42
40.0
 92
        0
 66
   257
 43
1.0
 76
     1
 77
     6
 78
     2
 67
     7
 79
     3
170
     0
171
     0
290
     0
174
     0
 93
        1
 44
0.0
173
     0
291
     0
 45
0.0
1001
ACAD
1000
AcDbSavedByObjectVersion
1070
     0
  0
VISUALSTYLE
  5
16CB
102
{ACAD_REACTORS
330
16C4
102
}
330
16C4
100
AcDbVisualStyle
  2
3dWireframe
 70
     5
 71
     0
 72
     2
 73
     0
 90
        0
 40
-0.6
 41
-30.0
 62
     5
 63
     7
 74
     1
 91
        4
 64
     7
 65
   257
 75
     1
175
     1
 42
1.0
 92
        0
 66
   257
 43
1.0
 76
     1
 77
     6
 78
     2
 67
     7
 79
     5
170
     0
171
     0
290
     0
174
     0
 93
        1
 44
0.0
173
     0
291
     0
 45
0.0
1001
ACAD
1000
AcDbSavedByObjectVersion
1070
     0
  0
VISUALSTYLE
  5
16C9
102
{ACAD_REACTORS
330
16C4
102
}
330
16C4
100
AcDbVisualStyle
  2
Basic
 70
     7
 71
     1
 72
     0
 73
     1
 90
        0
 40
-0.6
 41
-30.0
 62
     5
 63
     7
 74
     0
 91
        4
 64
     7
 65
   257
 75
     1
175
     1
 42
1.0
 92
        8
 66
     7
 43
1.0
 76
     1
 77
     6
 78
     2
 67
     7
 79
     5
170
     0
171
     0
290
     0
174
     0
 93
        1
 44
0.0
173
     0
291
     1
 45
0.0
1001
ACAD
1000
AcDbSavedByObjectVersion
1070
     0
  0
VISUALSTYLE
  5
16D0
102
{ACAD_REACTORS
330
16C4
102
}
330
16C4
100
AcDbVisualStyle
  2
Brighten
 70
    12
 71
     2
 72
     2
 73
     0
 90
        0
 40
-0.6
 41
-30.0
 62
     5
 63
     7
 74
     1
 91
        4
 64
     7
 65
   257
 75
     1
175
     1
 42
1.0
 92
        8
 66
     7
 43
1.0
 76
     1
 77
     6
 78
     2
 67
     7
 79
     5
170
     0
171
     0
290
     0
174
     0
 93
        1
 44
50.0
173
     0
291
     1
 45
0.0
1001
ACAD
1000
AcDbSavedByObjectVersion
1070
     0
  0
VISUALSTYLE
  5
16D4
102
{ACAD_REACTORS
330
16C4
102
}
330
16C4
100
AcDbVisualStyle
  2
ColorChange
 70
    16
 71
     2
 72
     2
 73
     3
 90
        0
 40
-0.6
 41
-30.0
 62
     5
 63
     8
 74
     1
 91
        4
 64
     7
 65
   257
 75
     1
175
     1
 42
1.0
 92
        8
 66
     8
 43
1.0
 76
     1
 77
     6
 78
     2
 67
     7
 79
     5
170
     0
171
     0
290
     0
174
     0
 93
        1
 44
0.0
173
     0
291
     1
 45
0.0
1001
ACAD
1000
AcDbSavedByObjectVersion
1070
     0
  0
VISUALSTYLE
  5
16CD
102
{ACAD_REACTORS
330
16C4
102
}
330
16C4
100
AcDbVisualStyle
  2
Conceptual
 70
     9
 71
     3
 72
     2
 73
     0
 90
        0
 40
-0.6
 41
-30.0
 62
     5
 63
     7
 74
     2
 91
        2
 64
     7
 65
   257
 75
     1
175
     1
 42
40.0
 92
        8
 66
     7
 43
1.0
 76
     1
 77
     6
 78
     2
 67
     7
 79
     3
170
     0
171
     0
290
     0
174
     0
 93
        1
 44
0.0
173
     0
291
     0
 45
0.0
1001
ACAD
1000
AcDbSavedByObjectVersion
1070
     0
  0
VISUALSTYLE
  5
16CF
102
{ACAD_REACTORS
330
16C4
102
}
330
16C4
100
AcDbVisualStyle
  2
Dim
 70
    11
 71
     2
 72
     2
 73
     0
 90
        0
 40
-0.6
 41
-30.0
 62
     5
 63
     7
 74
     1
 91
        4
 64
     7
 65
   257
 75
     1
175
     1
 42
1.0
 92
        8
 66
     7
 43
1.0
 76
     1
 77
     6
 78
     2
 67
     7
 79
     5
170
     0
171
     0
290
     0
174
     0
 93
        1
 44
-50.0
173
     0
291
     1
 45
0.0
1001
ACAD
1000
AcDbSavedByObjectVersion
1070
     0
  0
VISUALSTYLE
  5
16D3
102
{ACAD_REACTORS
330
16C4
102
}
330
16C4
100
AcDbVisualStyle
  2
Facepattern
 70
    15
 71
     2
 72
     2
 73
     0
 90
        0
 40
-0.6
 41
-30.0
 62
     5
 63
     7
 74
     1
 91
        4
 64
     7
 65
   257
 75
     1
175
     1
 42
1.0
 92
        8
 66
     7
 43
1.0
 76
     1
 77
     6
 78
     2
 67
     7
 79
     5
170
     0
171
     0
290
     0
174
     0
 93
        1
 44
0.0
173
     0
291
     1
 45
0.0
1001
ACAD
1000
AcDbSavedByObjectVersion
1070
     0
  0
VISUALSTYLE
  5
16C5
102
{ACAD_REACTORS
330
16C4
102
}
330
16C4
100
AcDbVisualStyle
  2
Flat
 70
     0
 71
     2
 72
     1
 73
     1
 90
        2
 40
-0.6
 41
30.0
 62
     5
 63
     7
 74
     0
 91
        4
 64
     7
 65
   257
 75
     1
175
     1
 42
1.0
 92
        8
 66
     7
 43
1.0
 76
     1
 77
     6
 78
     2
 67
     7
 79
     5
170
     0
171
     0
290
     0
174
     0
 93
       13
 44
0.0
173
     0
291
     1
 45
0.0
1001
ACAD
1000
AcDbSavedByObjectVersion
1070
     0
  0
VISUALSTYLE
  5
16C6
102
{ACAD_REACTORS
330
16C4
102
}
330
16C4
100
AcDbVisualStyle
  2
FlatWithEdges
 70
     1
 71
     2
 72
     1
 73
     1
 90
        2
 40
-0.6
 41
30.0
 62
     5
 63
     7
 74
     1
 91
        4
 64
     7
 65
   257
 75
     1
175
     1
 42
1.0
 92
        0
 66
   257
 43
1.0
 76
     1
 77
     6
 78
     2
 67
     7
 79
     5
170
     0
171
     0
290
     0
174
     0
 93
       13
 44
0.0
173
     0
291
     1
 45
0.0
1001
ACAD
1000
AcDbSavedByObjectVersion
1070
     0
  0
VISUALSTYLE
  5
16C7
102
{ACAD_REACTORS
330
16C4
102
}
330
16C4
100
AcDbVisualStyle
  2
Gouraud
 70
     2
 71
     2
 72
     2
 73
     1
 90
        2
 40
-0.6
 41
30.0
 62
     5
 63
     7
 74
     0
 91
        4
 64
     7
 65
   257
 75
     1
175
     1
 42
1.0
 92
        0
 66
     7
 43
1.0
 76
     1
 77
     6
 78
     2
 67
     7
 79
     5
170
     0
171
     0
290
     0
174
     0
 93
       13
 44
0.0
173
     0
291
     1
 45
0.0
1001
ACAD
1000
AcDbSavedByObjectVersion
1070
     0
  0
VISUALSTYLE
  5
16C8
102
{ACAD_REACTORS
330
16C4
102
}
330
16C4
100
AcDbVisualStyle
  2
GouraudWithEdges
 70
     3
 71
     2
 72
     2
 73
     1
 90
        2
 40
-0.6
 41
30.0
 62
     5
 63
     7
 74
     1
 91
        4
 64
     7
 65
   257
 75
     1
175
     1
 42
1.0
 92
        0
 66
   257
 43
1.0
 76
     1
 77
     6
 78
     2
 67
     7
 79
     5
170
     0
171
     0
290
     0
174
     0
 93
       13
 44
0.0
173
     0
291
     1
 45
0.0
1001
ACAD
1000
AcDbSavedByObjectVersion
1070
     0
  0
VISUALSTYLE
  5
16D2
102
{ACAD_REACTORS
330
16C4
102
}
330
16C4
100
AcDbVisualStyle
  2
Linepattern
 70
    14
 71
     2
 72
     2
 73
     0
 90
        0
 40
-0.6
 41
-30.0
 62
     5
 63
     7
 74
     1
 91
        4
 64
     7
 65
   257
 75
     7
175
     7
 42
1.0
 92
        8
 66
     7
 43
1.0
 76
     1
 77
     6
 78
     2
 67
     7
 79
     5
170
     0
171
     0
290
     0
174
     0
 93
        1
 44
0.0
173
     0
291
     1
 45
0.0
1001
ACAD
1000
AcDbSavedByObjectVersion
1070
     0
  0
VISUALSTYLE
  5
16CE
102
{ACAD_REACTORS
330
16C4
102
}
330
16C4
100
AcDbVisualStyle
  2
Realistic
 70
     8
 71
     2
 72
     2
 73
     0
 90
        0
 40
-0.6
 41
-30.0
 62
     5
 63
     7
 74
     1
 91
        0
 64
     7
 65
   257
 75
     1
175
     1
 42
1.0
 92
        8
 66
     8
 43
1.0
 76
     1
 77
     6
 78
     2
 67
     7
 79
     5
170
     0
171
     0
290
     0
174
     0
 93
       13
 44
0.0
173
     0
291
     0
 45
0.0
1001
ACAD
1000
AcDbSavedByObjectVersion
1070
     0
  0
VISUALSTYLE
  5
16D1
102
{ACAD_REACTORS
330
16C4
102
}
330
16C4
100
AcDbVisualStyle
  2
Thicken
 70
    13
 71
     2
 72
     2
 73
     0
 90
        0
 40
-0.6
 41
-30.0
 62
     5
 63
     7
 74
     1
 91
        4
 64
     7
 65
   257
 75
     1
175
     1
 42
1.0
 92
       12
 66
     7
 43
1.0
 76
     1
 77
     6
 78
     2
 67
     7
 79
     5
170
     0
171
     0
290
     0
174
     0
 93
        1
 44
0.0
173
     0
291
     1
 45
0.0
1001
ACAD
1000
AcDbSavedByObjectVersion
1070
     0
  0
DICTIONARYVAR
  5
16ED
102
{ACAD_REACTORS
330
16B
102
}
330
16B
100
DictionaryVariables
280
     0
  1
STANDARD
  0
DICTIONARYVAR
  5
16D
102
{ACAD_REACTORS
330
16B
102
}
330
16B
100
DictionaryVariables
280
     0
  1
1
  0
DICTIONARYVAR
  5
16C
102
{ACAD_REACTORS
330
16B
102
}
330
16B
100
DictionaryVariables
280
     0
  1
1
  0
DICTIONARYVAR
  5
39E9
102
{ACAD_REACTORS
330
16B
102
}
330
16B
100
DictionaryVariables
280
     0
  1
0
  0
DICTIONARYVAR
  5
16E
102
{ACAD_REACTORS
330
16B
102
}
330
16B
100
DictionaryVariables
280
     0
  1

  0
DICTIONARYVAR
  5
7B5
102
{ACAD_REACTORS
330
16B
102
}
330
16B
100
DictionaryVariables
280
     0
  1
96
  0
XRECORD
  5
39E8
102
{ACAD_REACTORS
330
16EA
102
}
330
16EA
100
AcDbXrecord
280
     1
1000
ADE02C001
1070
     1
1070
     0
1002
{
1002
}
1002
{
1002
}
1002
{
1002
}
1000

  0
XRECORD
  5
6DC
102
{ACAD_REACTORS
330
6DB
102
}
330
6DB
100
AcDbXrecord
280
     1
  0
DMSTYLIZEDENTITIESTABLE
  5
16E6
102
{ACAD_REACTORS
330
16D9
102
}
330
16D9
100
AcMapDMStylizedEntitiesTable
 70
     1
  0
DICTIONARY
  5
16E7
102
{ACAD_REACTORS
330
16D9
102
}
330
16D9
100
AcDbDictionary
280
     1
281
     1
  0
ACDBDATATABLE
  5
16DD
102
{ACAD_REACTORS
330
16D9
102
}
330
16D9
100
ACDBDATATABLE
 70
     2
 90
        4
 91
       15
  1

 92
        3
  2
OriginalClassName
  3
AcMapDMDefaultStyle
  3
AcMapDMEntityStyle
  3
AcMapDMRasterStyle
  3
AcMapDMSEAnnotationStyle
  3
AcMapDMSEHatchStyle
  3
AcMapDMSETextStyle
  3
AcMapDMThematicStyle
  3
AcMapDMBaseElement
  3
AcMapDMAttachedDwgsQueryElement
  3
AcMapDMFeatureElement
  3
AcMapDMLayerElement
  3
AcMapDMCurrentDwgQueryElement
  3
AcMapDMRasterElement
  3
AcMapDMTopoElement
  3
AcMapDMTopoQueryElement
 92
        3
  2
ProxyDisplayName
  3
Default
  3
Entity
  3
Raster
  3
Annotation
  3
Hatch
  3
Text
  3
Thematic
  3
Map Base
  3
Ade Query
  3
Feature Class
  3
Layer
  3
Ade Project Query
  3
Raster
  3
Topology
  3
Topology Query
 92
        1
  2
CustomObjectType
 93
        2
 93
        2
 93
        2
 93
        2
 93
        2
 93
        2
 93
        2
 93
        1
 93
        1
 93
        1
 93
        1
 93
        1
 93
        1
 93
        1
 93
        1
 92
        1
  2
StyleCoExistanceType
 93
        1
 93
        1
 93
        1
 93
        1
 93
        1
 93
        1
 93
        2
 93
        0
 93
        0
 93
        0
 93
        0
 93
        0
 93
        0
 93
        0
 93
        0
  0
DMMAPMANAGER
  5
16DA
102
{ACAD_REACTORS
330
16D9
102
}
330
16D9
100
AcDbDictionary
281
     1
  3
DisplayMap1
350
16DE
100
AcDbDictionaryWithDefault
340
16DE
100
AcMapDMMapManager
 70
     1
340
16DE
  0
DMSTYLELIBRARY
  5
16DB
102
{ACAD_REACTORS
330
16D9
102
}
330
16D9
100
AcMapDMStyleLibrary
 70
     1
 70
     1
360
16DC
  0
DICTIONARY
  5
39ED
330
14D
100
AcDbDictionary
280
     1
281
     1
  3
ACAD_XREC_ROUNDTRIP
360
39EE
  0
DICTIONARY
  5
39EB
330
146
100
AcDbDictionary
280
     1
281
     1
  3
ACAD_XREC_ROUNDTRIP
360
39EC
  0
DICTIONARY
  5
39F5
330
16C2
100
AcDbDictionary
280
     1
281
     1
  3
ACAD_XREC_ROUNDTRIP
360
39F6
  0
DICTIONARY
  5
39F3
330
16C1
100
AcDbDictionary
280
     1
281
     1
  3
ACAD_XREC_ROUNDTRIP
360
39F4
  0
DICTIONARY
  5
39F7
330
16C3
100
AcDbDictionary
280
     1
281
     1
  3
ACAD_XREC_ROUNDTRIP
360
39F8
  0
DICTIONARY
  5
39FB
330
16DF
100
AcDbDictionary
280
     1
281
     1
  3
ACAD_XREC_ROUNDTRIP
360
39FC
  0
DICTIONARY
  5
39F9
330
16D6
100
AcDbDictionary
280
     1
281
     1
  3
ACAD_XREC_ROUNDTRIP
360
39FA
  0
DMMAP
  5
16DE
102
{ACAD_REACTORS
330
16DA
330
16E0
102
}
330
16DA
100
AcMapDMMap
 70
     1
  1
Default
 70
     1
330
0
100
AcMapDMMap
 70
     1
 90
        1
360
16E0
 90
        1
 40
1.797693134862314E+99
 70
     1
100
AcMapDMMap
 70
     2
 70
     0
 40
1.797693134862314E+99
290
     1
290
     1
 40
1.0
 40
3.0
  1
Legend
 90
        1
 40
1.797693134862314E+99
  1

 70
     0
 40
1.0
 70
     1
 90
        0
 90
        1
360
16E1
  0
DMSTYLECATEGORY
  5
16DC
102
{ACAD_REACTORS
330
16DB
102
}
330
0
100
AcMapDMStyleCategory
 70
     1
  1
Display Styles
 70
     0
  0
XRECORD
  5
39EE
102
{ACAD_REACTORS
330
39ED
102
}
330
39ED
100
AcDbXrecord
280
     1
102
SHADEPLOT
 70
     0
102
SHADEPLOTRESLEVEL
 70
     2
102
SHADEPLOTCUSTOMDPI
 70
   300
  0
XRECORD
  5
39EC
102
{ACAD_REACTORS
330
39EB
102
}
330
39EB
100
AcDbXrecord
280
     1
102
SHADEPLOT
 70
     0
102
SHADEPLOTRESLEVEL
 70
     2
102
SHADEPLOTCUSTOMDPI
 70
   300
  0
XRECORD
  5
39F6
102
{ACAD_REACTORS
330
39F5
102
}
330
39F5
100
AcDbXrecord
280
     1
102
MATERIAL
148
0.0
149
0.0
149
0.0
 93
        0
 94
       63
282
     0
 72
     1
 77
     1
171
     1
175
     1
179
     1
273
     0
  0
XRECORD
  5
39F4
102
{ACAD_REACTORS
330
39F3
102
}
330
39F3
100
AcDbXrecord
280
     1
102
MATERIAL
148
0.0
149
0.0
149
0.0
 93
        0
 94
       63
282
     0
 72
     1
 77
     1
171
     1
175
     1
179
     1
273
     0
  0
XRECORD
  5
39F8
102
{ACAD_REACTORS
330
39F7
102
}
330
39F7
100
AcDbXrecord
280
     1
102
MATERIAL
148
0.0
149
0.0
149
0.0
 93
        0
 94
       63
282
     0
 72
     1
 77
     1
171
     1
175
     1
179
     1
273
     0
  0
XRECORD
  5
39FC
102
{ACAD_REACTORS
330
39FB
102
}
330
39FB
100
AcDbXrecord
280
     1
102
ACAD_ROUNDTRIP_PRE2007_TABLESTYLE
 90
      512
 91
        0
  1

 92
      512
 93
        0
  2

 94
      512
 95
        0
  3

  0
XRECORD
  5
39FA
102
{ACAD_REACTORS
330
39F9
102
}
330
39F9
100
AcDbXrecord
280
     1
102
ACAD_ROUNDTRIP_PRE2007_TABLESTYLE
 90
      512
 91
        0
  1

 92
      512
 93
        0
  2

 94
      512
 95
        0
  3

  0
DMBASEELEMENT
  5
16E0
102
{ACAD_XDICTIONARY
360
16E4
102
}
102
{ACAD_REACTORS
330
16DE
102
}
330
16DE
100
AcMapDMBaseElement
 70
     1
  1
Map Base
 70
     1
330
16DE
100
AcMapDMBaseElement
 70
     1
  1

 70
     2
  1

 70
     1
 40
1.797693134862314E+99
 70
     1
 70
     1
 70
     1
 70
     1
360
16E3
100
AcMapDMBaseElement
 70
     1
  0
DMDEFAULTSTYLE
  5
16E1
102
{ACAD_REACTORS
330
16DE
102
}
330
16DE
100
AcMapDMDefaultStyle
 70
     1
 90
        1
  1
Default
100
AcMapDMDefaultStyle
 70
     1
280
   100
 90
     0
1001
AcMapDMDisplayStyleRegapp
1070
     2
1071
        1
1000
Default
1000

  0
DICTIONARY
  5
16E4
330
16E0
100
AcDbDictionary
280
     1
281
     1
  3
AcMapDMSurrogateStyleSets
360
16E5
  0
DMSTYLEREFERENCE
  5
16E3
330
16E0
100
AcMapDMStyleReference
 70
     1
 70
     0
340
16E1
330
16DE
  0
DMSURROGATESTYLESETS
  5
16E5
102
{ACAD_REACTORS
330
16E4
102
}
330
16E4
100
AcMapDMSurrogateStyleSets
 70
     1
  1
Map Base
 70
     1
 40
1.797693134862314E+99
 70
     1
 70
     1
 70
     1
 70
     1
330
16E3
 70
     0
  0
ENDSEC
  0
EOF
