  0
SECTION
  2
HEADER
  9
$ACADVER
  1
AC1015
  9
$ACADMAINTVER
 70
    20
  9
$DWGCODEPAGE
  3
ANSI_1250
  9
$INSBASE
 10
0.0
 20
0.0
 30
0.0
  9
$EXTMIN
 10
0.0
 20
0.0
 30
0.0
  9
$EXTMAX
 10
1156.299999999999
 20
417.565822928638
 30
0.0
  9
$LIMMIN
 10
0.0
 20
0.0
  9
$LIMMAX
 10
0.0
 20
0.0
  9
$ORTHOMODE
 70
     0
  9
$REGENMODE
 70
     1
  9
$FILLMODE
 70
     1
  9
$QTEXTMODE
 70
     0
  9
$MIRRTEXT
 70
     1
  9
$LTSCALE
 40
1.0
  9
$ATTMODE
 70
     1
  9
$TEXTSIZE
 40
0.2
  9
$TRACEWID
 40
0.05
  9
$TEXTSTYLE
  7
STANDARD
  9
$CLAYER
  8
mechanical
  9
$CELTYPE
  6
BYLAYER
  9
$CECOLOR
 62
   256
  9
$CELTSCALE
 40
1.0
  9
$DISPSILH
 70
     0
  9
$DIMSCALE
 40
1.0
  9
$DIMASZ
 40
0.18
  9
$DIMEXO
 40
0.0625
  9
$DIMDLI
 40
0.38
  9
$DIMRND
 40
0.0
  9
$DIMDLE
 40
0.0
  9
$DIMEXE
 40
0.18
  9
$DIMTP
 40
0.0
  9
$DIMTM
 40
0.0
  9
$DIMTXT
 40
10.0
  9
$DIMCEN
 40
0.09
  9
$DIMTSZ
 40
0.0
  9
$DIMTOL
 70
     0
  9
$DIMLIM
 70
     0
  9
$DIMTIH
 70
     1
  9
$DIMTOH
 70
     1
  9
$DIMSE1
 70
     0
  9
$DIMSE2
 70
     0
  9
$DIMTAD
 70
     0
  9
$DIMZIN
 70
     0
  9
$DIMBLK
  1

  9
$DIMASO
 70
     1
  9
$DIMSHO
 70
     1
  9
$DIMPOST
  1

  9
$DIMAPOST
  1

  9
$DIMALT
 70
     0
  9
$DIMALTD
 70
     2
  9
$DIMALTF
 40
25.4
  9
$DIMLFAC
 40
1.0
  9
$DIMTOFL
 70
     0
  9
$DIMTVP
 40
0.0
  9
$DIMTIX
 70
     0
  9
$DIMSOXD
 70
     0
  9
$DIMSAH
 70
     0
  9
$DIMBLK1
  1

  9
$DIMBLK2
  1

  9
$DIMSTYLE
  2
STANDARD
  9
$DIMCLRD
 70
     0
  9
$DIMCLRE
 70
     0
  9
$DIMCLRT
 70
     0
  9
$DIMTFAC
 40
1.0
  9
$DIMGAP
 40
0.09
  9
$DIMJUST
 70
     0
  9
$DIMSD1
 70
     0
  9
$DIMSD2
 70
     0
  9
$DIMTOLJ
 70
     1
  9
$DIMTZIN
 70
     0
  9
$DIMALTZ
 70
     0
  9
$DIMALTTZ
 70
     0
  9
$DIMUPT
 70
     0
  9
$DIMDEC
 70
     4
  9
$DIMTDEC
 70
     4
  9
$DIMALTU
 70
     2
  9
$DIMALTTD
 70
     2
  9
$DIMTXSTY
  7
STANDARD
  9
$DIMAUNIT
 70
     0
  9
$DIMADEC
 70
     5
  9
$DIMALTRND
 40
0.0
  9
$DIMAZIN
 70
     0
  9
$DIMDSEP
 70
    46
  9
$DIMATFIT
 70
     3
  9
$DIMFRAC
 70
     0
  9
$DIMLDRBLK
  1

  9
$DIMLUNIT
 70
     2
  9
$DIMLWD
 70
    -2
  9
$DIMLWE
 70
    -2
  9
$DIMTMOVE
 70
     0
  9
$LUNITS
 70
     2
  9
$LUPREC
 70
     4
  9
$SKETCHINC
 40
0.1
  9
$FILLETRAD
 40
0.0
  9
$AUNITS
 70
     0
  9
$AUPREC
 70
     0
  9
$MENU
  1
acad
  9
$ELEVATION
 40
0.0
  9
$PELEVATION
 40
0.0
  9
$THICKNESS
 40
0.0
  9
$LIMCHECK
 70
     0
  9
$CHAMFERA
 40
0.0
  9
$CHAMFERB
 40
0.0
  9
$CHAMFERC
 40
0.0
  9
$CHAMFERD
 40
0.0
  9
$SKPOLY
 70
     0
  9
$TDCREATE
 40
2311946.475710706
  9
$TDUCREATE
 40
2311946.434044039
  9
$TDUPDATE
 40
2454141.493547685
  9
$TDUUPDATE
 40
2454141.451881019
  9
$TDINDWG
 40
1.1718528588
  9
$TDUSRTIMER
 40
1.1718527431
  9
$USRTIMER
 70
     1
  9
$ANGBASE
 50
0.0
  9
$ANGDIR
 70
     0
  9
$PDMODE
 70
     0
  9
$PDSIZE
 40
0.0
  9
$PLINEWID
 40
1.199999999999999
  9
$SPLFRAME
 70
     0
  9
$SPLINETYPE
 70
     6
  9
$SPLINESEGS
 70
     8
  9
$HANDSEED
  5
3C86
  9
$SURFTAB1
 70
     6
  9
$SURFTAB2
 70
     6
  9
$SURFTYPE
 70
     6
  9
$SURFU
 70
     6
  9
$SURFV
 70
     6
  9
$UCSBASE
  2

  9
$UCSNAME
  2

  9
$UCSORG
 10
0.0
 20
0.0
 30
0.0
  9
$UCSXDIR
 10
1.0
 20
0.0
 30
0.0
  9
$UCSYDIR
 10
0.0
 20
1.0
 30
0.0
  9
$UCSORTHOREF
  2

  9
$UCSORTHOVIEW
 70
     1
  9
$UCSORGTOP
 10
0.0
 20
0.0
 30
0.0
  9
$UCSORGBOTTOM
 10
0.0
 20
0.0
 30
0.0
  9
$UCSORGLEFT
 10
0.0
 20
0.0
 30
0.0
  9
$UCSORGRIGHT
 10
0.0
 20
0.0
 30
0.0
  9
$UCSORGFRONT
 10
0.0
 20
0.0
 30
0.0
  9
$UCSORGBACK
 10
0.0
 20
0.0
 30
0.0
  9
$PUCSBASE
  2

  9
$PUCSNAME
  2

  9
$PUCSORG
 10
0.0
 20
0.0
 30
0.0
  9
$PUCSXDIR
 10
1.0
 20
0.0
 30
0.0
  9
$PUCSYDIR
 10
0.0
 20
1.0
 30
0.0
  9
$PUCSORTHOREF
  2

  9
$PUCSORTHOVIEW
 70
     0
  9
$PUCSORGTOP
 10
0.0
 20
0.0
 30
0.0
  9
$PUCSORGBOTTOM
 10
0.0
 20
0.0
 30
0.0
  9
$PUCSORGLEFT
 10
0.0
 20
0.0
 30
0.0
  9
$PUCSORGRIGHT
 10
0.0
 20
0.0
 30
0.0
  9
$PUCSORGFRONT
 10
0.0
 20
0.0
 30
0.0
  9
$PUCSORGBACK
 10
0.0
 20
0.0
 30
0.0
  9
$USERI1
 70
     0
  9
$USERI2
 70
     0
  9
$USERI3
 70
     0
  9
$USERI4
 70
     0
  9
$USERI5
 70
     0
  9
$USERR1
 40
0.0
  9
$USERR2
 40
0.0
  9
$USERR3
 40
0.0
  9
$USERR4
 40
0.0
  9
$USERR5
 40
0.0
  9
$WORLDVIEW
 70
     1
  9
$SHADEDGE
 70
     3
  9
$SHADEDIF
 70
    70
  9
$TILEMODE
 70
     1
  9
$MAXACTVP
 70
    16
  9
$PINSBASE
 10
0.0
 20
0.0
 30
0.0
  9
$PLIMCHECK
 70
     0
  9
$PEXTMIN
 10
114.7487361907958
 20
78.54526405334468
 30
0.0
  9
$PEXTMAX
 10
1032.738625717163
 20
706.9073764801025
 30
0.0
  9
$PLIMMIN
 10
-20.1082763671875
 20
-27.22033309936524
  9
$PLIMMAX
 10
1167.765014648437
 20
812.6729774475098
  9
$UNITMODE
 70
     0
  9
$VISRETAIN
 70
     0
  9
$PLINEGEN
 70
     1
  9
$PSLTSCALE
 70
     0
  9
$TREEDEPTH
 70
  3020
  9
$CMLSTYLE
  2
STANDARD
  9
$CMLJUST
 70
     0
  9
$CMLSCALE
 40
1.0
  9
$PROXYGRAPHICS
 70
     0
  9
$MEASUREMENT
 70
     1
  9
$CELWEIGHT
370
    -1
  9
$ENDCAPS
280
     0
  9
$JOINSTYLE
280
     0
  9
$LWDISPLAY
290
     0
  9
$INSUNITS
 70
     0
  9
$HYPERLINKBASE
  1

  9
$STYLESHEET
  1
monochrome.ctb
  9
$XEDIT
290
     1
  9
$CEPSNTYPE
380
     0
  9
$PSTYLEMODE
290
     1
  9
$FINGERPRINTGUID
  2
{44CFACF6-FF42-4479-A730-8E27374F1164}
  9
$VERSIONGUID
  2
{31F84AC9-BF50-4E83-AE93-7253AAB45D97}
  9
$EXTNAMES
290
     1
  9
$PSVPSCALE
 40
0.0
  9
$OLESTARTUP
290
     0
  0
ENDSEC
  0
SECTION
  2
CLASSES
  0
CLASS
  1
IMAGE
  2
AcDbRasterImage
  3
ISM
 90
    34943
280
     0
281
     1
  0
CLASS
  1
DICTIONARYVAR
  2
AcDbDictionaryVar
  3
ObjectDBX Classes
 90
        0
280
     0
281
     0
  0
CLASS
  1
RASTERVARIABLES
  2
AcDbRasterVariables
  3
ISM
 90
    32768
280
     0
281
     0
  0
CLASS
  1
IMAGEDEF
  2
AcDbRasterImageDef
  3
ISM
 90
    32768
280
     0
281
     0
  0
CLASS
  1
IMAGEDEF_REACTOR
  2
AcDbRasterImageDefReactor
  3
ISM
 90
    32769
280
     0
281
     0
  0
CLASS
  1
IDBUFFER
  2
AcDbIdBuffer
  3
ObjectDBX Classes
 90
    32768
280
     0
281
     0
  0
CLASS
  1
SPATIAL_FILTER
  2
AcDbSpatialFilter
  3
ObjectDBX Classes
 90
    32768
280
     0
281
     0
  0
CLASS
  1
SORTENTSTABLE
  2
AcDbSortentsTable
  3
ObjectDBX Classes
 90
        0
280
     0
281
     0
  0
CLASS
  1
LAYER_INDEX
  2
AcDbLayerIndex
  3
ObjectDBX Classes
 90
    32768
280
     0
281
     0
  0
CLASS
  1
SPATIAL_INDEX
  2
AcDbSpatialIndex
  3
ObjectDBX Classes
 90
    32768
280
     0
281
     0
  0
CLASS
  1
OBJECT_PTR
  2
CAseDLPNTableRecord
  3
ASE-LPNTableRecord
 90
    32769
280
     0
281
     0
  0
CLASS
  1
LAYOUT
  2
AcDbLayout
  3
ObjectDBX Classes
 90
        0
280
     0
281
     0
  0
CLASS
  1
PLOTSETTINGS
  2
AcDbPlotSettings
  3
ObjectDBX Classes
 90
    32768
280
     0
281
     0
  0
CLASS
  1
ACDBDICTIONARYWDFLT
  2
AcDbDictionaryWithDefault
  3
ObjectDBX Classes
 90
        0
280
     0
281
     0
  0
CLASS
  1
ACDBPLACEHOLDER
  2
AcDbPlaceHolder
  3
ObjectDBX Classes
 90
        0
280
     0
281
     0
  0
CLASS
  1
VBA_PROJECT
  2
AcDbVbaProject
  3
acad
 90
    32768
280
     0
281
     0
  0
CLASS
  1
WIPEOUT
  2
AcDbWipeout
  3
"WipeOut|Product Desc: Object Enabler for WipeOut entity                        |Company: Autodesk, Inc.                        |WEB Address: www.autodesk.com"
 90
    34943
280
     0
281
     1
  0
CLASS
  1
WIPEOUTVARIABLES
  2
AcDbWipeoutVariables
  3
"WipeOut|Product Desc:     WipeOut Dbx Application|Company:          Autodesk, Inc.|WEB Address:      www.autodesk.com"
 90
    32768
280
     0
281
     0
  0
CLASS
  1
RTEXT
  2
RText
  3
RText|AutoCAD Express Tool|expresstools@autodesk.com
 90
    35839
280
     0
281
     1
  0
CLASS
  1
ARCALIGNEDTEXT
  2
AcDbArcAlignedText
  3
ATEXT|AutoCAD Express Tool|expresstools@autodesk.com
 90
    32768
280
     0
281
     1
  0
CLASS
  1
MATERIAL
  2
AcDbMaterial
  3
ObjectDBX Classes
 90
     1024
280
     0
281
     0
  0
CLASS
  1
VISUALSTYLE
  2
AcDbVisualStyle
  3
ObjectDBX Classes
 90
     4095
280
     0
281
     0
  0
CLASS
  1
TABLESTYLE
  2
AcDbTableStyle
  3
ObjectDBX Classes
 90
     4095
280
     0
281
     0
  0
CLASS
  1
DMMAPMANAGER
  2
AcMapDMMapManager
  3
AcMapDisplayManagement
 90
     1024
280
     0
281
     0
  0
CLASS
  1
DMSTYLELIBRARY
  2
AcMapDMStyleLibrary
  3
AcMapDisplayManagement
 90
     1024
280
     0
281
     0
  0
CLASS
  1
DMSTYLECATEGORY
  2
AcMapDMStyleCategory
  3
AcMapDisplayManagement
 90
     1024
280
     0
281
     0
  0
CLASS
  1
ACDBDATATABLE
  2
AcDbDataTable
  3
AcMapAnnotObj|Product Desc:     AutoCAD MAP DBX App for Annotation Entity|Company:          Autodesk,Inc.|WEB Address:      www.autodesk.com
 90
        0
280
     0
281
     0
  0
CLASS
  1
DMMAP
  2
AcMapDMMap
  3
AcMapDisplayManagement
 90
     1024
280
     0
281
     0
  0
CLASS
  1
DMBASEELEMENT
  2
AcMapDMBaseElement
  3
AcMapDisplayManagement
 90
     1024
280
     0
281
     0
  0
CLASS
  1
DMDEFAULTSTYLE
  2
AcMapDMDefaultStyle
  3
AcMapDisplayManagement
 90
     1024
280
     0
281
     0
  0
CLASS
  1
DMSTYLEREFERENCE
  2
AcMapDMStyleReference
  3
AcMapDisplayManagement
 90
     1024
280
     0
281
     0
  0
CLASS
  1
DMSURROGATESTYLESETS
  2
AcMapDMSurrogateStyleSets
  3
AcMapDisplayManagement
 90
     1153
280
     0
281
     0
  0
CLASS
  1
DMSTYLIZEDENTITIESTABLE
  2
AcMapDMStylizedEntitiesTable
  3
AcMapDisplayManagement
 90
     1024
280
     0
281
     0
  0
CLASS
  1
MAPGWSUNDOOBJECT
  2
AcMapGWSUndoRecorder
  3
AcMapFeatureSourceManager
 90
     1025
280
     0
281
     0
  0
ENDSEC
  0
SECTION
  2
TABLES
  0
TABLE
  2
VPORT
  5
157
330
0
100
AcDbSymbolTable
 70
     1
  0
VPORT
  5
16BF
330
157
100
AcDbSymbolTableRecord
100
AcDbViewportTableRecord
  2
*Active
 70
     0
 10
0.0
 20
0.0
 11
1.0
 21
1.0
 12
578.1499999999998
 22
208.782911464319
 13
0.0
 23
0.0
 14
1.0
 24
1.0
 15
0.0
 25
0.0
 16
0.0
 26
0.0
 36
1.0
 17
0.0
 27
0.0
 37
0.0
 40
747.7260212752311
 41
1.55400254129606
 42
50.0
 43
0.0
 44
0.0
 50
0.0
 51
0.0
 71
     0
 72
   100
 73
     1
 74
     1
 75
     0
 76
     0
 77
     0
 78
     0
281
     0
 65
     1
110
0.0
120
0.0
130
0.0
111
1.0
121
0.0
131
0.0
112
0.0
122
1.0
132
0.0
 79
     0
146
0.0
  0
ENDTAB
  0
TABLE
  2
LTYPE
  5
152
330
0
100
AcDbSymbolTable
 70
     1
  0
LTYPE
  5
153
330
152
100
AcDbSymbolTableRecord
100
AcDbLinetypeTableRecord
  2
BYBLOCK
 70
     0
  3

 72
    65
 73
     0
 40
0.0
  0
LTYPE
  5
154
330
152
100
AcDbSymbolTableRecord
100
AcDbLinetypeTableRecord
  2
BYLAYER
 70
     0
  3

 72
    65
 73
     0
 40
0.0
  0
LTYPE
  5
A
330
152
100
AcDbSymbolTableRecord
100
AcDbLinetypeTableRecord
  2
CONTINUOUS
 70
     0
  3
Solid line
 72
    65
 73
     0
 40
0.0
  0
ENDTAB
  0
TABLE
  2
LAYER
  5
14E
102
{ACAD_XDICTIONARY
360
18FA
102
}
330
0
100
AcDbSymbolTable
 70
     5
  0
LAYER
  5
6
330
14E
100
AcDbSymbolTableRecord
100
AcDbLayerTableRecord
  2
0
 70
     0
 62
     7
  6
CONTINUOUS
370
    -3
390
7
  0
LAYER
  5
C
330
14E
100
AcDbSymbolTableRecord
100
AcDbLayerTableRecord
  2
mechanical
 70
     0
 62
     6
  6
CONTINUOUS
370
    -3
390
7
  0
LAYER
  5
174
330
14E
100
AcDbSymbolTableRecord
100
AcDbLayerTableRecord
  2
copper
 70
     0
 62
     1
  6
CONTINUOUS
370
    -3
390
7
  0
LAYER
  5
41F
330
14E
100
AcDbSymbolTableRecord
100
AcDbLayerTableRecord
  2
Defpoints
 70
     0
 62
     7
  6
CONTINUOUS
290
     0
370
    -3
390
7
  0
LAYER
  5
3C30
330
14E
100
AcDbSymbolTableRecord
100
AcDbLayerTableRecord
  2
kapton
 70
     0
 62
     2
  6
CONTINUOUS
370
    -3
390
7
  0
ENDTAB
  0
TABLE
  2
STYLE
  5
14F
330
0
100
AcDbSymbolTable
 70
     1
  0
STYLE
  5
150
330
14F
100
AcDbSymbolTableRecord
100
AcDbTextStyleTableRecord
  2
STANDARD
 70
     0
 40
0.0
 41
1.0
 50
0.0
 71
     0
 42
0.2
  3
txt
  4

  0
ENDTAB
  0
TABLE
  2
VIEW
  5
155
330
0
100
AcDbSymbolTable
 70
     0
  0
ENDTAB
  0
TABLE
  2
UCS
  5
156
330
0
100
AcDbSymbolTable
 70
     0
  0
ENDTAB
  0
TABLE
  2
APPID
  5
159
330
0
100
AcDbSymbolTable
 70
     8
  0
APPID
  5
15A
330
159
100
AcDbSymbolTableRecord
100
AcDbRegAppTableRecord
  2
ACAD
 70
     0
  0
APPID
  5
189
330
159
100
AcDbSymbolTableRecord
100
AcDbRegAppTableRecord
  2
DCO15
 70
     0
  0
APPID
  5
16E2
330
159
100
AcDbSymbolTableRecord
100
AcDbRegAppTableRecord
  2
AcMapDMDisplayStyleRegapp
 70
     0
  0
APPID
  5
16E9
330
159
100
AcDbSymbolTableRecord
100
AcDbRegAppTableRecord
  2
ADE
 70
     0
  0
APPID
  5
16EC
330
159
100
AcDbSymbolTableRecord
100
AcDbRegAppTableRecord
  2
MapGWS
 70
     0
  0
APPID
  5
1738
330
159
100
AcDbSymbolTableRecord
100
AcDbRegAppTableRecord
  2
ACAD_PSEXT
 70
     0
  0
APPID
  5
18F8
330
159
100
AcDbSymbolTableRecord
100
AcDbRegAppTableRecord
  2
AcAecLayerStandard
 70
     0
  0
APPID
  5
3569
330
159
100
AcDbSymbolTableRecord
100
AcDbRegAppTableRecord
  2
ACAD_EXEMPT_FROM_CAD_STANDARDS
 70
     0
  0
ENDTAB
  0
TABLE
  2
DIMSTYLE
  5
15B
330
0
100
AcDbSymbolTable
 70
     1
100
AcDbDimStyleTable
 71
     1
340
15C
  0
DIMSTYLE
105
15C
330
15B
100
AcDbSymbolTableRecord
100
AcDbDimStyleTableRecord
  2
STANDARD
 70
     0
140
10.0
179
     5
340
150
  0
ENDTAB
  0
TABLE
  2
BLOCK_RECORD
  5
1
330
0
100
AcDbSymbolTable
 70
     1
  0
BLOCK_RECORD
  5
2
102
{ACAD_XDICTIONARY
360
3
102
}
330
1
100
AcDbSymbolTableRecord
100
AcDbBlockTableRecord
  2
*MODEL_SPACE
340
146
  0
BLOCK_RECORD
  5
148
102
{ACAD_XDICTIONARY
360
149
102
}
330
1
100
AcDbSymbolTableRecord
100
AcDbBlockTableRecord
  2
*PAPER_SPACE
340
14D
  0
ENDTAB
  0
ENDSEC
  0
SECTION
  2
BLOCKS
  0
BLOCK
  5
5
330
2
100
AcDbEntity
  8
0
100
AcDbBlockBegin
  2
*MODEL_SPACE
 70
     0
 10
0.0
 20
0.0
 30
0.0
  3
*MODEL_SPACE
  1

  0
ENDBLK
  5
145
330
2
100
AcDbEntity
  8
0
100
AcDbBlockEnd
  0
BLOCK
  5
14B
330
148
100
AcDbEntity
 67
     1
  8
0
100
AcDbBlockBegin
  2
*PAPER_SPACE
 70
     0
 10
0.0
 20
0.0
 30
0.0
  3
*PAPER_SPACE
  1

  0
ENDBLK
  5
14C
330
148
100
AcDbEntity
 67
     1
  8
0
100
AcDbBlockEnd
  0
ENDSEC
  0
SECTION
  2
ENTITIES
  0
LWPOLYLINE
  5
3296
330
2
100
AcDbEntity
  8
mechanical
  6
Continuous
100
AcDbPolyline
 90
        2
 70
   128
 43
0.25
 10
972.1921412540067
 20
10.0
 42
0.3846436892416937
 10
184.1078587459924
 20
10.0
  0
LWPOLYLINE
  5
3297
330
2
100
AcDbEntity
  8
mechanical
  6
Continuous
100
AcDbPolyline
 90
        2
 70
   128
 43
0.25
 10
1146.3
 20
184.1078587459926
 42
0.3933080422118196
 10
10.0
 20
184.1078587459926
  0
LWPOLYLINE
  5
3298
330
2
100
AcDbEntity
  8
mechanical
  6
Continuous
100
AcDbPolyline
 90
        2
 70
   128
 43
0.25
 10
10.0
 20
184.1078587459926
 10
184.1078587459924
 20
10.0
  0
LWPOLYLINE
  5
3299
330
2
100
AcDbEntity
  8
mechanical
  6
Continuous
100
AcDbPolyline
 90
        2
 70
   128
 43
0.25
 10
10.0
 20
184.1078587459926
 10
184.1078587459924
 20
10.0
  0
LWPOLYLINE
  5
329A
330
2
100
AcDbEntity
  8
mechanical
  6
Continuous
100
AcDbPolyline
 90
        2
 70
   128
 43
0.25
 10
10.0
 20
184.1078587459926
 10
184.1078587459924
 20
10.0
  0
LWPOLYLINE
  5
329B
330
2
100
AcDbEntity
  8
mechanical
  6
Continuous
100
AcDbPolyline
 90
        2
 70
   128
 43
0.25
 10
1146.3
 20
184.1078587459926
 10
972.1921412540067
 20
10.0
  0
LWPOLYLINE
  5
329C
330
2
100
AcDbEntity
  8
mechanical
  6
Continuous
100
AcDbPolyline
 90
        2
 70
   129
 43
0.25
 10
375.6499999999996
 20
209.0
 42
0.9999999999999998
 10
361.6499999999996
 20
209.0
 42
0.9999999999999998
  0
LWPOLYLINE
  5
329D
330
2
100
AcDbEntity
  8
mechanical
  6
Continuous
100
AcDbPolyline
 90
        2
 70
   129
 43
0.125
 10
1146.2375
 20
184.1078587459926
 42
1.0
 10
1146.362499999999
 20
184.1078587459926
 42
1.0
  0
LWPOLYLINE
  5
329E
330
2
100
AcDbEntity
  8
mechanical
  6
Continuous
100
AcDbPolyline
 90
        2
 70
   129
 43
0.125
 10
972.1296412540068
 20
10.0
 42
1.0
 10
972.2546412540069
 20
10.0
 42
1.0
  0
LWPOLYLINE
  5
329F
330
2
100
AcDbEntity
  8
mechanical
  6
Continuous
100
AcDbPolyline
 90
        2
 70
   129
 43
0.125
 10
184.0453587459924
 20
10.0
 42
1.0
 10
184.1703587459924
 20
10.0
 42
1.0
  0
LWPOLYLINE
  5
32A0
330
2
100
AcDbEntity
  8
mechanical
  6
Continuous
100
AcDbPolyline
 90
        2
 70
   129
 43
0.125
 10
9.9375
 20
184.1078587459926
 42
1.0
 10
10.0625
 20
184.1078587459926
 42
1.0
  0
LWPOLYLINE
  5
32A4
330
2
100
AcDbEntity
  8
mechanical
  6
Continuous
100
AcDbPolyline
 90
        2
 70
   129
 43
0.25
 10
349.6499999999997
 20
293.0
 42
0.9999999999999998
 10
335.6499999999996
 20
293.0
 42
0.9999999999999998
  0
LWPOLYLINE
  5
32A5
330
2
100
AcDbEntity
  8
mechanical
  6
Continuous
100
AcDbPolyline
 90
        2
 70
   129
 43
0.25
 10
780.6499999999996
 20
209.0
 42
-0.9999999999999998
 10
794.6499999999996
 20
209.0
 42
-0.9999999999999998
  0
LWPOLYLINE
  5
32A6
330
2
100
AcDbEntity
  8
mechanical
  6
Continuous
100
AcDbPolyline
 90
        2
 70
   129
 43
0.25
 10
806.6499999999996
 20
293.0
 42
-0.9999999999999998
 10
820.6499999999996
 20
293.0
 42
-0.9999999999999998
  0
LWPOLYLINE
  5
332A
330
2
100
AcDbEntity
  8
copper
  6
Continuous
100
AcDbPolyline
 90
        2
 70
   129
 43
2.25
 10
574.0249999999996
 20
402.8103881281928
 42
1.0
 10
576.2749999999996
 20
402.8103881281928
 42
1.0
  0
LWPOLYLINE
  5
332B
330
2
100
AcDbEntity
  8
copper
  6
Continuous
100
AcDbPolyline
 90
        2
 70
   129
 43
2.25
 10
574.0249999999996
 20
400.3103881281929
 42
1.0
 10
576.2749999999996
 20
400.3103881281929
 42
1.0
  0
LWPOLYLINE
  5
332C
330
2
100
AcDbEntity
  8
copper
  6
Continuous
100
AcDbPolyline
 90
        2
 70
   128
 43
4.5
 10
575.1499999999996
 20
402.8103881281928
 10
575.1499999999996
 20
400.3103881281929
  0
LWPOLYLINE
  5
332D
330
2
100
AcDbEntity
  8
copper
  6
Continuous
100
AcDbPolyline
 90
        2
 70
   129
 43
2.25
 10
568.0249999999996
 20
402.7669084403367
 42
1.0
 10
570.2749999999996
 20
402.7669084403367
 42
1.0
  0
LWPOLYLINE
  5
332E
330
2
100
AcDbEntity
  8
copper
  6
Continuous
100
AcDbPolyline
 90
        2
 70
   129
 43
2.25
 10
568.0249999999996
 20
400.2669084403366
 42
1.0
 10
570.2749999999996
 20
400.2669084403366
 42
1.0
  0
LWPOLYLINE
  5
332F
330
2
100
AcDbEntity
  8
copper
  6
Continuous
100
AcDbPolyline
 90
        2
 70
   128
 43
4.5
 10
569.1499999999996
 20
402.7669084403367
 10
569.1499999999996
 20
400.2669084403366
  0
LWPOLYLINE
  5
3330
330
2
100
AcDbEntity
  8
copper
  6
Continuous
100
AcDbPolyline
 90
        2
 70
   129
 43
2.25
 10
562.0249999999996
 20
402.6799422139227
 42
1.0
 10
564.2749999999996
 20
402.6799422139227
 42
1.0
  0
LWPOLYLINE
  5
3331
330
2
100
AcDbEntity
  8
copper
  6
Continuous
100
AcDbPolyline
 90
        2
 70
   129
 43
2.25
 10
562.0249999999996
 20
399.6799422139227
 42
1.0
 10
564.2749999999996
 20
399.6799422139227
 42
1.0
  0
LWPOLYLINE
  5
3332
330
2
100
AcDbEntity
  8
copper
  6
Continuous
100
AcDbPolyline
 90
        2
 70
   128
 43
4.5
 10
563.1499999999996
 20
402.6799422139227
 10
563.1499999999996
 20
400.1799422139226
  0
LWPOLYLINE
  5
3333
330
2
100
AcDbEntity
  8
copper
  6
Continuous
100
AcDbPolyline
 90
        2
 70
   129
 43
2.25
 10
557.1499999999996
 20
403.6744757421504
 42
1.0
 10
557.1499999999996
 20
401.4244757421504
 42
1.0
  0
LWPOLYLINE
  5
3334
330
2
100
AcDbEntity
  8
copper
  6
Continuous
100
AcDbPolyline
 90
        2
 70
   129
 43
2.25
 10
554.6499999999996
 20
403.6744757421504
 42
1.0
 10
554.6499999999996
 20
401.4244757421504
 42
1.0
  0
LWPOLYLINE
  5
3335
330
2
100
AcDbEntity
  8
copper
  6
Continuous
100
AcDbPolyline
 90
        2
 70
   128
 43
4.5
 10
557.1499999999996
 20
402.5494757421504
 10
554.6499999999996
 20
402.5494757421504
  0
LWPOLYLINE
  5
3336
330
2
100
AcDbEntity
  8
copper
  6
Continuous
100
AcDbPolyline
 90
        4
 70
   128
 10
571.7092123841939
 20
226.1800409555588
 40
0.5
 41
0.5
 42
0.4113259762827774
 10
577.6499999999996
 20
232.1797487729077
 40
0.5
 41
0.5
 10
577.6499999999996
 20
394.27485422226
 40
0.5
 41
0.5
 42
0.1989123673796574
 10
575.1499999999996
 20
400.3103881281929
 40
0.0
 41
0.0
  0
LWPOLYLINE
  5
3361
330
2
100
AcDbEntity
  8
copper
  6
Continuous
100
AcDbPolyline
 90
        4
 70
   128
 10
571.6993436534949
 20
227.1799922584503
 40
0.5
 41
0.5
 42
0.4113259762827774
 10
576.6499999999996
 20
232.1797487729077
 40
0.5
 41
0.5
 10
576.6499999999996
 20
388.4942666119557
 40
0.5
 41
0.5
 42
0.2914734195860881
 10
569.1499999999996
 20
400.2669084403366
 40
0.0
 41
0.0
  0
LWPOLYLINE
  5
3372
330
2
100
AcDbEntity
  8
copper
100
AcDbPolyline
 90
        2
 70
   128
 43
0.5
 10
571.6993436534949
 20
227.1799922584503
 42
0.1071608595720659
 10
301.581210113482
 20
165.8181321488794
 42
0.1071608595720659
  0
LWPOLYLINE
  5
3373
330
2
100
AcDbEntity
  8
copper
100
AcDbPolyline
 90
        2
 70
   128
 43
0.5
 10
571.7092123841939
 20
226.1800409555588
 42
0.1070722167684625
 10
302.2116400103632
 20
165.008823396334
 42
0.1070722167684625
  0
LWPOLYLINE
  5
3418
330
2
100
AcDbEntity
  8
copper
100
AcDbPolyline
 90
        2
 70
   128
 43
0.5
 10
577.0896891671136
 20
399.8229397360722
 42
0.1439278700963342
 10
577.2015865830167
 20
397.0050229453502
  0
LWPOLYLINE
  5
3419
330
2
100
AcDbEntity
  8
copper
100
AcDbPolyline
 90
        2
 70
   128
 43
0.5
 10
577.2238297128933
 20
396.938228164647
 42
0.3360847324527215
 10
575.2368438113076
 20
398.3122744796642
  0
LWPOLYLINE
  5
341A
330
2
100
AcDbEntity
  8
copper
100
AcDbPolyline
 90
        2
 70
   128
 43
0.5
 10
571.1157847701356
 20
400.6352699984579
 42
0.1581394831193099
 10
572.5921853954246
 20
397.9257834881585
  0
LWPOLYLINE
  5
341B
330
2
100
AcDbEntity
  8
copper
100
AcDbPolyline
 90
        2
 70
   128
 43
0.5
 10
572.8812349185331
 20
397.6433901828816
 42
0.2863047326809761
 10
569.7906565488255
 20
398.372295238006
  0
LWPOLYLINE
  5
341C
330
2
100
AcDbEntity
  8
copper
100
AcDbPolyline
 90
        2
 70
   128
 43
0.5
 10
570.3350389790139
 20
398.876371827321
 10
571.464841806579
 20
398.876371827321
  0
LWPOLYLINE
  5
341D
330
2
100
AcDbEntity
  8
copper
100
AcDbPolyline
 90
        2
 70
   128
 43
0.5
 10
571.2342735310885
 20
399.6484410573046
 10
571.2342735310885
 20
399.0492234818418
  0
LWPOLYLINE
  5
341E
330
2
100
AcDbEntity
  8
copper
100
AcDbPolyline
 90
        2
 70
   128
 43
0.5
 10
576.3183688478402
 20
398.1388818895091
 10
576.3183688478402
 20
398.6343839916251
  0
LWPOLYLINE
  5
341F
330
2
100
AcDbEntity
  8
copper
  6
Continuous
100
AcDbPolyline
 90
        2
 70
   128
 43
0.5
 10
297.8023379479077
 20
162.5439719273211
 42
0.0009581548465543
 10
295.5470740986916
 20
161.4651832684915
  0
LWPOLYLINE
  5
3420
330
2
100
AcDbEntity
  8
copper
  6
Continuous
100
AcDbPolyline
 90
        2
 70
   128
 43
0.5
 10
299.0432047419695
 20
161.1408758850932
 42
0.0011529678845086
 10
296.3363630889685
 20
159.8474276775562
  0
LWPOLYLINE
  5
3421
330
2
100
AcDbEntity
  8
copper
100
AcDbPolyline
 90
        2
 70
   128
 43
1.199999999999999
 10
292.1270315490383
 20
159.8088895268618
 10
295.5470740986911
 20
161.4651832684915
  0
LWPOLYLINE
  5
3422
330
2
100
AcDbEntity
  8
copper
100
AcDbPolyline
 90
        2
 70
   128
 43
1.199999999999999
 10
292.9163071895628
 20
158.1911615017372
 10
296.3363630889421
 20
159.8474276775434
  0
LWPOLYLINE
  5
3423
330
2
100
AcDbEntity
  8
copper
100
AcDbPolyline
 90
        2
 70
   129
 43
0.6
 10
291.829598090651
 20
159.84804738454
 42
1.0
 10
292.4244650074752
 20
159.7697316692081
 42
1.0
  0
LWPOLYLINE
  5
3424
330
2
100
AcDbEntity
  8
copper
100
AcDbPolyline
 90
        2
 70
   129
 43
0.6
 10
292.6188737311631
 20
158.2303193594091
 42
1.0
 10
293.2137406479878
 20
158.1520036440772
 42
1.0
  0
LWPOLYLINE
  5
3425
330
2
100
AcDbEntity
  8
copper
100
AcDbPolyline
 90
        2
 70
   129
 43
0.6
 10
296.0389296305302
 20
159.8865855352094
 42
1.0
 10
296.6337965473544
 20
159.8082698198775
 42
1.0
  0
LWPOLYLINE
  5
3426
330
2
100
AcDbEntity
  8
copper
100
AcDbPolyline
 90
        2
 70
   129
 43
0.6
 10
295.2496406402793
 20
161.5043411261574
 42
1.0
 10
295.8445075571035
 20
161.4260254108255
 42
1.0
  0
LWPOLYLINE
  5
3427
330
2
100
AcDbEntity
  8
copper
100
AcDbPolyline
 90
        2
 70
   128
 43
0.5
 10
297.8023379479077
 20
162.5439719273211
 10
301.5812101134561
 20
165.8181321488571
  0
LWPOLYLINE
  5
3428
330
2
100
AcDbEntity
  8
copper
100
AcDbPolyline
 90
        2
 70
   128
 43
0.5
 10
302.2116400103501
 20
165.0088233963181
 10
299.0432047419695
 20
161.1408758850932
  0
LWPOLYLINE
  5
3429
330
2
100
AcDbEntity
  8
copper
100
AcDbPolyline
 90
        2
 70
   129
 43
0.25
 10
298.9192741342977
 20
161.1571916591208
 42
1.0
 10
299.1671353496413
 20
161.1245601110656
 42
1.0
  0
LWPOLYLINE
  5
342A
330
2
100
AcDbEntity
  8
copper
100
AcDbPolyline
 90
        2
 70
   129
 43
0.25
 10
302.0877094026782
 20
165.0251391703452
 42
1.0
 10
302.3355706180219
 20
164.99250762229
 42
1.0
  0
LWPOLYLINE
  5
342B
330
2
100
AcDbEntity
  8
copper
100
AcDbPolyline
 90
        2
 70
   129
 43
0.25
 10
301.4572795057843
 20
165.8344479228847
 42
1.0
 10
301.7051407211275
 20
165.8018163748295
 42
1.0
  0
LWPOLYLINE
  5
342C
330
2
100
AcDbEntity
  8
copper
100
AcDbPolyline
 90
        2
 70
   129
 43
0.25
 10
297.678407340236
 20
162.5602877013486
 42
1.0
 10
297.9262685555795
 20
162.5276561532939
 42
1.0
  0
LWPOLYLINE
  5
34BE
330
2
100
AcDbEntity
  8
copper
  6
Continuous
100
AcDbPolyline
 90
        2
 70
   129
 43
2.25
 10
582.2749999999996
 20
402.8103881281928
 42
-1.0
 10
580.0249999999996
 20
402.8103881281928
 42
-1.0
  0
LWPOLYLINE
  5
34BF
330
2
100
AcDbEntity
  8
copper
  6
Continuous
100
AcDbPolyline
 90
        2
 70
   129
 43
2.25
 10
582.2749999999996
 20
400.3103881281929
 42
-1.0
 10
580.0249999999996
 20
400.3103881281929
 42
-1.0
  0
LWPOLYLINE
  5
34C0
330
2
100
AcDbEntity
  8
copper
  6
Continuous
100
AcDbPolyline
 90
        2
 70
   128
 43
4.5
 10
581.1499999999996
 20
402.8103881281928
 10
581.1499999999996
 20
400.3103881281929
  0
LWPOLYLINE
  5
34C1
330
2
100
AcDbEntity
  8
copper
  6
Continuous
100
AcDbPolyline
 90
        2
 70
   129
 43
2.25
 10
588.2749999999996
 20
402.7669084403367
 42
-1.0
 10
586.0249999999996
 20
402.7669084403367
 42
-1.0
  0
LWPOLYLINE
  5
34C2
330
2
100
AcDbEntity
  8
copper
  6
Continuous
100
AcDbPolyline
 90
        2
 70
   129
 43
2.25
 10
588.2749999999996
 20
400.2669084403366
 42
-1.0
 10
586.0249999999996
 20
400.2669084403366
 42
-1.0
  0
LWPOLYLINE
  5
34C3
330
2
100
AcDbEntity
  8
copper
  6
Continuous
100
AcDbPolyline
 90
        2
 70
   128
 43
4.5
 10
587.1499999999996
 20
402.7669084403367
 10
587.1499999999996
 20
400.2669084403366
  0
LWPOLYLINE
  5
34C4
330
2
100
AcDbEntity
  8
copper
  6
Continuous
100
AcDbPolyline
 90
        2
 70
   129
 43
2.25
 10
594.2749999999996
 20
402.6799422139227
 42
-1.0
 10
592.0249999999996
 20
402.6799422139227
 42
-1.0
  0
LWPOLYLINE
  5
34C5
330
2
100
AcDbEntity
  8
copper
  6
Continuous
100
AcDbPolyline
 90
        2
 70
   129
 43
2.25
 10
594.2749999999996
 20
399.6799422139227
 42
-1.0
 10
592.0249999999996
 20
399.6799422139227
 42
-1.0
  0
LWPOLYLINE
  5
34C6
330
2
100
AcDbEntity
  8
copper
  6
Continuous
100
AcDbPolyline
 90
        2
 70
   128
 43
4.5
 10
593.1499999999996
 20
402.6799422139227
 10
593.1499999999996
 20
400.1799422139226
  0
LWPOLYLINE
  5
34C7
330
2
100
AcDbEntity
  8
copper
  6
Continuous
100
AcDbPolyline
 90
        2
 70
   129
 43
2.25
 10
599.1499999999996
 20
403.6744757421504
 42
-1.0
 10
599.1499999999996
 20
401.4244757421504
 42
-1.0
  0
LWPOLYLINE
  5
34C8
330
2
100
AcDbEntity
  8
copper
  6
Continuous
100
AcDbPolyline
 90
        2
 70
   129
 43
2.25
 10
601.6499999999996
 20
403.6744757421504
 42
-1.0
 10
601.6499999999996
 20
401.4244757421504
 42
-1.0
  0
LWPOLYLINE
  5
34C9
330
2
100
AcDbEntity
  8
copper
  6
Continuous
100
AcDbPolyline
 90
        2
 70
   128
 43
4.5
 10
599.1499999999996
 20
402.5494757421504
 10
601.6499999999996
 20
402.5494757421504
  0
LWPOLYLINE
  5
34CA
330
2
100
AcDbEntity
  8
copper
  6
Continuous
100
AcDbPolyline
 90
        4
 70
   128
 10
584.5907876158053
 20
226.1800409555588
 40
0.5
 41
0.5
 42
-0.4113259762827774
 10
578.6499999999996
 20
232.1797487729079
 40
0.5
 41
0.5
 10
578.6499999999996
 20
394.27485422226
 40
0.5
 41
0.5
 42
-0.1989123673796574
 10
581.1499999999996
 20
400.3103881281929
 40
0.0
 41
0.0
  0
LWPOLYLINE
  5
34F5
330
2
100
AcDbEntity
  8
copper
  6
Continuous
100
AcDbPolyline
 90
        4
 70
   128
 10
584.6006563465043
 20
227.1799922584503
 40
0.5
 41
0.5
 42
-0.4113259762827774
 10
579.6499999999996
 20
232.1797487729079
 40
0.5
 41
0.5
 10
579.6499999999996
 20
388.4942666119557
 40
0.5
 41
0.5
 42
-0.2914734195860881
 10
587.1499999999996
 20
400.2669084403366
 40
0.0
 41
0.0
  0
LWPOLYLINE
  5
350C
330
2
100
AcDbEntity
  8
copper
100
AcDbPolyline
 90
        2
 70
   128
 43
0.5
 10
584.6006563465043
 20
227.1799922584503
 42
-0.0373940479043851
 10
681.884650263169
 20
218.9279039736736
 42
-0.0373940479043851
  0
LWPOLYLINE
  5
350D
330
2
100
AcDbEntity
  8
copper
100
AcDbPolyline
 90
        2
 70
   128
 43
0.5
 10
584.5907876158053
 20
226.1800409555588
 42
-0.0373062883894825
 10
681.5000573820766
 20
217.9768462321833
 42
-0.0373062883894825
  0
LWPOLYLINE
  5
354A
330
2
100
AcDbEntity
  8
copper
100
AcDbPolyline
 90
        2
 70
   128
 43
0.5
 10
579.2103108328856
 20
399.8229397360722
 42
-0.1439278700963342
 10
579.098413416983
 20
397.0050229453502
  0
LWPOLYLINE
  5
354B
330
2
100
AcDbEntity
  8
copper
100
AcDbPolyline
 90
        2
 70
   128
 43
0.5
 10
579.0761702871058
 20
396.938228164647
 42
-0.3360847324527215
 10
581.0631561886911
 20
398.3122744796645
  0
LWPOLYLINE
  5
354C
330
2
100
AcDbEntity
  8
copper
100
AcDbPolyline
 90
        2
 70
   128
 43
0.5
 10
585.1842152298636
 20
400.6352699984579
 42
-0.1581394831193099
 10
583.7078146045747
 20
397.9257834881585
  0
LWPOLYLINE
  5
354D
330
2
100
AcDbEntity
  8
copper
100
AcDbPolyline
 90
        2
 70
   128
 43
0.5
 10
583.418765081466
 20
397.6433901828816
 42
-0.2863047326809761
 10
586.5093434511736
 20
398.372295238006
  0
LWPOLYLINE
  5
354E
330
2
100
AcDbEntity
  8
copper
100
AcDbPolyline
 90
        2
 70
   128
 43
0.5
 10
585.9649610209853
 20
398.876371827321
 10
584.8351581934203
 20
398.876371827321
  0
LWPOLYLINE
  5
354F
330
2
100
AcDbEntity
  8
copper
100
AcDbPolyline
 90
        2
 70
   128
 43
0.5
 10
585.0657264689107
 20
399.6484410573046
 10
585.0657264689107
 20
399.0492234818418
  0
LWPOLYLINE
  5
3550
330
2
100
AcDbEntity
  8
copper
100
AcDbPolyline
 90
        2
 70
   128
 43
0.5
 10
579.981631152159
 20
398.1388818895091
 10
579.981631152159
 20
398.6343839916251
  0
LWPOLYLINE
  5
3551
330
2
100
AcDbEntity
  8
copper
  6
Continuous
100
AcDbPolyline
 90
        2
 70
   128
 43
0.5
 10
686.4159341044442
 20
216.814265700554
 42
-0.0009581548465543
 10
688.8804586102756
 20
216.3946004051606
  0
LWPOLYLINE
  5
3552
330
2
100
AcDbEntity
  8
copper
  6
Continuous
100
AcDbPolyline
 90
        2
 70
   128
 43
0.5
 10
685.6069323444262
 20
215.1249033780757
 42
-0.0011529678845086
 10
688.5645658408816
 20
214.622505029505
  0
LWPOLYLINE
  5
3553
330
2
100
AcDbEntity
  8
copper
100
AcDbPolyline
 90
        2
 70
   128
 43
1.199999999999999
 10
692.6234117500753
 20
215.7386264778859
 10
688.8804586102756
 20
216.3946004051606
  0
LWPOLYLINE
  5
3554
330
2
100
AcDbEntity
  8
copper
100
AcDbPolyline
 90
        2
 70
   128
 43
1.199999999999999
 10
692.3075242677814
 20
213.9665612706969
 10
688.5645658409103
 20
214.6225050294999
  0
LWPOLYLINE
  5
3555
330
2
100
AcDbEntity
  8
copper
100
AcDbPolyline
 90
        2
 70
   129
 43
0.6
 10
692.8987381377528
 20
215.857770845081
 42
-1.0
 10
692.3480853623423
 20
215.6194821107008
 42
-1.0
  0
LWPOLYLINE
  5
3556
330
2
100
AcDbEntity
  8
copper
100
AcDbPolyline
 90
        2
 70
   129
 43
0.6
 10
692.582850655473
 20
214.0857056378893
 42
-1.0
 10
692.032197880063
 20
213.8474169035087
 42
-1.0
  0
LWPOLYLINE
  5
3557
330
2
100
AcDbEntity
  8
copper
100
AcDbPolyline
 90
        2
 70
   129
 43
0.6
 10
688.8398922286155
 20
214.7416493966909
 42
-1.0
 10
688.2892394532055
 20
214.5033606623103
 42
-1.0
  0
LWPOLYLINE
  5
3558
330
2
100
AcDbEntity
  8
copper
100
AcDbPolyline
 90
        2
 70
   129
 43
0.6
 10
689.1557849979808
 20
216.5137447723516
 42
-1.0
 10
688.6051322225703
 20
216.275456037971
 42
-1.0
  0
LWPOLYLINE
  5
3559
330
2
100
AcDbEntity
  8
copper
100
AcDbPolyline
 90
        2
 70
   128
 43
0.5
 10
686.4159341044442
 20
216.814265700554
 10
681.8846502631645
 20
218.927903973676
  0
LWPOLYLINE
  5
355A
330
2
100
AcDbEntity
  8
copper
100
AcDbPolyline
 90
        2
 70
   128
 43
0.5
 10
681.5000573820734
 20
217.9768462321856
 10
685.6069323444262
 20
215.1249033780757
  0
LWPOLYLINE
  5
355B
330
2
100
AcDbEntity
  8
copper
100
AcDbPolyline
 90
        2
 70
   129
 43
0.25
 10
685.7216516726366
 20
215.1745468644056
 42
-1.0
 10
685.4922130162158
 20
215.0752598917463
 42
-1.0
  0
LWPOLYLINE
  5
355C
330
2
100
AcDbEntity
  8
copper
100
AcDbPolyline
 90
        2
 70
   129
 43
0.25
 10
681.6147767102838
 20
218.026489718515
 42
-1.0
 10
681.385338053863
 20
217.9272027458558
 42
-1.0
  0
LWPOLYLINE
  5
355D
330
2
100
AcDbEntity
  8
copper
100
AcDbPolyline
 90
        2
 70
   129
 43
0.25
 10
681.9993695913754
 20
218.9775474600049
 42
-1.0
 10
681.7699309349546
 20
218.8782604873461
 42
-1.0
  0
LWPOLYLINE
  5
355E
330
2
100
AcDbEntity
  8
copper
100
AcDbPolyline
 90
        2
 70
   129
 43
0.25
 10
686.5306534326546
 20
216.8639091868838
 42
-1.0
 10
686.3012147762337
 20
216.7646222142246
 42
-1.0
  0
LWPOLYLINE
  5
38F7
330
2
100
AcDbEntity
  8
mechanical
  6
Continuous
100
AcDbPolyline
 90
        2
 70
   128
 43
2.0
 10
0.0
 20
416.5658229286379
 10
2.0
 20
416.5658229286379
  0
LWPOLYLINE
  5
38F8
330
2
100
AcDbEntity
  8
mechanical
  6
Continuous
100
AcDbPolyline
 90
        2
 70
   128
 43
2.0
 10
0.0
 20
1.0
 10
2.0
 20
1.0
  0
LWPOLYLINE
  5
38F9
330
2
100
AcDbEntity
  8
mechanical
  6
Continuous
100
AcDbPolyline
 90
        2
 70
   128
 43
2.0
 10
100.0
 20
416.5658229286379
 10
102.0
 20
416.5658229286379
  0
LWPOLYLINE
  5
38FA
330
2
100
AcDbEntity
  8
mechanical
  6
Continuous
100
AcDbPolyline
 90
        2
 70
   128
 43
2.0
 10
100.0
 20
1.0
 10
102.0
 20
1.0
  0
LWPOLYLINE
  5
38FB
330
2
100
AcDbEntity
  8
mechanical
  6
Continuous
100
AcDbPolyline
 90
        2
 70
   128
 43
2.0
 10
200.0
 20
416.5658229286379
 10
202.0
 20
416.5658229286379
  0
LWPOLYLINE
  5
38FC
330
2
100
AcDbEntity
  8
mechanical
  6
Continuous
100
AcDbPolyline
 90
        2
 70
   128
 43
2.0
 10
200.0
 20
1.0
 10
202.0
 20
1.0
  0
LWPOLYLINE
  5
38FD
330
2
100
AcDbEntity
  8
mechanical
  6
Continuous
100
AcDbPolyline
 90
        2
 70
   128
 43
2.0
 10
300.0
 20
416.5658229286379
 10
302.0
 20
416.5658229286379
  0
LWPOLYLINE
  5
38FE
330
2
100
AcDbEntity
  8
mechanical
  6
Continuous
100
AcDbPolyline
 90
        2
 70
   128
 43
2.0
 10
300.0
 20
1.0
 10
302.0
 20
1.0
  0
LWPOLYLINE
  5
38FF
330
2
100
AcDbEntity
  8
mechanical
  6
Continuous
100
AcDbPolyline
 90
        2
 70
   128
 43
2.0
 10
400.0
 20
416.5658229286379
 10
402.0
 20
416.5658229286379
  0
LWPOLYLINE
  5
3900
330
2
100
AcDbEntity
  8
mechanical
  6
Continuous
100
AcDbPolyline
 90
        2
 70
   128
 43
2.0
 10
400.0
 20
1.0
 10
402.0
 20
1.0
  0
LWPOLYLINE
  5
3901
330
2
100
AcDbEntity
  8
mechanical
  6
Continuous
100
AcDbPolyline
 90
        2
 70
   128
 43
2.0
 10
500.0
 20
416.5658229286379
 10
502.0
 20
416.5658229286379
  0
LWPOLYLINE
  5
3902
330
2
100
AcDbEntity
  8
mechanical
  6
Continuous
100
AcDbPolyline
 90
        2
 70
   128
 43
2.0
 10
500.0
 20
1.0
 10
502.0
 20
1.0
  0
LWPOLYLINE
  5
3903
330
2
100
AcDbEntity
  8
mechanical
  6
Continuous
100
AcDbPolyline
 90
        2
 70
   128
 43
2.0
 10
600.0
 20
416.5658229286379
 10
602.0
 20
416.5658229286379
  0
LWPOLYLINE
  5
3904
330
2
100
AcDbEntity
  8
mechanical
  6
Continuous
100
AcDbPolyline
 90
        2
 70
   128
 43
2.0
 10
600.0
 20
1.0
 10
602.0
 20
1.0
  0
LWPOLYLINE
  5
3905
330
2
100
AcDbEntity
  8
mechanical
  6
Continuous
100
AcDbPolyline
 90
        2
 70
   128
 43
2.0
 10
700.0
 20
416.5658229286379
 10
702.0
 20
416.5658229286379
  0
LWPOLYLINE
  5
3906
330
2
100
AcDbEntity
  8
mechanical
  6
Continuous
100
AcDbPolyline
 90
        2
 70
   128
 43
2.0
 10
700.0
 20
1.0
 10
702.0
 20
1.0
  0
LWPOLYLINE
  5
3907
330
2
100
AcDbEntity
  8
mechanical
  6
Continuous
100
AcDbPolyline
 90
        2
 70
   128
 43
2.0
 10
800.0
 20
416.5658229286379
 10
802.0
 20
416.5658229286379
  0
LWPOLYLINE
  5
3908
330
2
100
AcDbEntity
  8
mechanical
  6
Continuous
100
AcDbPolyline
 90
        2
 70
   128
 43
2.0
 10
800.0
 20
1.0
 10
802.0
 20
1.0
  0
LWPOLYLINE
  5
3909
330
2
100
AcDbEntity
  8
mechanical
  6
Continuous
100
AcDbPolyline
 90
        2
 70
   128
 43
2.0
 10
900.0
 20
416.5658229286379
 10
902.0
 20
416.5658229286379
  0
LWPOLYLINE
  5
390A
330
2
100
AcDbEntity
  8
mechanical
  6
Continuous
100
AcDbPolyline
 90
        2
 70
   128
 43
2.0
 10
900.0
 20
1.0
 10
902.0
 20
1.0
  0
LWPOLYLINE
  5
390B
330
2
100
AcDbEntity
  8
mechanical
  6
Continuous
100
AcDbPolyline
 90
        2
 70
   128
 43
2.0
 10
1000.0
 20
416.5658229286379
 10
1002.0
 20
416.5658229286379
  0
LWPOLYLINE
  5
390C
330
2
100
AcDbEntity
  8
mechanical
  6
Continuous
100
AcDbPolyline
 90
        2
 70
   128
 43
2.0
 10
1000.0
 20
1.0
 10
1002.0
 20
1.0
  0
LWPOLYLINE
  5
390D
330
2
100
AcDbEntity
  8
mechanical
  6
Continuous
100
AcDbPolyline
 90
        2
 70
   128
 43
2.0
 10
1100.0
 20
416.5658229286379
 10
1102.0
 20
416.5658229286379
  0
LWPOLYLINE
  5
390E
330
2
100
AcDbEntity
  8
mechanical
  6
Continuous
100
AcDbPolyline
 90
        2
 70
   128
 43
2.0
 10
1100.0
 20
1.0
 10
1102.0
 20
1.0
  0
LWPOLYLINE
  5
390F
330
2
100
AcDbEntity
  8
mechanical
  6
Continuous
100
AcDbPolyline
 90
        2
 70
   128
 43
2.0
 10
1154.3
 20
416.5658229286379
 10
1156.299999999999
 20
416.5658229286379
  0
LWPOLYLINE
  5
3910
330
2
100
AcDbEntity
  8
mechanical
  6
Continuous
100
AcDbPolyline
 90
        2
 70
   128
 43
2.0
 10
1154.3
 20
1.0
 10
1156.299999999999
 20
1.0
  0
LWPOLYLINE
  5
3911
330
2
100
AcDbEntity
  8
copper
100
AcDbPolyline
 90
        2
 70
   128
 43
0.5
 10
548.5188407653534
 20
402.6504889298957
 42
0.1346900899421399
 10
553.5686121237024
 20
404.2319145258802
  0
LWPOLYLINE
  5
3912
330
2
100
AcDbEntity
  8
copper
100
AcDbPolyline
 90
        2
 70
   128
 43
0.5
 10
553.9017181157669
 20
400.6947320343222
 42
0.1048012284961556
 10
549.8182760856029
 20
401.4151624681731
  0
LWPOLYLINE
  5
3913
330
2
100
AcDbEntity
  8
copper
100
AcDbPolyline
 90
        2
 70
   128
 43
1.199999999999999
 10
553.4522533091794
 20
403.5997724821767
 10
551.3158925826409
 20
402.6012050808085
  0
LWPOLYLINE
  5
3914
330
2
100
AcDbEntity
  8
copper
100
AcDbPolyline
 90
        2
 70
   128
 43
1.199999999999999
 10
553.9133416984696
 20
401.2032129881581
 10
551.8307709929477
 20
401.8177148406589
  0
LWPOLYLINE
  5
3915
330
2
100
AcDbEntity
  8
copper
100
AcDbPolyline
 90
        2
 70
   128
 43
0.5
 10
558.2224119952879
 20
398.9172884875967
 42
0.4071607595117997
 10
561.1499999999996
 20
401.9164144440944
  0
LWPOLYLINE
  5
3916
330
2
100
AcDbEntity
  8
copper
100
AcDbPolyline
 90
        2
 70
   128
 43
1.199999999999999
 10
561.7849164807558
 20
400.7170229469275
 10
559.7696420755656
 20
398.5169402047709
  0
LWPOLYLINE
  5
3917
330
2
100
AcDbEntity
  8
copper
100
AcDbPolyline
 90
        2
 70
   128
 43
0.5
 10
607.7811592346442
 20
402.6504889298956
 42
-0.1346900899421399
 10
602.7313878762953
 20
404.2319145258801
  0
LWPOLYLINE
  5
3918
330
2
100
AcDbEntity
  8
copper
100
AcDbPolyline
 90
        2
 70
   128
 43
0.5
 10
602.3982818842307
 20
400.694732034322
 42
-0.1048012284961556
 10
606.4817239143948
 20
401.415162468173
  0
LWPOLYLINE
  5
3919
330
2
100
AcDbEntity
  8
copper
100
AcDbPolyline
 90
        2
 70
   128
 43
1.199999999999999
 10
602.8477466908183
 20
403.5997724821767
 10
604.9841074173567
 20
402.6012050808084
  0
LWPOLYLINE
  5
391A
330
2
100
AcDbEntity
  8
copper
100
AcDbPolyline
 90
        2
 70
   128
 43
1.199999999999999
 10
602.3866583015281
 20
401.203212988158
 10
604.4692290070501
 20
401.8177148406588
  0
LWPOLYLINE
  5
391B
330
2
100
AcDbEntity
  8
copper
100
AcDbPolyline
 90
        2
 70
   128
 43
0.5
 10
598.0775880047096
 20
398.9172884875967
 42
-0.4071607595117997
 10
595.1499999999981
 20
401.9164144440944
  0
LWPOLYLINE
  5
391C
330
2
100
AcDbEntity
  8
copper
100
AcDbPolyline
 90
        2
 70
   128
 43
1.199999999999999
 10
594.5150835192419
 20
400.7170229469274
 10
596.5303579244321
 20
398.5169402047708
  0
LWPOLYLINE
  5
391D
330
2
100
AcDbEntity
  8
mechanical
100
AcDbPolyline
 90
       16
 70
   129
 43
0.5
 10
400.4332003038398
 20
69.09795815557675
 10
399.1207003038399
 20
68.47295815557675
 10
398.3082003038398
 20
66.66045815557669
 10
397.8707003038398
 20
63.72295815557652
 10
397.8707003038398
 20
61.91045815557675
 10
398.3082003038398
 20
58.91045815557664
 10
399.1207003038399
 20
57.16045815557652
 10
400.4332003038398
 20
56.59795815557675
 10
401.2457003038398
 20
56.59795815557675
 10
402.5582003038398
 20
57.16045815557652
 10
403.3082003038398
 20
58.91045815557664
 10
403.6832003038398
 20
61.91045815557675
 10
403.6832003038398
 20
63.72295815557652
 10
403.3082003038398
 20
66.66045815557669
 10
402.5582003038398
 20
68.47295815557675
 10
401.2457003038398
 20
69.09795815557675
  0
POINT
  5
391F
330
2
100
AcDbEntity
  8
mechanical
100
AcDbPoint
 10
446.8082003038398
 20
50.03545815557675
 30
0.0
  0
LWPOLYLINE
  5
3923
330
2
100
AcDbEntity
  8
mechanical
100
AcDbPolyline
 90
        3
 70
   128
 43
0.5
 10
326.8707003038398
 20
56.59795815557675
 10
330.2457003038398
 20
69.09795815557675
 10
333.4957003038399
 20
56.59795815557675
  0
LWPOLYLINE
  5
3924
330
2
100
AcDbEntity
  8
mechanical
100
AcDbPolyline
 90
        2
 70
   128
 43
0.5
 10
328.1207003038399
 20
60.72295815557669
 10
332.2457003038398
 20
60.72295815557669
  0
LWPOLYLINE
  5
3925
330
2
100
AcDbEntity
  8
mechanical
100
AcDbPolyline
 90
        2
 70
   128
 43
0.5
 10
337.3082003038399
 20
69.09795815557675
 10
337.3082003038399
 20
56.59795815557675
  0
LWPOLYLINE
  5
3926
330
2
100
AcDbEntity
  8
mechanical
100
AcDbPolyline
 90
        2
 70
   128
 43
0.5
 10
334.3707003038399
 20
69.09795815557675
 10
340.1832003038399
 20
69.09795815557675
  0
LWPOLYLINE
  5
3927
330
2
100
AcDbEntity
  8
mechanical
100
AcDbPolyline
 90
        3
 70
   128
 43
0.5
 10
342.3082003038398
 20
69.09795815557675
 10
342.3082003038398
 20
56.59795815557675
 10
347.3082003038399
 20
56.59795815557675
  0
LWPOLYLINE
  5
3928
330
2
100
AcDbEntity
  8
mechanical
100
AcDbPolyline
 90
        2
 70
   128
 43
0.5
 10
349.3707003038398
 20
69.09795815557675
 10
349.3707003038398
 20
56.59795815557675
  0
LWPOLYLINE
  5
3929
330
2
100
AcDbEntity
  8
mechanical
100
AcDbPolyline
 90
       18
 70
   128
 43
0.5
 10
358.4957003038399
 20
66.09795815557664
 10
358.0582003038399
 20
67.28545815557669
 10
357.3082003038398
 20
68.47295815557675
 10
356.4957003038399
 20
69.09795815557675
 10
354.8082003038398
 20
69.09795815557675
 10
353.9332003038398
 20
68.47295815557675
 10
353.1207003038399
 20
67.28545815557669
 10
352.6832003038399
 20
66.09795815557664
 10
352.2457003038399
 20
64.34795815557652
 10
352.2457003038399
 20
61.34795815557669
 10
352.6832003038399
 20
59.53545815557664
 10
353.1207003038399
 20
58.28545815557664
 10
353.9332003038398
 20
57.09795815557658
 10
354.8082003038398
 20
56.59795815557675
 10
356.4957003038399
 20
56.59795815557675
 10
357.3082003038398
 20
57.09795815557658
 10
358.0582003038399
 20
58.28545815557664
 10
358.4957003038399
 20
59.53545815557664
  0
LWPOLYLINE
  5
392A
330
2
100
AcDbEntity
  8
mechanical
100
AcDbPolyline
 90
        4
 70
   128
 43
0.5
 10
366.8707003038398
 20
56.59795815557675
 10
361.4332003038398
 20
56.59795815557675
 10
361.4332003038398
 20
69.09795815557675
 10
366.8707003038398
 20
69.09795815557675
  0
LWPOLYLINE
  5
392B
330
2
100
AcDbEntity
  8
mechanical
100
AcDbPolyline
 90
        2
 70
   128
 43
0.5
 10
361.4332003038398
 20
63.03545815557658
 10
364.7457003038399
 20
63.03545815557658
  0
LWPOLYLINE
  5
392C
330
2
100
AcDbEntity
  8
mechanical
100
AcDbPolyline
 90
       16
 70
   129
 43
0.5
 10
381.4957003038399
 20
69.09795815557675
 10
380.3082003038398
 20
68.47295815557675
 10
379.4957003038399
 20
66.66045815557669
 10
379.0582003038398
 20
63.66045815557658
 10
379.0582003038398
 20
61.91045815557675
 10
379.4957003038399
 20
58.91045815557664
 10
380.3082003038398
 20
57.09795815557658
 10
381.4957003038399
 20
56.59795815557675
 10
382.3082003038398
 20
56.59795815557675
 10
383.6207003038398
 20
57.09795815557658
 10
384.4332003038399
 20
58.91045815557664
 10
384.8707003038398
 20
61.91045815557675
 10
384.8707003038398
 20
63.66045815557658
 10
384.4332003038399
 20
66.66045815557669
 10
383.6207003038398
 20
68.47295815557675
 10
382.3082003038398
 20
69.09795815557675
  0
LWPOLYLINE
  5
392D
330
2
100
AcDbEntity
  8
mechanical
100
AcDbPolyline
 90
       16
 70
   129
 43
0.5
 10
389.8082003038398
 20
69.09795815557675
 10
388.5582003038398
 20
68.47295815557675
 10
387.7457003038399
 20
66.66045815557669
 10
387.4332003038398
 20
63.66045815557658
 10
387.4332003038398
 20
61.91045815557675
 10
387.7457003038399
 20
58.91045815557664
 10
388.5582003038398
 20
57.09795815557658
 10
389.8082003038398
 20
56.59795815557675
 10
390.6832003038399
 20
56.59795815557675
 10
391.9332003038399
 20
57.09795815557658
 10
392.8082003038398
 20
58.91045815557664
 10
393.2457003038398
 20
61.91045815557675
 10
393.2457003038398
 20
63.66045815557658
 10
392.8082003038398
 20
66.66045815557669
 10
391.9332003038399
 20
68.47295815557675
 10
390.6832003038399
 20
69.09795815557675
  0
LWPOLYLINE
  5
39A6
330
2
100
AcDbEntity
  8
mechanical
100
AcDbPolyline
 90
        4
 70
     1
 43
1.0
 10
318.5582003038399
 20
75.16045815557664
 10
446.8082003038398
 20
75.16045815557664
 10
446.8082003038398
 20
50.03545815557675
 10
318.5582003038399
 20
50.03545815557675
  0
LWPOLYLINE
  5
39A9
330
2
100
AcDbEntity
  8
mechanical
100
AcDbPolyline
 90
       18
 70
   128
 43
0.5
 10
429.9332003038398
 20
65.53545815557672
 10
429.6207003038398
 20
66.53545815557666
 10
428.9957003038398
 20
67.47295815557666
 10
428.2457003038398
 20
67.91045815557669
 10
426.9957003038398
 20
67.91045815557669
 10
426.2457003038398
 20
67.47295815557666
 10
425.6207003038398
 20
66.53545815557666
 10
425.3082003038398
 20
65.53545815557672
 10
424.9957003038398
 20
64.09795815557675
 10
424.9957003038398
 20
61.72295815557678
 10
425.3082003038398
 20
60.28545815557666
 10
425.6207003038398
 20
59.28545815557672
 10
426.2457003038398
 20
58.34795815557672
 10
426.9957003038398
 20
57.91045815557669
 10
428.2457003038398
 20
57.91045815557669
 10
428.9957003038398
 20
58.34795815557672
 10
429.6207003038398
 20
59.28545815557672
 10
429.9332003038398
 20
60.28545815557666
  0
LWPOLYLINE
  5
39AA
330
2
100
AcDbEntity
  8
mechanical
100
AcDbPolyline
 90
        3
 70
   128
 43
0.5
 10
433.3082003038398
 20
57.91045815557669
 10
436.6207003038398
 20
67.91045815557669
 10
431.9332003038398
 20
67.91045815557669
  0
LWPOLYLINE
  5
39AB
330
2
100
AcDbEntity
  8
mechanical
100
AcDbPolyline
 90
       17
 70
   128
 43
0.5
 10
411.2457003038398
 20
69.16045815557669
 10
407.0582003038398
 20
69.16045815557669
 10
406.6832003038398
 20
63.72295815557666
 10
407.0582003038398
 20
64.41045815557675
 10
408.3707003038398
 20
65.03545815557675
 10
409.4957003038398
 20
65.03545815557675
 10
410.8082003038398
 20
64.41045815557675
 10
411.6207003038398
 20
63.22295815557669
 10
412.0582003038398
 20
61.41045815557678
 10
412.0582003038398
 20
60.28545815557666
 10
411.6207003038398
 20
58.47295815557675
 10
410.8082003038398
 20
57.28545815557669
 10
409.4957003038398
 20
56.66045815557669
 10
408.3707003038398
 20
56.66045815557669
 10
407.0582003038398
 20
57.28545815557669
 10
406.6832003038398
 20
57.84795815557675
 10
406.2457003038398
 20
58.97295815557672
  0
LWPOLYLINE
  5
39AC
330
2
100
AcDbEntity
  8
mechanical
  6
Continuous
100
AcDbPolyline
 90
       18
 70
   128
 43
0.25
 10
17.26994159407377
 20
185.0580334832122
 10
17.5130095501066
 20
185.5220723083659
 10
17.62349498466702
 20
186.0744994811679
 10
17.51300955010663
 20
186.4943441324975
 10
17.07106781186505
 20
186.9362858707391
 10
16.65122316053552
 20
187.0467713052994
 10
16.09879598773352
 20
186.9362858707391
 10
15.63475716257989
 20
186.6932179147062
 10
15.01603872904164
 20
186.2954703502887
 10
14.17634942638261
 20
185.4557810476297
 10
13.77860186196517
 20
184.8370626140915
 10
13.53553390593231
 20
184.3730237889378
 10
13.42504847137192
 20
183.8205966161358
 10
13.53553390593231
 20
183.4007519648063
 10
13.97747564417389
 20
182.9588102265647
 10
14.39732029550342
 20
182.8483247920043
 10
14.94974746830539
 20
182.9588102265647
 10
15.41378629345905
 20
183.2018781825976
  0
LWPOLYLINE
  5
39AD
330
2
100
AcDbEntity
  8
mechanical
  6
Continuous
100
AcDbPolyline
 90
        3
 70
   128
 43
0.25
 10
15.76733968405236
 20
181.1689461866863
 10
20.47401919632532
 20
183.5333344862788
 10
18.81673767791935
 20
185.1906160046848
  0
LWPOLYLINE
  5
39B2
330
2
100
AcDbEntity
  8
copper
  6
Continuous
100
AcDbPolyline
 90
      316
 70
   128
 43
1.771999999999999
 10
601.6499999998575
 20
402.2066635079641
 42
-0.178910732008634
 10
1134.972795086794
 20
187.6881784472546
 42
-1.0
 10
1127.875600659844
 20
179.8606509151364
 42
0.183152189642068
 10
587.9089988134402
 20
391.9156359097156
 42
1.0
 10
587.8670011865591
 20
388.3938863162124
 42
-0.1829321740648787
 10
1124.995613029945
 20
177.717350697879
 42
-1.0
 10
1117.905086567012
 20
169.8837825148317
 42
0.1828780898565999
 10
587.9093674234538
 20
377.8266121926045
 42
1.0
 10
587.8666325765457
 20
374.3048714677841
 42
-0.1826502942275
 10
1115.017879670267
 20
167.7461967061259
 42
-1.0
 10
1107.934263057094
 20
159.9063796369862
 42
0.1825942827798994
 10
587.9097492057417
 20
363.7375518075227
 42
1.0
 10
587.8662507942586
 20
360.215820431026
 42
-0.1823582867775102
 10
1105.039564972072
 20
157.7746986088564
 42
-1.0
 10
1097.963113492498
 20
149.9284134714649
 42
0.1823002431971128
 10
587.9101448792131
 20
349.6484527483889
 42
1.0
 10
587.8658551207863
 20
346.1267312350805
 42
-0.1820555956502688
 10
1095.060636676359
 20
147.8028372135447
 42
-1.0
 10
1087.991620019932
 20
139.9498530984992
 42
0.0992091469449853
 10
830.3929394208307
 20
292.66445778226
 42
1.0
 10
829.2271463129221
 20
289.340994162848
 42
-0.0989610765475568
 10
1085.081060091115
 20
137.830591872173
 42
-1.0
 10
1078.019763457183
 20
129.970665291878
 42
0.1001715779817542
 10
822.3429707694005
 20
280.549501701223
 42
1.0
 10
821.1931252639113
 20
277.2204869350339
 42
-0.0999139889989553
 10
1075.100797857395
 20
127.8579403404785
 42
-1.0
 10
1068.047523167005
 20
119.9908142996729
 42
0.1028083506606697
 10
809.7788071009526
 20
269.9335060680785
 42
-0.41281865277755
 10
806.4253917728569
 20
276.5899922976232
 10
807.0307040559512
 20
278.4391742265378
 42
0.3517056221784313
 10
806.2539634008093
 20
280.5025151881092
 42
-0.4070135839703413
 10
800.9740556735389
 20
300.0858252471019
 42
0.4784976775869191
 10
799.9494624312311
 20
302.6298431636378
 42
0.0707476413686904
 10
587.9105552160678
 20
335.5593128600661
 42
1.0
 10
587.8654447839324
 20
332.0376017633246
 42
-0.0683680017908344
 10
792.0402653830148
 20
301.3190665012016
 42
-1.0
 10
789.0608807489227
 20
291.1818270741119
 42
0.0683072614227323
 10
587.9109810468137
 20
321.4701298242508
 42
1.0
 10
587.8650189531859
 20
317.9484297396397
 42
-0.0709176593982364
 10
795.4780869446243
 20
285.5829221200778
 42
-1.0
 10
792.3935266586444
 20
275.4771889036233
 42
0.0708545589242384
 10
587.9114232658899
 20
307.3809011437337
 42
1.0
 10
587.86457673411
 20
303.8592127130996
 42
-0.1810772131062399
 10
1065.119809687884
 20
117.8848586205272
 42
-1.0
 10
1058.074876916337
 20
110.0102615994483
 42
0.1810098255225443
 10
587.9118828379275
 20
293.2916241248024
 42
1.0
 10
587.8641171620722
 20
289.7699480408604
 42
-0.1807253348661957
 10
1055.138052074081
 20
107.9113207842624
 42
-1.0
 10
1048.101800718846
 20
100.0289656244169
 42
0.1806552584468527
 10
587.912360804781
 20
279.2022958575246
 42
1.0
 10
587.8636391952183
 20
275.6806328689975
 42
-0.1803592841243158
 10
1045.155477957578
 20
97.93729877530905
 42
-1.0
 10
1038.128268658422
 20
90.04688145644314
 42
0.1802863546390054
 10
587.9128582934093
 20
265.1129131936067
 42
1.0
 10
587.8631417065901
 20
261.5912641110041
 42
-0.0692245785806359
 10
775.2902918667257
 20
232.8146819786206
 42
-1.0
 10
772.2631119699912
 20
222.6916123911483
 42
0.0691506482781376
 10
587.9133765247488
 20
251.0234727214776
 42
1.0
 10
587.8626234752508
 20
247.501838423603
 42
-0.0673995626973953
 10
766.7473188543333
 20
220.6478419625147
 42
-1.0
 10
763.790788391676
 20
210.5039135507314
 42
0.0673225030509412
 10
587.9139168237165
 20
236.9339707381788
 42
1.0
 10
587.8620831762831
 20
233.4123521794768
 42
-0.070606050852453
 10
771.0711253809528
 20
204.6547280012496
 42
0.5566183672635895
 10
773.3232599256179
 20
206.6266052074932
 42
-0.5012592784050386
 10
789.4410857093397
 20
223.4111240360282
 42
0.2688435467055829
 10
791.0666455195835
 20
224.1014990906543
 42
-0.3232284551751218
 10
796.9717954272505
 20
225.9387030225277
 42
-0.1010347894385234
 10
1035.17203636025
 20
87.96276218579549
 42
-1.0
 10
1028.154252690894
 20
80.06396048109886
 42
0.0967631088119153
 10
804.4497405680878
 20
212.1835632105829
 42
1.0
 10
803.2733645566448
 20
208.8638307696017
 42
-0.0964491238067334
 10
1025.187671967189
 20
77.98767800448286
 42
-1.0
 10
1018.179722420738
 20
70.08014999919637
 42
0.0965197726984102
 10
799.5691398014087
 20
198.9666529005891
 42
1.0
 10
798.3936933248913
 20
195.6465912173002
 42
-0.0961922640775941
 10
1015.202324655191
 20
68.01201033177074
 42
-1.0
 10
1008.204644849054
 20
60.0953927882252
 42
0.0990751443625144
 10
787.8613414294605
 20
188.1219010694836
 42
-0.3348795846405825
 10
784.2912786289077
 20
193.3891181714212
 42
0.76252875683664
 10
781.0656587668582
 20
194.4525915971247
 42
-0.3348795846405448
 10
775.0629868736448
 20
192.3414652292224
 42
0.0212344480748106
 10
721.8669240068354
 20
206.8141673070614
 42
1.0
 10
721.0874222784211
 20
203.379511421057
 42
-0.1254861869619399
 10
1005.215928958314
 20
58.03572005638819
 42
-1.0
 10
998.2289840883417
 20
50.10962660601985
 42
0.1322150213987731
 10
702.2996162255686
 20
196.5804475459455
 42
-0.4130062354234049
 10
698.1467276733188
 20
202.7726605875254
 10
698.3229173567258
 20
203.2629437847925
 42
1.001374337261704
 10
694.8660480777373
 20
203.9371213508307
 10
694.7726234014976
 20
203.4067734232437
 42
-0.9958846488132612
 10
684.3677984529663
 20
205.2447275160905
 10
684.5353019929749
 20
205.741688973792
 42
1.001374337235654
 10
681.0645252254371
 20
206.3401613896016
 10
680.9806424755243
 20
205.8049534616001
 42
-0.9958846488114476
 10
670.5381368922914
 20
207.4150884252417
 10
671.1577539352763
 20
211.4337383131205
 42
1.001366870024748
 10
667.6712353488504
 20
211.9323854854372
 10
667.1395470016473
 20
207.9011599022453
 42
-0.9958846488078354
 10
656.6643483917691
 20
209.2827066950086
 10
657.195996530272
 20
213.3139375812192
 42
1.001366869999815
 10
653.6994134617333
 20
213.7362735857954
 10
653.2559478414821
 20
209.6943915433386
 42
-0.9958846488150134
 10
642.7530594280457
 20
210.8466903031653
 10
643.1964847332992
 20
214.8885767685747
 42
1.00136687001425
 10
639.6915072402452
 20
215.234399886858
 10
639.3364761575033
 20
211.1837918917195
 42
-0.995884648817273
 10
628.8109143889113
 20
212.1062922508253
 10
629.1659050696535
 20
216.1569037871457
 42
1.001366870007951
 10
625.6542072190858
 20
216.4260488451938
 10
625.3877802457658
 20
212.3686495712449
 42
-0.9958846488169193
 10
614.8445723998706
 20
213.0609109201934
 10
615.1109589034473
 20
217.1183128514713
 42
1.001366870030785
 10
611.5942179721794
 20
217.3106512987392
 10
611.4165223606274
 20
213.2483986637653
 42
-0.9958846488187791
 10
600.8607041434603
 20
213.71009036081
 10
601.03835923686
 20
217.7723447680448
 42
1.001366870015247
 10
597.5182549104049
 20
217.8877847387002
 10
597.4293951135702
 20
213.8226183890007
 42
-0.9958846488193479
 10
586.8660082612593
 20
214.0535202413576
 10
586.954866928544
 20
218.1186866158334
 42
1.001366870017399
 10
583.4330805012178
 20
218.1571731882105
 10
583.4330833496533
 20
207.0467934710474
 42
0.4138065312188001
 10
585.1744192182194
 20
205.2687690185288
 42
-0.1793803282906189
 10
995.2284134604781
 20
48.05876448761512
 42
-1.0
 10
988.2527010389152
 20
40.12278362752917
 42
0.1793150670766135
 10
585.2140261278782
 20
194.7016555054305
 42
1.0
 10
585.1739738721204
 20
191.1798832503279
 42
-0.178932791160869
 10
985.2397001032134
 20
38.08109693572146
 42
-1.0
 10
978.275753020719
 20
30.13478980396424
 42
0.1788645026937797
 10
585.214492203387
 20
180.6127178996185
 42
1.0
 10
585.1735077966117
 20
177.0909563690205
 42
-0.178464247346248
 10
975.2497033943713
 20
28.10266623190893
 42
-1.0
 10
968.2980933532739
 20
20.14556413148842
 42
0.3752940519039471
 10
188.0019066467254
 20
20.14556413148818
 42
-1.0
 10
181.050296605628
 20
28.10266623190895
 42
-0.1784642473462477
 10
571.1264922033873
 20
177.0909563690201
 42
1.0
 10
571.085507796612
 20
180.6127178996184
 42
0.1788645026937799
 10
178.0242469792797
 20
30.13478980396343
 42
-1.0
 10
171.0602998967851
 20
38.08109693572093
 42
-0.1789327911608693
 10
571.1260261278785
 20
191.1798832503278
 42
1.0
 10
571.0859738721207
 20
194.7016555054304
 42
0.179315067076613
 10
168.0472989610848
 20
40.12278362752943
 42
-1.0
 10
161.0715865395199
 20
48.05876448761414
 42
-0.1793803282906196
 10
571.1255807817798
 20
205.2687690185288
 42
0.4138065312187766
 10
572.8669166503459
 20
207.0467934710473
 10
572.8669194987819
 20
218.1571731881737
 42
1.001366870008423
 10
569.3451330714553
 20
218.1186866158343
 10
569.4339917387374
 20
214.0535202414729
 42
-0.9958846488185333
 10
558.870604886431
 20
213.8226183889044
 10
558.7817450895952
 20
217.8877847386602
 42
1.001366869993201
 10
555.2616407631371
 20
217.7723447680909
 10
555.4392958565379
 20
213.7100903608306
 42
-0.9958846488175188
 10
544.8834776393728
 20
213.248398663743
 10
544.7057820278193
 20
217.310651298749
 42
1.001366870004854
 10
541.1890410965495
 20
217.1183128515142
 10
541.4554276001296
 20
213.0609109201794
 42
-0.9958846488156437
 10
530.9122197542343
 20
212.3686495712311
 10
530.6457927809137
 20
216.4260488451823
 42
1.001366869992624
 10
527.1340949303404
 20
216.1569037872067
 10
527.4890856110905
 20
212.1062922507946
 42
-0.9958846488056373
 10
516.9635238425078
 20
211.1837918915896
 10
516.6084927597531
 20
215.2343998868672
 42
1.001366869989264
 10
513.1035152666993
 20
214.8885767685827
 10
513.5469405719546
 20
210.8466903031541
 42
-0.9958846488128308
 10
503.0440521585179
 20
209.6943915433314
 10
502.6005865382658
 20
213.7362735857962
 42
1.001366870009158
 10
499.1040034697284
 20
213.31393758121
 10
499.6356516082345
 20
209.2827066949752
 42
-0.9958846488071745
 10
489.1604529983514
 20
207.9011599022495
 10
488.6287646511486
 20
211.9323854854391
 42
1.001366870012045
 10
485.1422460647234
 20
211.4337383131172
 10
485.7618631077091
 20
207.4150884252339
 42
-0.9958846488141526
 10
475.3193575244738
 20
205.804953461607
 10
474.6997003982892
 20
209.823597168978
 42
1.001366870008686
 10
471.2249115445344
 20
209.2488769955244
 10
471.9322015470408
 20
205.2447275160442
 42
-0.9958846488033474
 10
461.5273765985096
 20
203.4067734231994
 10
460.820046657433
 20
207.4109158477383
 42
1.001366870004801
 10
457.3586471844858
 20
206.7603971741911
 10
458.1532723266767
 20
202.7726605875455
 42
-0.9958846488120009
 10
447.7910976236775
 20
200.7077652193696
 10
446.9964327066092
 20
204.6954938800617
 42
1.001366869994723
 10
443.5500758674968
 20
203.9694874107678
 10
444.4316566160695
 20
200.0000683619901
 42
-0.9958846488050996
 10
434.1170813985626
 20
197.7092179654393
 10
433.2354610578162
 20
201.6786282209597
 42
1.001366869996088
 10
429.8057929207907
 20
200.8774807152997
 10
430.7739082102333
 20
196.9282751004549
 42
-0.9958846488057144
 10
420.5118589834115
 20
194.4125638445134
 10
419.5437043034694
 20
198.3617598027461
 42
1.001366870014722
 10
416.1323629658491
 20
197.485853909287
 10
417.1865503994682
 20
193.5587479702759
 42
-0.9958846488063754
 10
406.98192858089
 20
190.8193774227258
 10
405.9277019771649
 20
194.7464728467765
 42
1.001366870010471
 10
402.5363167829393
 20
193.7962269205344
 10
403.6760728538454
 20
189.8930963436235
 42
-0.9958846488158126
 10
393.5337524320992
 20
186.9313748983111
 10
392.3939574302801
 20
190.834494106599
 42
1.001366870004382
 10
389.0241481918385
 20
189.8103620094228
 10
390.2489285233149
 20
185.9330710298257
 42
-0.9958846488168733
 10
380.1737537304554
 20
182.750413280346
 10
378.9489347257326
 20
186.6276920434957
 42
1.001366870017505
 10
375.602310950293
 20
185.530162926973
 10
376.9115305559152
 20
181.6805634380613
 42
-0.9958846488160586
 10
366.9083135533105
 20
178.2784895035627
 10
365.5990555506527
 20
182.1280759337905
 42
1.001366870004487
 10
362.2772156713939
 20
180.9576740060243
 10
363.6702492343781
 20
177.1376046750196
 42
-0.9958846488121084
 10
353.7437678146165
 20
173.5177394730929
 10
352.350696149165
 20
177.3377949093654
 42
1.001366870007426
 10
349.0552267618787
 20
176.0950791842653
 10
350.5314089337005
 20
172.3063645741698
 42
-0.9958846488103716
 10
340.6864042385101
 20
168.4704370450485
 10
339.2101842769524
 20
172.2591369311007
 42
1.001366869986902
 10
335.9426593821792
 20
170.9447009615719
 10
337.5012851004403
 20
167.1891506594785
 42
-0.9958846488141221
 10
327.7424593561598
 20
163.1389929403568
 10
326.183796178961
 20
166.8945276960814
 42
1.001366870016035
 10
322.9457764302845
 20
165.5089992903338
 10
324.5861012554532
 20
161.7884070431841
 42
-0.9958846488144448
 10
314.9181155270474
 20
157.525953593311
 10
313.2777535916835
 20
161.2465294790737
 42
1.001366870012885
 10
310.0707855502291
 20
159.790570400994
 10
311.7920260211105
 20
156.1067132590398
 42
-0.9958846488171499
 10
302.2194979862667
 20
151.6339999349908
 10
302.0147907132556
 20
152.1621193257989
 42
1.001374337239517
 10
298.8407583551365
 20
150.6356923893957
 10
299.1251701755011
 20
150.1467830291338
 42
-0.9958846488113092
 10
289.6526719186212
 20
145.4659461135388
 10
289.4378723067807
 20
145.9865539498677
 42
1.001374337239151
 10
286.2979554787214
 20
144.391128327836
 10
286.5915837332238
 20
143.9114629689658
 42
-0.4130062354233786
 10
284.340918763056
 20
136.8034046636496
 42
0.0604972197435532
 10
158.0710159116568
 20
50.10962660601927
 42
-1.0
 10
151.0840710416846
 20
58.03572005638778
 42
-0.055513757058114
 10
268.1379102931871
 20
140.1246399420317
 42
1.0
 10
266.4472756370853
 20
143.2143387072271
 42
0.0558536048323999
 10
148.0953551509457
 20
60.09539278822558
 42
-1.0
 10
141.0976753448081
 20
68.01201033177132
 42
-0.0961922640775938
 10
357.9063066751077
 20
195.6465912173003
 42
1.0
 10
356.7308601985904
 20
198.966652900589
 42
0.0965197726984103
 10
138.1202775792611
 20
70.08014999919606
 42
-1.0
 10
131.1123280328096
 20
77.98767800448276
 42
-0.0964491238067334
 10
353.0266354433543
 20
208.8638307696018
 42
1.0
 10
351.8502594319116
 20
212.1835632105828
 42
0.0967631088119147
 10
128.1457473091063
 20
80.06396048109934
 42
-1.0
 10
121.1279636397501
 20
87.9627621857964
 42
-0.1010347894385232
 10
359.3282045727492
 20
225.9387030225274
 42
-0.3232284551751028
 10
365.2333544804159
 20
224.1014990906544
 42
0.268843546705605
 10
366.8589142906599
 20
223.4111240360284
 42
-0.5012592784050394
 10
382.9767400743816
 20
206.6266052074932
 42
0.5566183672636094
 10
385.2288746190468
 20
204.6547280012495
 42
-0.070606050852453
 10
568.4379168237164
 20
233.4123521794771
 42
1.0
 10
568.386083176283
 20
236.9339707381789
 42
0.0673225030509408
 10
392.5092116083245
 20
210.5039135507318
 42
-1.0
 10
389.5526811456672
 20
220.647841962515
 42
-0.0673995626973949
 10
568.4373765247487
 20
247.5018384236029
 42
1.0
 10
568.3866234752507
 20
251.0234727214776
 42
0.0691506482781379
 10
384.0368880300078
 20
222.6916123911482
 42
-1.0
 10
381.0097081332732
 20
232.8146819786206
 42
-0.069224578580636
 10
568.4368582934093
 20
261.5912641110042
 42
1.0
 10
568.3871417065899
 20
265.1129131936066
 42
0.1802863546390056
 10
118.1717313415771
 20
90.04688145644308
 42
-1.0
 10
111.1445220424213
 20
97.93729877530878
 42
-0.1803592841243159
 10
568.4363608047808
 20
275.6806328689976
 42
1.0
 10
568.3876391952183
 20
279.2022958575246
 42
0.1806552584468526
 10
108.1981992811534
 20
100.028965624417
 42
-1.0
 10
101.1619479259179
 20
107.9113207842624
 42
-0.1807253348661958
 10
568.4358828379274
 20
289.7699480408604
 42
1.0
 10
568.3881171620721
 20
293.2916241248026
 42
0.1810098255225446
 10
98.2251230836618
 20
110.010261599448
 42
-1.0
 10
91.18019031211456
 20
117.8848586205272
 42
-0.1810772131062402
 10
568.4354232658896
 20
303.8592127130997
 42
1.0
 10
568.3885767341097
 20
307.3809011437337
 42
0.0708545589242385
 10
363.906473341355
 20
275.4771889036231
 42
-1.0
 10
360.8219130553749
 20
285.5829221200778
 42
-0.0709176593982366
 10
568.4349810468138
 20
317.9484297396395
 42
1.0
 10
568.389018953186
 20
321.4701298242508
 42
0.0683072614227325
 10
367.2391192510764
 20
291.1818270741118
 42
-1.0
 10
364.2597346169845
 20
301.3190665012014
 42
-0.0683680017908345
 10
568.4345552160672
 20
332.0376017633247
 42
1.0
 10
568.3894447839318
 20
335.5593128600663
 42
0.0707476413686907
 10
356.3505375687677
 20
302.6298431636378
 42
0.4784976775868897
 10
355.3259443264602
 20
300.0858252471019
 42
-0.4070135839703374
 10
350.0460365991898
 20
280.5025151881093
 42
0.3517056221783115
 10
349.2692959440477
 20
278.4391742265386
 10
349.8746082271427
 20
276.589992297622
 42
-0.412818652777477
 10
346.5211928990466
 20
269.9335060680786
 42
0.1028083506606697
 10
88.25247683299357
 20
119.9908142996729
 42
-1.0
 10
81.19920214260455
 20
127.8579403404785
 42
-0.0999139889989553
 10
335.1068747360881
 20
277.2204869350336
 42
1.0
 10
333.9570292305987
 20
280.5495017012232
 42
0.1001715779817543
 10
78.28023654281571
 20
129.9706652918781
 42
-1.0
 10
71.21893990888391
 20
137.8305918721727
 42
-0.0989610765475567
 10
327.0728536870772
 20
289.340994162848
 42
1.0
 10
325.9070605791687
 20
292.66445778226
 42
0.0992091469449852
 10
68.30837998006734
 20
139.9498530984994
 42
-1.0
 10
61.23936332363996
 20
147.8028372135447
 42
-0.1820555956502689
 10
568.4341448792133
 20
346.1267312350806
 42
1.0
 10
568.3898551207866
 20
349.648452748389
 42
0.1823002431971131
 10
58.33688650750059
 20
149.9284134714649
 42
-1.0
 10
51.26043502792726
 20
157.7746986088564
 42
-0.1823582867775104
 10
568.433749205741
 20
360.2158204310261
 42
1.0
 10
568.390250794258
 20
363.7375518075224
 42
0.1825942827798994
 10
48.36573694290553
 20
159.9063796369863
 42
-1.0
 10
41.28212032973195
 20
167.7461967061262
 42
-0.1826502942275001
 10
568.4333674234539
 20
374.3048714677841
 42
1.0
 10
568.3906325765458
 20
377.8266121926047
 42
0.1828780898566
 10
38.39491343298744
 20
169.8837825148319
 42
-1.0
 10
31.30438697005428
 20
177.7173506978787
 42
-0.1829321740648788
 10
568.4329988134406
 20
388.3938863162127
 42
1.0
 10
568.3910011865594
 20
391.9156359097153
 42
0.1819379435019726
 10
31.28026271130636
 20
182.4378496319514
 42
-1.0
 10
24.21993871130538
 20
190.2986499102322
 42
-0.1776982839935007
 10
554.6500000001418
 20
402.2066635079641
  0
LWPOLYLINE
  5
3AED
330
2
100
AcDbEntity
  8
copper
  6
Continuous
100
AcDbPolyline
 90
      322
 70
   128
 43
1.771999999999999
 10
563.1590859315658
 20
398.381605270003
 42
0.0025418837665659
 10
554.773679957611
 20
398.1865539106339
 42
-0.084120828272953
 10
553.3295272350328
 20
398.3893392880398
 42
0.0850164725982845
 10
551.8245991231383
 20
398.5979299236798
 42
0.1767840849348271
 10
26.57338004463918
 20
187.6783831508056
 42
1.0
 10
28.92682137797306
 20
185.0581163913785
 42
-0.1819379435019728
 10
568.3490035596785
 20
395.437385503218
 42
-1.0
 10
568.4749964403222
 20
384.8721367227098
 42
0.1829321740648789
 10
33.66789579103179
 20
175.1061613035296
 42
1.0
 10
36.03140461200928
 20
172.494971909181
 42
-0.1828780898566001
 10
568.347897729638
 20
381.3483529174252
 42
-1.0
 10
568.4761022703624
 20
370.7831307429633
 42
0.1826502942275001
 10
43.64332586745642
 20
165.1329243497463
 42
1.0
 10
46.00453140518095
 20
162.5196519933663
 42
-0.182594282779899
 10
568.3467523827743
 20
367.2592831840187
 42
-1.0
 10
568.4772476172234
 20
356.6940890545296
 42
0.1823582867775104
 10
53.61925218778506
 20
155.159270229726
 42
1.0
 10
55.9780693476431
 20
152.5438418505953
 42
-0.1823002431971133
 10
568.3455653623601
 20
353.1701742616972
 42
-1.0
 10
568.4784346376403
 20
342.6050097217722
 42
0.182055595650269
 10
63.59570220911556
 20
145.1851758418628
 42
1.0
 10
65.95204109459143
 20
142.567514470181
 42
-0.0992091469449851
 10
324.74126747126
 20
295.9879214016716
 42
-1.0
 10
328.2386467949856
 20
286.0175305434361
 42
0.0989610765475566
 10
73.57270545352796
 20
135.210616345408
 42
1.0
 10
75.92647099817191
 20
132.5906408186431
 42
-0.1001715779817543
 10
332.8071837251095
 20
283.8785164674124
 42
-1.0
 10
336.2567202415775
 20
273.8914721688443
 42
0.0999139889989552
 10
83.55029370606752
 20
125.2355649935433
 42
1.0
 10
85.90138526953053
 20
122.6131896466081
 42
-0.1028083506606697
 10
345.4095715732037
 20
273.2754788429424
 42
0.4128186527775008
 10
346.5273766825691
 20
275.4943075861237
 10
345.9220643994745
 20
277.3434895150391
 42
-0.3517056221783649
 10
348.2522863649005
 20
283.5335123997523
 42
0.4070135839703364
 10
352.2516655826374
 20
298.3673101307065
 42
-0.4784976775869025
 10
355.3254453095601
 20
305.9993638803143
 42
-0.0707476413686902
 10
568.3443343517957
 20
339.0810239568078
 42
-1.0
 10
568.4796656482022
 20
328.5158906665829
 42
0.0683680017908347
 10
365.2528628283482
 20
297.9399866921715
 42
1.0
 10
366.2459910397121
 20
294.5609068831417
 42
-0.0683072614227326
 10
568.3430568595582
 20
324.9918299088618
 42
-1.0
 10
568.480943140442
 20
314.4267296550287
 42
0.0709176593982367
 10
361.8500998173681
 20
282.2143443812596
 42
1.0
 10
362.8782865793614
 20
278.8457666424414
 42
-0.0708545589242384
 10
568.3417302023294
 20
310.9025895743674
 42
-1.0
 10
568.4822697976693
 20
300.3375242824656
 42
0.1810772131062405
 10
93.52850123596319
 20
115.2599929468339
 42
1.0
 10
95.87681215981252
 20
112.6351272731406
 42
-0.1810098255225447
 10
568.3403514862171
 20
296.8133002087447
 42
-1.0
 10
568.4836485137826
 20
286.2482719569182
 42
0.1807253348661958
 10
103.5073650443298
 20
105.2838690643139
 42
1.0
 10
105.8527821627416
 20
102.6564173443655
 42
-0.180655258446852
 10
568.3389175856549
 20
282.7239588460517
 42
-1.0
 10
568.4850824143429
 20
272.1589698804704
 42
0.1803592841243159
 10
113.4869251421399
 20
95.30715966902022
 42
1.0
 10
115.8293282418585
 20
92.67702056273174
 42
-0.1802863546390053
 10
568.3374251197704
 20
268.6345622762091
 42
-1.0
 10
568.4865748802281
 20
258.0696150284015
 42
0.0692245785806361
 10
382.0187680988514
 20
229.4403254494632
 42
1.0
 10
383.0278280644296
 20
226.0659689203055
 42
-0.0691506482781378
 10
568.3358704257527
 20
254.5451070193522
 42
-1.0
 10
568.4881295742465
 20
243.9802041257281
 42
0.0673995626973953
 10
390.5381912998857
 20
217.2665324919204
 42
1.0
 10
391.5237014541049
 20
213.8852230213259
 42
-0.0673225030509407
 10
568.3342495288494
 20
240.4555892968808
 42
-1.0
 10
568.4897504711496
 20
229.8907336207748
 42
0.070606050852453
 10
386.2584998203472
 20
201.2865896512337
 42
-0.5566183672636047
 10
379.5020961863515
 20
207.2022212699645
 42
0.5012592784050406
 10
367.2933037596238
 20
219.9160146258306
 42
-0.268843546705587
 10
362.4166243288922
 20
221.9871397897084
 42
0.3232284551751138
 10
360.4482410263365
 20
222.5995411003328
 42
0.1010347894385234
 10
123.4672248628685
 20
85.32982828423056
 42
1.0
 10
125.8064860859873
 20
82.69689438266476
 42
-0.0967631088119148
 10
350.6738834204689
 20
215.5032956515638
 42
-1.0
 10
354.2030114547971
 20
205.5440983286206
 42
0.0964491238067332
 10
133.4483112149602
 20
75.35183533605394
 42
1.0
 10
135.7842943971107
 20
72.71599266762502
 42
-0.0965197726984102
 10
355.555413722073
 20
202.2867145838779
 42
-1.0
 10
359.081753151625
 20
192.3265295340111
 42
0.0961922640775939
 10
143.4302352801871
 20
65.37313781725592
 42
1.0
 10
145.7627952155664
 20
62.73426530274054
 42
-0.0558536048323998
 10
264.7566409809876
 20
146.3040374724145
 42
-1.0
 10
269.8285449492845
 20
137.0349411768441
 42
0.0555137570581137
 10
153.4130526650089
 20
55.39368890626525
 42
1.0
 10
155.7420342883329
 20
52.75165775614244
 42
-0.0604972197435532
 10
282.7119966391571
 20
139.9260792727423
 42
0.4138110066423782
 10
283.4599909700262
 20
142.2997306455237
 10
283.166838778808
 20
142.7784713883851
 42
-1.004128701517057
 10
292.5865181921573
 20
147.5647121426153
 10
292.8015802542293
 20
147.0435806120449
 42
0.9986263370815855
 10
295.9591035384221
 20
148.6038713769273
 10
295.6751474617038
 20
149.0918459384117
 42
-1.004128701520655
 10
305.1971726930356
 20
153.6710921975255
 10
305.4021309091301
 20
153.1424435021306
 42
0.9986263370958901
 10
308.5929977046299
 20
154.6333592122144
 10
306.8718084041494
 20
158.3171055552918
 42
-1.004106238047279
 10
316.4926407261199
 20
162.6849501913463
 10
318.1329529301602
 20
158.9644857578768
 42
0.998626337105149
 10
321.3556391974396
 20
160.3853143132932
 10
319.7153631090905
 20
164.1057946698629
 42
-1.0041062380409
 10
329.4293498575185
 20
168.262348865775
 10
330.9879657509256
 20
164.5069266224016
 42
0.9986263370571894
 10
334.2409322523124
 20
165.8569893994799
 10
332.682352814039
 20
169.6124267726748
 42
-1.004106238048839
 10
342.4848543401191
 20
173.5557052517301
 10
343.9610294879395
 20
169.7671188844902
 42
0.9986263370232741
 10
347.2427225234343
 20
171.0457710584531
 10
345.7665841526564
 20
174.8343717552924
 42
-1.004106238046936
 10
355.6529185306491
 20
178.5624911067491
 10
357.0459478738101
 20
174.7425501415656
 42
0.9986263371331345
 10
360.3548000227424
 20
175.9491809955162
 10
358.9618077610206
 20
179.7691354830921
 42
-1.004106238046359
 10
368.927253024485
 20
183.2803150616784
 10
370.2364712165898
 20
179.4308439999274
 42
0.9986263370634313
 10
373.5709020864362
 20
180.5648772161131
 10
372.2617212624648
 20
184.4143609865575
 42
-1.004106238043832
 10
382.3015176595874
 20
187.7069237629538
 10
383.5262993844906
 20
183.8297612105989
 42
0.9986263370317528
 10
386.8847163656548
 20
184.8906551458365
 10
385.6599722777443
 20
188.7678295870548
 42
-1.004106238042179
 10
395.7693245447043
 20
191.84020294892
 10
396.9090848151911
 20
187.9372007383979
 42
0.9986263370333652
 10
400.2898838419024
 20
188.9244486820183
 10
399.1501614591411
 20
192.8274619563797
 42
-1.004106238048901
 10
409.324241110405
 20
195.6781784596332
 10
410.378435547805
 20
191.7512007646955
 42
0.9986263371627323
 10
413.7800018637036
 20
192.6643311824038
 10
412.7258455468188
 20
196.5913191103538
 42
-1.00410623804416
 10
422.959793181443
 20
199.2190171797589
 10
423.9279182755621
 20
195.2699396252824
 42
0.9986263370317008
 10
427.3486272056445
 20
196.1085163819662
 10
426.3805404464899
 20
200.0576033342504
 42
-1.00410623804703
 10
436.6694680690244
 20
202.4610279139763
 10
437.5510614185583
 20
198.4917366803607
 42
0.9986263370359663
 10
440.9892791444275
 20
199.2553592512127
 10
440.1077243261968
 20
203.2246590421022
 42
-1.004106238047107
 10
450.4467176813689
 20
205.402662194968
 10
451.2413582146435
 20
201.4150531178712
 42
0.9986263371098827
 10
454.6954425556735
 20
202.1033567763319
 10
453.9008407314431
 20
206.0909735669316
 42
-1.004106238051708
 10
464.2849616512843
 20
208.0425150228825
 10
464.9922698276865
 20
204.0384926862785
 42
0.9986263371300656
 10
468.4605710246819
 20
204.6511486812053
 10
467.7533017166268
 20
208.6551778836549
 42
-1.004106238045688
 10
478.1775904791173
 20
210.3793255363814
 10
478.7972284701813
 20
206.3608023636834
 42
0.9986263370987511
 10
482.278089973647
 20
206.8975180751064
 10
481.6584909917231
 20
210.9160472623886
 42
-1.00410623804703
 10
492.1179686895903
 20
212.4119776150466
 10
492.6496405402799
 20
208.3808729562696
 42
0.9986263371753722
 10
496.1413998017274
 20
208.8413920343722
 10
495.6097670822487
 20
212.8725018542103
 42
-1.004106238046359
 10
506.099438001131
 20
214.1395004121179
 10
506.5428897714392
 20
210.0977396254476
 42
0.9986263371285566
 10
510.0438790371349
 20
210.4818421152627
 10
509.6004665015146
 20
214.5236072062935
 42
-1.004106238046749
 10
520.1153205059995
 20
215.5610688183802
 10
520.4703403919652
 20
211.5105823525726
 42
0.9986263370523516
 10
523.9788874998435
 20
211.8180847964584
 10
523.6239069332363
 20
215.8685747084704
 42
-1.004106238046982
 10
534.1589218598098
 20
216.6760038564803
 10
534.4253402948425
 20
212.6187263276402
 42
0.9986263369959129
 10
537.9397694729646
 20
212.8494818544633
 10
537.6733904231977
 20
216.9067619696418
 42
-1.004106238040963
 10
548.2235344789597
 20
217.4837730049452
 10
548.4012242148054
 20
213.4216422724813
 42
0.9986263370045477
 10
551.9198568817713
 20
213.5755406680388
 10
551.7422065783192
 20
217.6376731252181
 42
-1.004106238048402
 10
562.3024407443365
 20
217.983990452334
 10
562.3912973278963
 20
213.9189462122363
 42
0.9986263371218988
 10
565.9124528923082
 20
213.9959140783164
 10
565.8235963505867
 20
218.0609583191804
 42
-1.004106238039528
 10
576.3888767815505
 20
218.176417174555
 10
576.3888724215348
 20
207.066374971518
 42
-0.4129928167083646
 10
571.1647423453397
 20
201.7469867464483
 42
0.1793803282906191
 10
163.3968240133752
 20
45.41343753425298
 42
1.0
 10
165.7220614872302
 20
42.7681105808914
 42
-0.1793150670766128
 10
571.0459216163626
 20
198.2234277605327
 42
-1.0
 10
571.1660783836359
 20
187.6581109952256
 42
0.1789327911608691
 10
173.3816155909501
 20
35.43232789180203
 42
1.0
 10
175.7029312851151
 20
32.78355884788278
 42
-0.1788645026937797
 10
571.0445233898362
 20
184.1344794302166
 42
-1.0
 10
571.1674766101626
 20
173.5691948384219
 42
0.1784642473462478
 10
183.3674999526604
 20
25.45029886510213
 42
1.0
 10
185.6847032996928
 20
22.79793149829527
 42
-0.3752940519039471
 10
970.6152967003065
 20
22.79793149829529
 42
1.0
 10
972.9325000473389
 20
25.45029886510207
 42
0.1784642473462481
 10
585.132523389836
 20
173.5691948384223
 42
-1.0
 10
585.2554766101623
 20
184.1344794302166
 42
-0.1788645026937799
 10
980.5970687148841
 20
32.78355884788315
 42
1.0
 10
982.9183844090488
 20
35.43232789180223
 42
0.1789327911608692
 10
585.1339216163624
 20
187.6581109952256
 42
-1.0
 10
585.2540783836357
 20
198.2234277605329
 42
-0.1793150670766132
 10
990.5779385127692
 20
42.76811058089132
 42
1.0
 10
992.9031759866234
 20
45.41343753425309
 42
0.1793803282906188
 10
585.1352576546595
 20
201.7469867464484
 42
-0.4129928167074671
 10
579.9111275784643
 20
207.066374971502
 10
579.9111232184486
 20
218.1764171745574
 42
-1.004106238043162
 10
590.4764036494121
 20
218.0609583191659
 10
590.3875471076856
 20
213.9959140780755
 42
0.9986263371392723
 10
593.9087026721109
 20
213.9189462126
 10
593.9975592556623
 20
217.9839904523418
 42
-1.004106238049478
 10
604.5577934216777
 20
217.6376731251649
 10
604.3801431182414
 20
213.5755406683579
 42
0.9986263370997914
 10
607.8987757851956
 20
213.4216422725232
 10
608.0764655210402
 20
217.4837730049592
 42
-1.004106238040822
 10
618.6266095768005
 20
216.9067619696265
 10
618.3602305270552
 20
212.8494818547829
 42
0.9986263371929542
 10
621.8746597051835
 20
212.6187263280431
 10
622.1410781401893
 20
216.6760038564886
 42
-1.004106238050242
 10
632.6760930667532
 20
215.8685747083529
 10
632.3211125001569
 20
211.8180847964718
 42
0.9986263371601314
 10
635.8296596080664
 20
211.5105823529368
 10
636.1846794940005
 20
215.5610688183891
 42
-1.004106238046936
 10
646.6995334984837
 20
214.5236072062862
 10
646.2561209628614
 20
210.4818421152352
 42
0.9986263371026003
 10
649.7571102285592
 20
210.0977396254405
 10
650.2005619988684
 20
214.1395004121199
 42
-1.004106238039263
 10
660.6902329177536
 20
212.8725018542334
 10
660.1586001982823
 20
208.8413920344512
 42
0.998626337167882
 10
663.650359459715
 20
208.3808729562368
 10
664.182031310407
 20
212.4119776150318
 42
-1.004106238051412
 10
674.6415090082758
 20
210.9160472623862
 10
674.0219100263479
 20
206.8975180750793
 42
0.9986263371899372
 10
677.5027715298615
 20
206.3608023639635
 10
677.590499983749
 20
206.9195600545544
 42
-1.004128701525076
 10
688.002751726641
 20
205.124156353331
 10
687.8394289752966
 20
204.6511486810875
 42
0.9986263370631192
 10
691.3077301722808
 20
204.0384926861003
 10
691.4055142751696
 20
204.5923007110999
 42
-1.004128701516328
 10
701.7760438672025
 20
202.5697832727328
 10
701.6045574443081
 20
202.1033567762424
 42
0.4138110066415239
 10
702.9879205342439
 20
200.0345351503151
 42
-0.1322150213987735
 10
1000.557965711666
 20
52.75165775614243
 42
1.0
 10
1002.88694733499
 20
55.39368890626519
 42
0.1254861869619397
 10
720.3079205500028
 20
199.9448555350339
 42
-1.0
 10
722.6464257352541
 20
210.2488231930844
 42
-0.0212344480748106
 10
776.1310170633863
 20
195.6976230791753
 42
0.3348795846405528
 10
778.1319076944575
 20
196.4013318684762
 42
-0.7625287568367432
 10
787.8087672806059
 20
193.2109115913649
 42
0.3348795846405768
 10
788.9987882141235
 20
191.4551725573857
 42
-0.0990751443625144
 10
1010.537204784433
 20
62.73426530274056
 42
1.0
 10
1012.869764719812
 20
65.37313781725561
 42
0.0961922640775942
 10
797.2182468483739
 20
192.3265295340114
 42
-1.0
 10
800.7445862779258
 20
202.2867145838779
 42
-0.0965197726984103
 10
1020.515705602888
 20
72.71599266762504
 42
1.0
 10
1022.851688785039
 20
75.3518353360539
 42
0.0964491238067332
 10
802.0969885452023
 20
205.5440983286206
 42
-1.0
 10
805.6261165795305
 20
215.5032956515641
 42
-0.0967631088119149
 10
1030.493513914012
 20
82.69689438266471
 42
1.0
 10
1032.832775137131
 20
85.32982828423001
 42
0.1010347894385234
 10
795.8517589736633
 20
222.5995411003329
 42
0.3232284551751332
 10
793.8833756711076
 20
221.9871397897084
 42
-0.2688435467056006
 10
789.0066962403757
 20
219.9160146258305
 42
0.5012592784050375
 10
776.7979038136481
 20
207.2022212699645
 42
-0.5566183672636033
 10
770.0415001796523
 20
201.2865896512338
 42
0.070606050852453
 10
587.8102495288495
 20
229.8907336207749
 42
-1.0
 10
587.9657504711498
 20
240.4555892968807
 42
-0.0673225030509404
 10
764.7762985458937
 20
213.8852230213262
 42
1.0
 10
765.7618087001138
 20
217.2665324919206
 42
0.0673995626973953
 10
587.8118704257529
 20
243.9802041257284
 42
-1.0
 10
587.9641295742466
 20
254.5451070193522
 42
-0.0691506482781376
 10
773.2721719355692
 20
226.0659689203058
 42
1.0
 10
774.2812319011475
 20
229.440325449463
 42
0.0692245785806361
 10
587.8134251197706
 20
258.0696150284016
 42
-1.0
 10
587.9625748802284
 20
268.6345622762092
 42
-0.1802863546390054
 10
1040.47067175814
 20
92.67702056273169
 42
1.0
 10
1042.813074857859
 20
95.3071596690205
 42
0.1803592841243163
 10
587.8149175856552
 20
272.1589698804704
 42
-1.0
 10
587.9610824143431
 20
282.7239588460518
 42
-0.1806552584468526
 10
1050.447217837257
 20
102.6564173443653
 42
1.0
 10
1052.792634955669
 20
105.283869064314
 42
0.1807253348661957
 10
587.8163514862173
 20
286.2482719569181
 42
-1.0
 10
587.9596485137827
 20
296.8133002087449
 42
-0.1810098255225445
 10
1060.423187840187
 20
112.6351272731406
 42
1.0
 10
1062.771498764036
 20
115.2599929468336
 42
0.1810772131062407
 10
587.8177302023296
 20
300.337524282466
 42
-1.0
 10
587.9582697976694
 20
310.9025895743676
 42
-0.0708545589242385
 10
793.4217134206378
 20
278.8457666424412
 42
1.0
 10
794.4499001826312
 20
282.2143443812596
 42
0.0709176593982363
 10
587.8190568595583
 20
314.4267296550288
 42
-1.0
 10
587.9569431404421
 20
324.9918299088619
 42
-0.0683072614227323
 10
790.0540089602874
 20
294.5609068831418
 42
1.0
 10
791.0471371716513
 20
297.9399866921713
 42
0.0683680017908352
 10
587.8203343517959
 20
328.515890666583
 42
-1.0
 10
587.9556656482022
 20
339.0810239568077
 42
-0.0707476413686906
 10
800.9745546904389
 20
305.9993638803141
 42
-0.4784976775868932
 10
804.0483344173615
 20
298.3673101307063
 42
0.4070135839703346
 10
808.0477136350987
 20
283.5335123997522
 42
-0.3517056221783714
 10
810.3779356005249
 20
277.3434895150389
 10
809.7726233174302
 20
275.4943075861241
 42
0.4128186527775543
 10
810.8904284267957
 20
273.2754788429426
 42
-0.1028083506606696
 10
1070.398614730469
 20
122.6131896466082
 42
1.0
 10
1072.749706293931
 20
125.2355649935433
 42
0.0999139889989552
 10
820.043279758422
 20
273.8914721688444
 42
-1.0
 10
823.4928162748898
 20
283.8785164674122
 42
-0.1001715779817543
 10
1080.373529001828
 20
132.5906408186434
 42
1.0
 10
1082.727294546471
 20
135.2106163454081
 42
0.098961076547557
 10
828.0613532050132
 20
286.0175305434367
 42
-1.0
 10
831.5587325287387
 20
295.9879214016716
 42
-0.0992091469449853
 10
1090.347958905408
 20
142.567514470181
 42
1.0
 10
1092.704297790883
 20
145.1851758418626
 42
0.1820555956502686
 10
587.8215653623603
 20
342.6050097217723
 42
-1.0
 10
587.9544346376404
 20
353.1701742616972
 42
-0.182300243197113
 10
1100.321930652356
 20
152.5438418505956
 42
1.0
 10
1102.680747812214
 20
155.1592702297257
 42
0.1823582867775109
 10
587.8227523827744
 20
356.6940890545301
 42
-1.0
 10
587.9532476172236
 20
367.2592831840189
 42
-0.1825942827798995
 10
1110.295468594818
 20
162.5196519933662
 42
1.0
 10
1112.656674132542
 20
165.1329243497459
 42
0.1826502942274997
 10
587.8238977296381
 20
370.7831307429633
 42
-1.0
 10
587.9521022703626
 20
381.3483529174254
 42
-0.1828780898565998
 10
1120.26859538799
 20
172.4949719091806
 42
1.0
 10
1122.632104208968
 20
175.1061613035296
 42
0.1829321740648787
 10
587.8250035596786
 20
384.8721367227102
 42
-1.0
 10
587.9509964403223
 20
395.4373855032179
 42
-0.1831521896420677
 10
1130.241332135494
 20
182.4698267591756
 42
1.0
 10
1132.607063611145
 20
185.079002603215
 42
0.177996150759845
 10
604.475400876861
 20
398.5979299236798
 42
0.0850164725982931
 10
602.9704727649664
 20
398.3893392880398
 42
-0.0841208282729563
 10
601.5263200423881
 20
398.1865539106339
 42
0.0025418837665659
 10
593.1409140684335
 20
398.381605270003
  0
LWPOLYLINE
  5
3C2E
330
2
100
AcDbEntity
  8
copper
  6
Continuous
100
AcDbPolyline
 90
        2
 70
   128
 43
4.5
 10
563.1499999999996
 20
402.6799422139227
 10
563.1499999999996
 20
399.6799422139227
  0
LWPOLYLINE
  5
3C2F
330
2
100
AcDbEntity
  8
copper
  6
Continuous
100
AcDbPolyline
 90
        2
 70
   128
 43
4.5
 10
593.1499999999996
 20
402.6799422139227
 10
593.1499999999996
 20
399.6799422139227
  0
LWPOLYLINE
  5
3C47
330
2
100
AcDbEntity
  8
kapton
  6
Continuous
100
AcDbPolyline
 90
        2
 70
   128
 43
0.25
 10
972.1921412540067
 20
10.00000000000045
 42
0.3846436892416937
 10
184.1078587459924
 20
10.00000000000045
  0
LWPOLYLINE
  5
3C48
330
2
100
AcDbEntity
  8
kapton
  6
Continuous
100
AcDbPolyline
 90
        2
 70
   128
 43
0.25
 10
1146.3
 20
184.1078587459928
 42
0.3933080422118196
 10
10.0
 20
184.1078587459928
  0
LWPOLYLINE
  5
3C49
330
2
100
AcDbEntity
  8
kapton
  6
Continuous
100
AcDbPolyline
 90
        2
 70
   128
 43
0.25
 10
10.0
 20
184.1078587459928
 10
184.1078587459924
 20
10.0
  0
LWPOLYLINE
  5
3C4A
330
2
100
AcDbEntity
  8
kapton
  6
Continuous
100
AcDbPolyline
 90
        2
 70
   128
 43
0.25
 10
10.0
 20
184.1078587459928
 10
184.1078587459924
 20
10.0
  0
LWPOLYLINE
  5
3C4B
330
2
100
AcDbEntity
  8
kapton
  6
Continuous
100
AcDbPolyline
 90
        2
 70
   128
 43
0.25
 10
10.0
 20
184.1078587459928
 10
184.1078587459924
 20
10.0
  0
LWPOLYLINE
  5
3C4C
330
2
100
AcDbEntity
  8
kapton
  6
Continuous
100
AcDbPolyline
 90
        2
 70
   128
 43
0.25
 10
1146.3
 20
184.1078587459928
 10
972.1921412540067
 20
10.0
  0
LWPOLYLINE
  5
3C4D
330
2
100
AcDbEntity
  8
kapton
  6
Continuous
100
AcDbPolyline
 90
        2
 70
   129
 43
0.25
 10
375.6499999999996
 20
209.0
 42
0.9999999999999998
 10
361.6499999999996
 20
209.0
 42
0.9999999999999998
  0
LWPOLYLINE
  5
3C4E
330
2
100
AcDbEntity
  8
kapton
  6
Continuous
100
AcDbPolyline
 90
        2
 70
   129
 43
0.125
 10
1146.2375
 20
184.1078587459928
 42
1.0
 10
1146.362499999999
 20
184.1078587459928
 42
1.0
  0
LWPOLYLINE
  5
3C4F
330
2
100
AcDbEntity
  8
kapton
  6
Continuous
100
AcDbPolyline
 90
        2
 70
   129
 43
0.125
 10
972.1296412540068
 20
10.0
 42
1.0
 10
972.2546412540069
 20
10.0
 42
1.0
  0
LWPOLYLINE
  5
3C50
330
2
100
AcDbEntity
  8
kapton
  6
Continuous
100
AcDbPolyline
 90
        2
 70
   129
 43
0.125
 10
184.0453587459924
 20
10.00000000000045
 42
1.0
 10
184.1703587459924
 20
10.00000000000045
 42
1.0
  0
LWPOLYLINE
  5
3C51
330
2
100
AcDbEntity
  8
kapton
  6
Continuous
100
AcDbPolyline
 90
        2
 70
   129
 43
0.125
 10
9.9375
 20
184.1078587459928
 42
1.0
 10
10.0625
 20
184.1078587459928
 42
1.0
  0
LWPOLYLINE
  5
3C52
330
2
100
AcDbEntity
  8
kapton
  6
Continuous
100
AcDbPolyline
 90
        2
 70
   129
 43
0.25
 10
349.6499999999997
 20
293.0
 42
0.9999999999999998
 10
335.6499999999996
 20
293.0
 42
0.9999999999999998
  0
LWPOLYLINE
  5
3C53
330
2
100
AcDbEntity
  8
kapton
  6
Continuous
100
AcDbPolyline
 90
        2
 70
   129
 43
0.25
 10
780.6499999999996
 20
209.0
 42
-0.9999999999999998
 10
794.6499999999996
 20
209.0
 42
-0.9999999999999998
  0
LWPOLYLINE
  5
3C54
330
2
100
AcDbEntity
  8
kapton
  6
Continuous
100
AcDbPolyline
 90
        2
 70
   129
 43
0.25
 10
806.6499999999996
 20
293.0
 42
-0.9999999999999998
 10
820.6499999999996
 20
293.0
 42
-0.9999999999999998
  0
HATCH
  5
3C55
330
2
100
AcDbEntity
  8
kapton
100
AcDbHatch
 10
0.0
 20
0.0
 30
0.0
210
0.0
220
0.0
230
1.0
  2
ANSI37
 70
     0
 71
     1
 91
        1
 92
        7
 72
     0
 73
     1
 93
        4
 10
603.1500000000001
 20
405.065822928638
 10
553.1500000000001
 20
405.065822928638
 10
553.1500000000001
 20
400.0658229286379
 10
603.1500000000001
 20
400.0658229286379
 97
        1
330
3C56
 75
     0
 76
     1
 52
0.0
 41
0.5
 77
     0
 78
     2
 53
45.0
 43
0.0
 44
0.0
 45
-1.122532015133643
 46
1.122532015133644
 79
     0
 53
135.0
 43
0.0
 44
0.0
 45
-1.122532015133644
 46
-1.122532015133643
 79
     0
 47
0.0646116985712494
 98
        1
 10
592.5226862862218
 20
403.6455137151715
1001
ACAD
1010
0.0
1020
0.0
1030
0.0
  0
LWPOLYLINE
  5
3C56
102
{ACAD_REACTORS
330
3C55
102
}
330
2
100
AcDbEntity
  8
kapton
100
AcDbPolyline
 90
        4
 70
     1
 43
0.25
 10
553.1500000000001
 20
405.065822928638
 10
603.1500000000001
 20
405.065822928638
 10
603.1500000000001
 20
400.0658229286379
 10
553.1500000000001
 20
400.0658229286379
  0
VIEWPORT
  5
17F
102
{ACAD_XDICTIONARY
360
3C78
102
}
330
148
100
AcDbEntity
 67
     1
  8
0
  6
Continuous
100
AcDbViewport
 10
539.4629528462933
 20
436.6083350012517
 30
0.0
 40
1387.054359180414
 41
867.4927515749562
 68
     1
 69
     1
 12
539.4629528462933
 22
436.6083350012517
 13
0.0
 23
0.0
 14
10.0
 24
10.0
 15
10.0
 25
10.0
 16
0.0
 26
0.0
 36
1.0
 17
0.0
 27
0.0
 37
0.0
 42
50.0
 43
0.0
 44
0.0
 45
867.4927515749562
 50
0.0
 51
0.0
 72
   100
 90
    32800
  1

281
     0
 71
     1
 74
     0
110
0.0
120
0.0
130
0.0
111
1.0
121
0.0
131
0.0
112
0.0
122
1.0
132
0.0
 79
     0
146
0.0
  0
VIEWPORT
  5
181
102
{ACAD_XDICTIONARY
360
3C7A
102
}
330
148
100
AcDbEntity
 67
     1
  8
0
  6
Continuous
100
AcDbViewport
 10
573.7436809539794
 20
392.7263202667236
 30
0.0
 40
917.9898895263672
 41
628.3621124267579
 68
     2
 69
     2
 12
454.7134502953538
 22
167.0708391774632
 13
0.0
 23
0.0
 14
1.0
 24
1.0
 15
0.0
 25
0.0
 16
0.0
 26
0.0
 36
1.0
 17
0.0
 27
0.0
 37
0.0
 42
50.0
 43
0.0
 44
0.0
 45
558.6397812350369
 50
0.0
 51
0.0
 72
   100
 90
    32800
  1

281
     0
 71
     1
 74
     0
110
0.0
120
0.0
130
0.0
111
1.0
121
0.0
131
0.0
112
0.0
122
1.0
132
0.0
 79
     1
146
0.0
  0
ENDSEC
  0
SECTION
  2
OBJECTS
  0
DICTIONARY
  5
9
330
0
100
AcDbDictionary
281
     1
  3
ACAD_COLOR
350
162
  3
ACAD_GROUP
350
15E
  3
ACAD_LAYOUT
350
147
  3
ACAD_MATERIAL
350
161
  3
ACAD_MLINESTYLE
350
15F
  3
ACAD_PLOTSETTINGS
350
160
  3
ACAD_PLOTSTYLENAME
350
8
  3
ACAD_TABLESTYLE
350
16D5
  3
ACAD_VISUALSTYLE
350
16C4
  3
AcDbVariableDictionary
350
16B
  3
ADE_QUERY_LIBRARY
350
16EA
  3
ASE_INDEX_DICTIONARY
350
6DB
  3
Autodesk_MAP
350
16D9
  3
DWGPROPS
350
3C73
1001
ADE
1000
ADE02C004
1000
[Query]
1000
CaseSensitiveMatch=0
1000
SaveCurrQueryInSession=1
1000
MkSelSetWithQryObj=0
1000
ShowBlockAsInsPt=0
1000
CreateAssociativeHatchObjects=0
1000
ReferenceBoundaryForAreaLocation=1
1000
ShowImageAsBoundary=1
1000
DefaultJoinOperator=2
1000
ColorForAdd=red
1000
ColorForRemove=red
1000
BlockLocnForQuery=1
1000
TextLocnForQuery=1
1000
IncludeAllObjectsInGroups=0
1000
AlwaysUseLibraryDefinitions=0
1000
PreviewDefinitionsFrom=2
1000
[Save Back]
1000
RedefineBlockDefinitions=1
1000
RedefineLayerDefinitions=1
1000
RedefineTextStyleDefinitions=1
1000
RemoveUnusedGroups=1
1000
EraseSavedBackObjects=1
1000
RemoveLockAfterSave=1
1000
CreateHistoryFileOfChanges=0
1000
CreateBackupFileOfSourceDwg=1
1000
DontAddObjectsToSaveSet=0
1000
MarkObjectsForEditingWithoutPrompting=0
1000
FdoDontAddObjsToSvSet=0
1000
FdoEditWithoutPrompt=1
1000
FdoRemUnusedGrps=1
1000
FdoEraseSvdBkObjs=1
1000
FdoRemoveLockOnSave=1
1000
FdoTesselationMaxPointsDistance=0
1000
FdoTesselationMaxCurvesDistance=0
1000
[Coordinate Transformation]
1000
RestoreLastActiveDwgsOnStartup=1
1000
ActivateDwgsOnAttach=1
1000
AdjustSizesAndScalesForChangesInUnits=1
1000
AdjustRotationsForMapDistortions=1
1000
AdjustSizesAndScalesForMapDistortions=1
1000
AdjustElevations=1
1000
AdjustZeroRotationObjects=1
1000
ReconnectDbOnWSOpen=1
1000
NoOfSQLConditionsInHistory=10
  0
DICTIONARY
  5
18FA
330
14E
100
AcDbDictionary
280
     1
281
     1
  3
ACAD_LAYERFILTERS
360
18FC
  3
ACLYDICTIONARY
360
18FB
  0
DICTIONARY
  5
3
330
2
100
AcDbDictionary
280
     1
281
     1
  3
ACAD_LAYOUTSELFREF
360
4
  3
ACAD_SORTENTS
360
1703
  0
DICTIONARY
  5
149
330
148
100
AcDbDictionary
280
     1
281
     1
  3
ACAD_LAYOUTSELFREF
360
14A
  0
DICTIONARY
  5
3C78
330
17F
100
AcDbDictionary
280
     1
281
     1
  3
ACAD_XREC_ROUNDTRIP
360
3C79
  0
DICTIONARY
  5
3C7A
330
181
100
AcDbDictionary
280
     1
281
     1
  3
ACAD_XREC_ROUNDTRIP
360
3C7B
  0
DICTIONARY
  5
162
102
{ACAD_REACTORS
330
9
102
}
330
9
100
AcDbDictionary
281
     1
  0
DICTIONARY
  5
15E
102
{ACAD_REACTORS
330
9
102
}
330
9
100
AcDbDictionary
281
     1
  0
DICTIONARY
  5
147
102
{ACAD_REACTORS
330
9
102
}
330
9
100
AcDbDictionary
281
     1
  3
Layout1
350
14D
  3
Model
350
146
  0
DICTIONARY
  5
161
102
{ACAD_REACTORS
330
9
102
}
330
9
100
AcDbDictionary
281
     1
  3
ByBlock
350
16C2
  3
ByLayer
350
16C1
  3
Global
350
16C3
  0
DICTIONARY
  5
15F
102
{ACAD_REACTORS
330
9
102
}
330
9
100
AcDbDictionary
281
     1
  3
STANDARD
350
163
  0
DICTIONARY
  5
160
102
{ACAD_REACTORS
330
9
102
}
330
9
100
AcDbDictionary
281
     1
  0
ACDBDICTIONARYWDFLT
  5
8
102
{ACAD_REACTORS
330
9
102
}
330
9
100
AcDbDictionary
281
     1
  3
Normal
350
7
100
AcDbDictionaryWithDefault
340
7
  0
DICTIONARY
  5
16D5
102
{ACAD_REACTORS
330
9
102
}
330
9
100
AcDbDictionary
281
     1
  3
Legend
350
16DF
  3
Standard
350
16D6
  0
DICTIONARY
  5
16C4
102
{ACAD_REACTORS
330
9
102
}
330
9
100
AcDbDictionary
281
     1
  3
2dWireframe
350
16CA
  3
3D Hidden
350
16CC
  3
3dWireframe
350
16CB
  3
Basic
350
16C9
  3
Brighten
350
16D0
  3
ColorChange
350
16D4
  3
Conceptual
350
16CD
  3
Dim
350
16CF
  3
Facepattern
350
16D3
  3
Flat
350
16C5
  3
FlatWithEdges
350
16C6
  3
Gouraud
350
16C7
  3
GouraudWithEdges
350
16C8
  3
Linepattern
350
16D2
  3
Realistic
350
16CE
  3
Thicken
350
16D1
  0
DICTIONARY
  5
16B
102
{ACAD_REACTORS
330
9
102
}
330
9
100
AcDbDictionary
281
     1
  3
CTABLESTYLE
350
16ED
  3
DIMASSOC
350
16D
  3
HIDETEXT
350
16C
  3
INDEXCTL
350
3C72
  3
PROJECTNAME
350
16E
  3
SORTENTS
350
7B5
  0
DICTIONARY
  5
16EA
102
{ACAD_REACTORS
330
9
102
}
330
9
100
AcDbDictionary
281
     1
  3
_CurrQry
350
3C71
  0
DICTIONARY
  5
6DB
102
{ACAD_REACTORS
330
9
102
}
330
9
100
AcDbDictionary
281
     1
  3
ASEBlockHierarchyIndexRecord
350
6DC
1001
DCO15
1040
1584427538.52
  0
DICTIONARY
  5
16D9
102
{ACAD_REACTORS
330
9
102
}
330
9
100
AcDbDictionary
281
     1
  3
AcMapDMStylizedEntities
350
16E6
  3
FSD_Dictionary
350
16E7
  3
MAP_DISPLAY_CUSTOMOBJ_REG_TABLE
350
16DD
  3
MAP_DISPLAY_MANAGEMENT_DICTIONARY
350
16DA
  3
MAP_DISPLAY_STYLELIBRARY_DICTIONARY
350
16DB
1001
MapGWS
1000
C:\Documents and Settings\All Users\Application Data\Autodesk\Autodesk Map 3D 2007\R17.0\MapCache\ATLICE-C7GWS1.xml
  0
XRECORD
  5
3C73
102
{ACAD_REACTORS
330
9
102
}
330
9
100
AcDbXrecord
280
     1
  1
DWGPROPS COOKIE
  2

  3

  4

  6

  7

  8
janez
  9

300
=
301
=
302
=
303
=
304
=
305
=
306
=
307
=
308
=
309
=
 40
1.171852858796296
 41
2311946.475710706
 42
2454141.493547685
  1

 90
        0
  0
DICTIONARY
  5
18FC
102
{ACAD_REACTORS
330
18FA
102
}
330
18FA
100
AcDbDictionary
281
     1
  0
DICTIONARY
  5
18FB
102
{ACAD_REACTORS
330
18FA
102
}
330
18FA
100
AcDbDictionary
281
     1
1001
ACAD
1000
<All
  0
XRECORD
  5
4
102
{ACAD_REACTORS
330
3
102
}
330
3
100
AcDbXrecord
280
     1
340
2
  0
SORTENTSTABLE
  5
1703
102
{ACAD_REACTORS
330
3
102
}
330
3
100
AcDbSortentsTable
330
2
331
3361
  5
378B
331
38FF
  5
3BFD
331
3419
  5
3AB0
331
3907
  5
3C05
331
3550
  5
3BDD
331
3421
  5
3AC3
331
390F
  5
3C0D
331
329A
  5
3534
331
3917
  5
3C15
331
3429
  5
3ACF
331
3558
  5
3BE5
331
332A
  5
36C8
331
391F
  5
3C1C
331
3927
  5
3C21
331
34C1
  5
3B62
331
3332
  5
36DC
331
34C9
  5
3B7C
331
38F8
  5
3BF6
331
3372
  5
38FC
331
3900
  5
3BFE
331
3908
  5
3C06
331
341A
  5
3AB2
331
3551
  5
3BDE
331
3422
  5
3AC4
331
3910
  5
3C0E
331
329B
  5
3535
331
3559
  5
3BE6
331
342A
  5
3AD1
331
3918
  5
3C16
331
332B
  5
36CA
331
34C2
  5
3B64
331
3928
  5
3C22
331
3333
  5
36E0
331
34CA
  5
3B82
331
38F9
  5
3BF7
331
3373
  5
3903
331
3901
  5
3BFF
331
354A
  5
3BD7
331
341B
  5
3AB5
331
3909
  5
3C07
331
3911
  5
3C0F
331
3423
  5
3AC5
331
329C
  5
3536
331
3552
  5
3BDF
331
355A
  5
3BE7
331
32A4
  5
353E
331
342B
  5
3AD3
331
3919
  5
3C17
331
332C
  5
36CD
331
34C3
  5
3B68
331
3929
  5
3C23
331
3334
  5
36E3
331
39A9
  5
3C29
331
38FA
  5
3BF8
331
3902
  5
3C00
331
354B
  5
3BD8
331
341C
  5
3AB9
331
390A
  5
3C08
331
3912
  5
3C10
331
3424
  5
3AC6
331
329D
  5
3537
331
3553
  5
3BE0
331
355B
  5
3BE8
331
342C
  5
3AD4
331
391A
  5
3C18
331
32A5
  5
353F
331
332D
  5
36CE
331
3335
  5
36E5
331
34C4
  5
3B6C
331
392A
  5
3C24
331
38FB
  5
3BF9
331
39AA
  5
3C2A
331
3903
  5
3C01
331
350C
  5
3BB1
331
39B2
  5
3B03
331
354C
  5
3BD9
331
341D
  5
3ABC
331
390B
  5
3C09
331
3296
  5
3530
331
3554
  5
3BE1
331
329E
  5
3538
331
3425
  5
3AC8
331
3913
  5
3C11
331
355C
  5
3BE9
331
391B
  5
3C19
331
32A6
  5
3540
331
332E
  5
36D1
331
3923
  5
3C1D
331
3336
  5
36FC
331
34C5
  5
3B6E
331
392B
  5
3C25
331
34F5
  5
3BA1
331
38FC
  5
3BFA
331
39AB
  5
3C2B
331
350D
  5
3BB3
331
3904
  5
3C02
331
390C
  5
3C0A
331
341E
  5
3ABE
331
3297
  5
3531
331
354D
  5
3BDA
331
3555
  5
3BE2
331
329F
  5
3539
331
3426
  5
3AC9
331
3914
  5
3C12
331
391C
  5
3C1A
331
355D
  5
3BEA
331
3924
  5
3C1E
331
332F
  5
36D2
331
34BE
  5
3B55
331
34C6
  5
3B6F
331
392C
  5
3C26
331
38FD
  5
3BFB
331
39AC
  5
3C2C
331
3905
  5
3C03
331
390D
  5
3C0B
331
354E
  5
3BDB
331
3298
  5
3532
331
341F
  5
3ABF
331
3556
  5
3BE3
331
3427
  5
3ACB
331
3915
  5
3C13
331
32A0
  5
353A
331
391D
  5
3C1B
331
355E
  5
3BEB
331
3925
  5
3C1F
331
3330
  5
36D5
331
34BF
  5
3B5A
331
34C7
  5
3B70
331
392D
  5
3C27
331
39AD
  5
3C2D
331
38FE
  5
3BFC
331
3418
  5
3AAE
331
3906
  5
3C04
331
390E
  5
3C0C
331
354F
  5
3BDC
331
3299
  5
3533
331
3420
  5
3AC1
331
3AED
  5
3AF6
331
3557
  5
3BE4
331
3916
  5
3C14
331
3428
  5
3ACC
331
3926
  5
3C20
331
34C0
  5
3B5E
331
3331
  5
36DA
331
34C8
  5
3B71
331
38F7
  5
3BF5
331
39A6
  5
3C28
  0
XRECORD
  5
14A
102
{ACAD_REACTORS
330
149
102
}
330
149
100
AcDbXrecord
280
     1
340
148
  0
XRECORD
  5
3C79
102
{ACAD_REACTORS
330
3C78
102
}
330
3C78
100
AcDbXrecord
280
     1
102
SHADEPLOT
 70
     0
  0
XRECORD
  5
3C7B
102
{ACAD_REACTORS
330
3C7A
102
}
330
3C7A
100
AcDbXrecord
280
     1
102
SHADEPLOT
 70
     0
  0
LAYOUT
  5
14D
102
{ACAD_XDICTIONARY
360
3C76
102
}
102
{ACAD_REACTORS
330
147
102
}
330
147
100
AcDbPlotSettings
  1

  2
\\ris\laserc
  4
A4
  6

 40
6.805083274841308
 41
5.069413185119628
 42
6.805084228515625
 43
5.027069091796875
 44
209.9733276367187
 45
296.9683227539062
 46
0.0
 47
0.0
 48
0.0
 49
0.0
140
0.0
141
0.0
142
1.0
143
4.0
 70
   688
 72
     1
 73
     1
 74
     5
  7
monochrome.ctb
 75
    18
147
0.25
148
0.0
149
0.0
100
AcDbLayout
  1
Layout1
 70
     0
 71
     1
 10
-20.1082763671875
 20
-27.22033309936524
 11
1167.765014648437
 21
812.6729774475098
 12
0.0
 22
0.0
 32
0.0
 14
114.7487361907958
 24
78.54526405334468
 34
0.0
 15
1032.738625717163
 25
706.9073764801025
 35
0.0
146
0.0
 13
0.0
 23
0.0
 33
0.0
 16
1.0
 26
0.0
 36
0.0
 17
0.0
 27
1.0
 37
0.0
 76
     0
330
148
331
17F
  0
LAYOUT
  5
146
102
{ACAD_XDICTIONARY
360
3C74
102
}
102
{ACAD_REACTORS
330
147
102
}
330
147
100
AcDbPlotSettings
  1

  2
\\ris\laserc
  4
A4
  6

 40
6.805083274841308
 41
5.069413185119628
 42
6.805084228515625
 43
5.027069091796875
 44
209.9733276367187
 45
296.9683227539062
 46
11.4
 47
35.65
 48
36.08173645326978
 49
39.13963998603622
140
251.6490471755318
141
212.6978016188405
142
1.0
143
1.0
 70
 11956
 72
     1
 73
     1
 74
     4
  7
monochrome.ctb
 75
    16
147
1.0
148
-36.08173645326978
149
-39.13963998603622
100
AcDbLayout
  1
Model
 70
     1
 71
     0
 10
0.0
 20
0.0
 11
12.0
 21
9.0
 12
0.0
 22
0.0
 32
0.0
 14
0.0
 24
0.0
 34
0.0
 15
0.0
 25
0.0
 35
0.0
146
0.0
 13
0.0
 23
0.0
 33
0.0
 16
1.0
 26
0.0
 36
0.0
 17
0.0
 27
1.0
 37
0.0
 76
     0
330
2
331
16BF
  0
MATERIAL
  5
16C2
102
{ACAD_XDICTIONARY
360
3C7E
102
}
102
{ACAD_REACTORS
330
161
102
}
330
161
100
AcDbMaterial
  1
ByBlock
  0
MATERIAL
  5
16C1
102
{ACAD_XDICTIONARY
360
3C7C
102
}
102
{ACAD_REACTORS
330
161
102
}
330
161
100
AcDbMaterial
  1
ByLayer
  0
MATERIAL
  5
16C3
102
{ACAD_XDICTIONARY
360
3C80
102
}
102
{ACAD_REACTORS
330
161
102
}
330
161
100
AcDbMaterial
  1
Global
  0
MLINESTYLE
  5
163
102
{ACAD_REACTORS
330
15F
102
}
330
15F
100
AcDbMlineStyle
  2
STANDARD
 70
     0
  3

 62
     0
 51
90.0
 52
90.0
 71
     2
 49
0.5
 62
   256
  6
BYLAYER
 49
-0.5
 62
   256
  6
BYLAYER
  0
ACDBPLACEHOLDER
  5
7
102
{ACAD_REACTORS
330
8
102
}
330
8
  0
TABLESTYLE
  5
16DF
102
{ACAD_XDICTIONARY
360
3C84
102
}
102
{ACAD_REACTORS
330
16D5
102
}
330
16D5
100
AcDbTableStyle
  3

 70
     0
 71
     1
 40
0.06
 41
0.06
280
     0
281
     0
  7
STANDARD
140
0.4
170
     4
 62
     0
 63
     7
283
     0
274
    -2
284
     0
 64
     0
275
    -2
285
     0
 65
     0
276
    -2
286
     1
 66
     0
277
    -2
287
     1
 67
     0
278
    -2
288
     0
 68
     0
279
    -2
289
     1
 69
     0
  7
STANDARD
140
0.5
170
     5
 62
     0
 63
     7
283
     0
274
    -2
284
     1
 64
     0
275
    -2
285
     0
 65
     0
276
    -2
286
     1
 66
     0
277
    -2
287
     1
 67
     0
278
    -2
288
     0
 68
     0
279
    -2
289
     1
 69
     0
  7
STANDARD
140
0.4
170
     4
 62
     0
 63
     7
283
     0
274
    -2
284
     1
 64
     0
275
    -2
285
     0
 65
     0
276
    -2
286
     1
 66
     0
277
    -2
287
     1
 67
     0
278
    -2
288
     0
 68
     0
279
    -2
289
     1
 69
     0
  0
TABLESTYLE
  5
16D6
102
{ACAD_XDICTIONARY
360
3C82
102
}
102
{ACAD_REACTORS
330
16D5
102
}
330
16D5
100
AcDbTableStyle
  3
Standard
 70
     0
 71
     0
 40
1.5
 41
1.5
280
     0
281
     0
  7
STANDARD
140
4.5
170
     2
 62
     0
 63
     7
283
     0
274
    -2
284
     1
 64
     0
275
    -2
285
     1
 65
     0
276
    -2
286
     1
 66
     0
277
    -2
287
     1
 67
     0
278
    -2
288
     1
 68
     0
279
    -2
289
     1
 69
     0
  7
STANDARD
140
6.0
170
     5
 62
     0
 63
     7
283
     0
274
    -2
284
     1
 64
     0
275
    -2
285
     1
 65
     0
276
    -2
286
     1
 66
     0
277
    -2
287
     1
 67
     0
278
    -2
288
     1
 68
     0
279
    -2
289
     1
 69
     0
  7
STANDARD
140
4.5
170
     5
 62
     0
 63
     7
283
     0
274
    -2
284
     1
 64
     0
275
    -2
285
     1
 65
     0
276
    -2
286
     1
 66
     0
277
    -2
287
     1
 67
     0
278
    -2
288
     1
 68
     0
279
    -2
289
     1
 69
     0
  0
VISUALSTYLE
  5
16CA
102
{ACAD_REACTORS
330
16C4
102
}
330
16C4
100
AcDbVisualStyle
  2
2dWireframe
 70
     4
 71
     0
 72
     2
 73
     0
 90
        0
 40
-0.6
 41
-30.0
 62
     5
 63
     7
 74
     1
 91
        4
 64
     7
 65
   257
 75
     1
175
     1
 42
1.0
 92
        0
 66
   257
 43
1.0
 76
     1
 77
     6
 78
     2
 67
     7
 79
     5
170
     0
171
     0
290
     0
174
     0
 93
        1
 44
0.0
173
     0
291
     0
 45
0.0
1001
ACAD
1000
AcDbSavedByObjectVersion
1070
     0
  0
VISUALSTYLE
  5
16CC
102
{ACAD_REACTORS
330
16C4
102
}
330
16C4
100
AcDbVisualStyle
  2
3D Hidden
 70
     6
 71
     1
 72
     2
 73
     2
 90
        0
 40
-0.6
 41
-30.0
 62
     5
 63
     7
 74
     2
 91
        2
 64
     7
 65
   257
 75
     2
175
     1
 42
40.0
 92
        0
 66
   257
 43
1.0
 76
     1
 77
     6
 78
     2
 67
     7
 79
     3
170
     0
171
     0
290
     0
174
     0
 93
        1
 44
0.0
173
     0
291
     0
 45
0.0
1001
ACAD
1000
AcDbSavedByObjectVersion
1070
     0
  0
VISUALSTYLE
  5
16CB
102
{ACAD_REACTORS
330
16C4
102
}
330
16C4
100
AcDbVisualStyle
  2
3dWireframe
 70
     5
 71
     0
 72
     2
 73
     0
 90
        0
 40
-0.6
 41
-30.0
 62
     5
 63
     7
 74
     1
 91
        4
 64
     7
 65
   257
 75
     1
175
     1
 42
1.0
 92
        0
 66
   257
 43
1.0
 76
     1
 77
     6
 78
     2
 67
     7
 79
     5
170
     0
171
     0
290
     0
174
     0
 93
        1
 44
0.0
173
     0
291
     0
 45
0.0
1001
ACAD
1000
AcDbSavedByObjectVersion
1070
     0
  0
VISUALSTYLE
  5
16C9
102
{ACAD_REACTORS
330
16C4
102
}
330
16C4
100
AcDbVisualStyle
  2
Basic
 70
     7
 71
     1
 72
     0
 73
     1
 90
        0
 40
-0.6
 41
-30.0
 62
     5
 63
     7
 74
     0
 91
        4
 64
     7
 65
   257
 75
     1
175
     1
 42
1.0
 92
        8
 66
     7
 43
1.0
 76
     1
 77
     6
 78
     2
 67
     7
 79
     5
170
     0
171
     0
290
     0
174
     0
 93
        1
 44
0.0
173
     0
291
     1
 45
0.0
1001
ACAD
1000
AcDbSavedByObjectVersion
1070
     0
  0
VISUALSTYLE
  5
16D0
102
{ACAD_REACTORS
330
16C4
102
}
330
16C4
100
AcDbVisualStyle
  2
Brighten
 70
    12
 71
     2
 72
     2
 73
     0
 90
        0
 40
-0.6
 41
-30.0
 62
     5
 63
     7
 74
     1
 91
        4
 64
     7
 65
   257
 75
     1
175
     1
 42
1.0
 92
        8
 66
     7
 43
1.0
 76
     1
 77
     6
 78
     2
 67
     7
 79
     5
170
     0
171
     0
290
     0
174
     0
 93
        1
 44
50.0
173
     0
291
     1
 45
0.0
1001
ACAD
1000
AcDbSavedByObjectVersion
1070
     0
  0
VISUALSTYLE
  5
16D4
102
{ACAD_REACTORS
330
16C4
102
}
330
16C4
100
AcDbVisualStyle
  2
ColorChange
 70
    16
 71
     2
 72
     2
 73
     3
 90
        0
 40
-0.6
 41
-30.0
 62
     5
 63
     8
 74
     1
 91
        4
 64
     7
 65
   257
 75
     1
175
     1
 42
1.0
 92
        8
 66
     8
 43
1.0
 76
     1
 77
     6
 78
     2
 67
     7
 79
     5
170
     0
171
     0
290
     0
174
     0
 93
        1
 44
0.0
173
     0
291
     1
 45
0.0
1001
ACAD
1000
AcDbSavedByObjectVersion
1070
     0
  0
VISUALSTYLE
  5
16CD
102
{ACAD_REACTORS
330
16C4
102
}
330
16C4
100
AcDbVisualStyle
  2
Conceptual
 70
     9
 71
     3
 72
     2
 73
     0
 90
        0
 40
-0.6
 41
-30.0
 62
     5
 63
     7
 74
     2
 91
        2
 64
     7
 65
   257
 75
     1
175
     1
 42
40.0
 92
        8
 66
     7
 43
1.0
 76
     1
 77
     6
 78
     2
 67
     7
 79
     3
170
     0
171
     0
290
     0
174
     0
 93
        1
 44
0.0
173
     0
291
     0
 45
0.0
1001
ACAD
1000
AcDbSavedByObjectVersion
1070
     0
  0
VISUALSTYLE
  5
16CF
102
{ACAD_REACTORS
330
16C4
102
}
330
16C4
100
AcDbVisualStyle
  2
Dim
 70
    11
 71
     2
 72
     2
 73
     0
 90
        0
 40
-0.6
 41
-30.0
 62
     5
 63
     7
 74
     1
 91
        4
 64
     7
 65
   257
 75
     1
175
     1
 42
1.0
 92
        8
 66
     7
 43
1.0
 76
     1
 77
     6
 78
     2
 67
     7
 79
     5
170
     0
171
     0
290
     0
174
     0
 93
        1
 44
-50.0
173
     0
291
     1
 45
0.0
1001
ACAD
1000
AcDbSavedByObjectVersion
1070
     0
  0
VISUALSTYLE
  5
16D3
102
{ACAD_REACTORS
330
16C4
102
}
330
16C4
100
AcDbVisualStyle
  2
Facepattern
 70
    15
 71
     2
 72
     2
 73
     0
 90
        0
 40
-0.6
 41
-30.0
 62
     5
 63
     7
 74
     1
 91
        4
 64
     7
 65
   257
 75
     1
175
     1
 42
1.0
 92
        8
 66
     7
 43
1.0
 76
     1
 77
     6
 78
     2
 67
     7
 79
     5
170
     0
171
     0
290
     0
174
     0
 93
        1
 44
0.0
173
     0
291
     1
 45
0.0
1001
ACAD
1000
AcDbSavedByObjectVersion
1070
     0
  0
VISUALSTYLE
  5
16C5
102
{ACAD_REACTORS
330
16C4
102
}
330
16C4
100
AcDbVisualStyle
  2
Flat
 70
     0
 71
     2
 72
     1
 73
     1
 90
        2
 40
-0.6
 41
30.0
 62
     5
 63
     7
 74
     0
 91
        4
 64
     7
 65
   257
 75
     1
175
     1
 42
1.0
 92
        8
 66
     7
 43
1.0
 76
     1
 77
     6
 78
     2
 67
     7
 79
     5
170
     0
171
     0
290
     0
174
     0
 93
       13
 44
0.0
173
     0
291
     1
 45
0.0
1001
ACAD
1000
AcDbSavedByObjectVersion
1070
     0
  0
VISUALSTYLE
  5
16C6
102
{ACAD_REACTORS
330
16C4
102
}
330
16C4
100
AcDbVisualStyle
  2
FlatWithEdges
 70
     1
 71
     2
 72
     1
 73
     1
 90
        2
 40
-0.6
 41
30.0
 62
     5
 63
     7
 74
     1
 91
        4
 64
     7
 65
   257
 75
     1
175
     1
 42
1.0
 92
        0
 66
   257
 43
1.0
 76
     1
 77
     6
 78
     2
 67
     7
 79
     5
170
     0
171
     0
290
     0
174
     0
 93
       13
 44
0.0
173
     0
291
     1
 45
0.0
1001
ACAD
1000
AcDbSavedByObjectVersion
1070
     0
  0
VISUALSTYLE
  5
16C7
102
{ACAD_REACTORS
330
16C4
102
}
330
16C4
100
AcDbVisualStyle
  2
Gouraud
 70
     2
 71
     2
 72
     2
 73
     1
 90
        2
 40
-0.6
 41
30.0
 62
     5
 63
     7
 74
     0
 91
        4
 64
     7
 65
   257
 75
     1
175
     1
 42
1.0
 92
        0
 66
     7
 43
1.0
 76
     1
 77
     6
 78
     2
 67
     7
 79
     5
170
     0
171
     0
290
     0
174
     0
 93
       13
 44
0.0
173
     0
291
     1
 45
0.0
1001
ACAD
1000
AcDbSavedByObjectVersion
1070
     0
  0
VISUALSTYLE
  5
16C8
102
{ACAD_REACTORS
330
16C4
102
}
330
16C4
100
AcDbVisualStyle
  2
GouraudWithEdges
 70
     3
 71
     2
 72
     2
 73
     1
 90
        2
 40
-0.6
 41
30.0
 62
     5
 63
     7
 74
     1
 91
        4
 64
     7
 65
   257
 75
     1
175
     1
 42
1.0
 92
        0
 66
   257
 43
1.0
 76
     1
 77
     6
 78
     2
 67
     7
 79
     5
170
     0
171
     0
290
     0
174
     0
 93
       13
 44
0.0
173
     0
291
     1
 45
0.0
1001
ACAD
1000
AcDbSavedByObjectVersion
1070
     0
  0
VISUALSTYLE
  5
16D2
102
{ACAD_REACTORS
330
16C4
102
}
330
16C4
100
AcDbVisualStyle
  2
Linepattern
 70
    14
 71
     2
 72
     2
 73
     0
 90
        0
 40
-0.6
 41
-30.0
 62
     5
 63
     7
 74
     1
 91
        4
 64
     7
 65
   257
 75
     7
175
     7
 42
1.0
 92
        8
 66
     7
 43
1.0
 76
     1
 77
     6
 78
     2
 67
     7
 79
     5
170
     0
171
     0
290
     0
174
     0
 93
        1
 44
0.0
173
     0
291
     1
 45
0.0
1001
ACAD
1000
AcDbSavedByObjectVersion
1070
     0
  0
VISUALSTYLE
  5
16CE
102
{ACAD_REACTORS
330
16C4
102
}
330
16C4
100
AcDbVisualStyle
  2
Realistic
 70
     8
 71
     2
 72
     2
 73
     0
 90
        0
 40
-0.6
 41
-30.0
 62
     5
 63
     7
 74
     1
 91
        0
 64
     7
 65
   257
 75
     1
175
     1
 42
1.0
 92
        8
 66
     8
 43
1.0
 76
     1
 77
     6
 78
     2
 67
     7
 79
     5
170
     0
171
     0
290
     0
174
     0
 93
       13
 44
0.0
173
     0
291
     0
 45
0.0
1001
ACAD
1000
AcDbSavedByObjectVersion
1070
     0
  0
VISUALSTYLE
  5
16D1
102
{ACAD_REACTORS
330
16C4
102
}
330
16C4
100
AcDbVisualStyle
  2
Thicken
 70
    13
 71
     2
 72
     2
 73
     0
 90
        0
 40
-0.6
 41
-30.0
 62
     5
 63
     7
 74
     1
 91
        4
 64
     7
 65
   257
 75
     1
175
     1
 42
1.0
 92
       12
 66
     7
 43
1.0
 76
     1
 77
     6
 78
     2
 67
     7
 79
     5
170
     0
171
     0
290
     0
174
     0
 93
        1
 44
0.0
173
     0
291
     1
 45
0.0
1001
ACAD
1000
AcDbSavedByObjectVersion
1070
     0
  0
DICTIONARYVAR
  5
16ED
102
{ACAD_REACTORS
330
16B
102
}
330
16B
100
DictionaryVariables
280
     0
  1
STANDARD
  0
DICTIONARYVAR
  5
16D
102
{ACAD_REACTORS
330
16B
102
}
330
16B
100
DictionaryVariables
280
     0
  1
1
  0
DICTIONARYVAR
  5
16C
102
{ACAD_REACTORS
330
16B
102
}
330
16B
100
DictionaryVariables
280
     0
  1
1
  0
DICTIONARYVAR
  5
3C72
102
{ACAD_REACTORS
330
16B
102
}
330
16B
100
DictionaryVariables
280
     0
  1
0
  0
DICTIONARYVAR
  5
16E
102
{ACAD_REACTORS
330
16B
102
}
330
16B
100
DictionaryVariables
280
     0
  1

  0
DICTIONARYVAR
  5
7B5
102
{ACAD_REACTORS
330
16B
102
}
330
16B
100
DictionaryVariables
280
     0
  1
96
  0
XRECORD
  5
3C71
102
{ACAD_REACTORS
330
16EA
102
}
330
16EA
100
AcDbXrecord
280
     1
1000
ADE02C001
1070
     1
1070
     0
1002
{
1002
}
1002
{
1002
}
1002
{
1002
}
1000

  0
XRECORD
  5
6DC
102
{ACAD_REACTORS
330
6DB
102
}
330
6DB
100
AcDbXrecord
280
     1
  0
DMSTYLIZEDENTITIESTABLE
  5
16E6
102
{ACAD_REACTORS
330
16D9
102
}
330
16D9
100
AcMapDMStylizedEntitiesTable
 70
     1
  0
DICTIONARY
  5
16E7
102
{ACAD_REACTORS
330
16D9
102
}
330
16D9
100
AcDbDictionary
280
     1
281
     1
  0
ACDBDATATABLE
  5
16DD
102
{ACAD_REACTORS
330
16D9
102
}
330
16D9
100
ACDBDATATABLE
 70
     2
 90
        4
 91
       15
  1

 92
        3
  2
OriginalClassName
  3
AcMapDMDefaultStyle
  3
AcMapDMEntityStyle
  3
AcMapDMRasterStyle
  3
AcMapDMSEAnnotationStyle
  3
AcMapDMSEHatchStyle
  3
AcMapDMSETextStyle
  3
AcMapDMThematicStyle
  3
AcMapDMBaseElement
  3
AcMapDMAttachedDwgsQueryElement
  3
AcMapDMFeatureElement
  3
AcMapDMLayerElement
  3
AcMapDMCurrentDwgQueryElement
  3
AcMapDMRasterElement
  3
AcMapDMTopoElement
  3
AcMapDMTopoQueryElement
 92
        3
  2
ProxyDisplayName
  3
Default
  3
Entity
  3
Raster
  3
Annotation
  3
Hatch
  3
Text
  3
Thematic
  3
Map Base
  3
Ade Query
  3
Feature Class
  3
Layer
  3
Ade Project Query
  3
Raster
  3
Topology
  3
Topology Query
 92
        1
  2
CustomObjectType
 93
        2
 93
        2
 93
        2
 93
        2
 93
        2
 93
        2
 93
        2
 93
        1
 93
        1
 93
        1
 93
        1
 93
        1
 93
        1
 93
        1
 93
        1
 92
        1
  2
StyleCoExistanceType
 93
        1
 93
        1
 93
        1
 93
        1
 93
        1
 93
        1
 93
        2
 93
        0
 93
        0
 93
        0
 93
        0
 93
        0
 93
        0
 93
        0
 93
        0
  0
DMMAPMANAGER
  5
16DA
102
{ACAD_REACTORS
330
16D9
102
}
330
16D9
100
AcDbDictionary
281
     1
  3
DisplayMap1
350
16DE
100
AcDbDictionaryWithDefault
340
16DE
100
AcMapDMMapManager
 70
     1
340
16DE
  0
DMSTYLELIBRARY
  5
16DB
102
{ACAD_REACTORS
330
16D9
102
}
330
16D9
100
AcMapDMStyleLibrary
 70
     1
 70
     1
360
16DC
  0
DICTIONARY
  5
3C76
330
14D
100
AcDbDictionary
280
     1
281
     1
  3
ACAD_XREC_ROUNDTRIP
360
3C77
  0
DICTIONARY
  5
3C74
330
146
100
AcDbDictionary
280
     1
281
     1
  3
ACAD_XREC_ROUNDTRIP
360
3C75
  0
DICTIONARY
  5
3C7E
330
16C2
100
AcDbDictionary
280
     1
281
     1
  3
ACAD_XREC_ROUNDTRIP
360
3C7F
  0
DICTIONARY
  5
3C7C
330
16C1
100
AcDbDictionary
280
     1
281
     1
  3
ACAD_XREC_ROUNDTRIP
360
3C7D
  0
DICTIONARY
  5
3C80
330
16C3
100
AcDbDictionary
280
     1
281
     1
  3
ACAD_XREC_ROUNDTRIP
360
3C81
  0
DICTIONARY
  5
3C84
330
16DF
100
AcDbDictionary
280
     1
281
     1
  3
ACAD_XREC_ROUNDTRIP
360
3C85
  0
DICTIONARY
  5
3C82
330
16D6
100
AcDbDictionary
280
     1
281
     1
  3
ACAD_XREC_ROUNDTRIP
360
3C83
  0
DMMAP
  5
16DE
102
{ACAD_REACTORS
330
16DA
330
16E0
102
}
330
16DA
100
AcMapDMMap
 70
     1
  1
Default
 70
     1
330
0
100
AcMapDMMap
 70
     1
 90
        1
360
16E0
 90
        1
 40
1.797693134862314E+99
 70
     1
100
AcMapDMMap
 70
     2
 70
     0
 40
1.797693134862314E+99
290
     1
290
     1
 40
1.0
 40
3.0
  1
Legend
 90
        1
 40
1.797693134862314E+99
  1

 70
     0
 40
1.0
 70
     1
 90
        0
 90
        1
360
16E1
  0
DMSTYLECATEGORY
  5
16DC
102
{ACAD_REACTORS
330
16DB
102
}
330
0
100
AcMapDMStyleCategory
 70
     1
  1
Display Styles
 70
     0
  0
XRECORD
  5
3C77
102
{ACAD_REACTORS
330
3C76
102
}
330
3C76
100
AcDbXrecord
280
     1
102
SHADEPLOT
 70
     0
102
SHADEPLOTRESLEVEL
 70
     2
102
SHADEPLOTCUSTOMDPI
 70
   300
  0
XRECORD
  5
3C75
102
{ACAD_REACTORS
330
3C74
102
}
330
3C74
100
AcDbXrecord
280
     1
102
SHADEPLOT
 70
     0
102
SHADEPLOTRESLEVEL
 70
     2
102
SHADEPLOTCUSTOMDPI
 70
   300
  0
XRECORD
  5
3C7F
102
{ACAD_REACTORS
330
3C7E
102
}
330
3C7E
100
AcDbXrecord
280
     1
102
MATERIAL
148
0.0
149
0.0
149
0.0
 93
        0
 94
       63
282
     0
 72
     1
 77
     1
171
     1
175
     1
179
     1
273
     0
  0
XRECORD
  5
3C7D
102
{ACAD_REACTORS
330
3C7C
102
}
330
3C7C
100
AcDbXrecord
280
     1
102
MATERIAL
148
0.0
149
0.0
149
0.0
 93
        0
 94
       63
282
     0
 72
     1
 77
     1
171
     1
175
     1
179
     1
273
     0
  0
XRECORD
  5
3C81
102
{ACAD_REACTORS
330
3C80
102
}
330
3C80
100
AcDbXrecord
280
     1
102
MATERIAL
148
0.0
149
0.0
149
0.0
 93
        0
 94
       63
282
     0
 72
     1
 77
     1
171
     1
175
     1
179
     1
273
     0
  0
XRECORD
  5
3C85
102
{ACAD_REACTORS
330
3C84
102
}
330
3C84
100
AcDbXrecord
280
     1
102
ACAD_ROUNDTRIP_PRE2007_TABLESTYLE
 90
      512
 91
        0
  1

 92
      512
 93
        0
  2

 94
      512
 95
        0
  3

  0
XRECORD
  5
3C83
102
{ACAD_REACTORS
330
3C82
102
}
330
3C82
100
AcDbXrecord
280
     1
102
ACAD_ROUNDTRIP_PRE2007_TABLESTYLE
 90
      512
 91
        0
  1

 92
      512
 93
        0
  2

 94
      512
 95
        0
  3

  0
DMBASEELEMENT
  5
16E0
102
{ACAD_XDICTIONARY
360
16E4
102
}
102
{ACAD_REACTORS
330
16DE
102
}
330
16DE
100
AcMapDMBaseElement
 70
     1
  1
Map Base
 70
     1
330
16DE
100
AcMapDMBaseElement
 70
     1
  1

 70
     2
  1

 70
     1
 40
1.797693134862314E+99
 70
     1
 70
     1
 70
     1
 70
     1
360
16E3
100
AcMapDMBaseElement
 70
     1
  0
DMDEFAULTSTYLE
  5
16E1
102
{ACAD_REACTORS
330
16DE
102
}
330
16DE
100
AcMapDMDefaultStyle
 70
     1
 90
        1
  1
Default
100
AcMapDMDefaultStyle
 70
     1
280
   100
 90
     0
1001
AcMapDMDisplayStyleRegapp
1070
     2
1071
        1
1000
Default
1000

  0
DICTIONARY
  5
16E4
330
16E0
100
AcDbDictionary
280
     1
281
     1
  3
AcMapDMSurrogateStyleSets
360
16E5
  0
DMSTYLEREFERENCE
  5
16E3
330
16E0
100
AcMapDMStyleReference
 70
     1
 70
     0
340
16E1
330
16DE
  0
DMSURROGATESTYLESETS
  5
16E5
102
{ACAD_REACTORS
330
16E4
102
}
330
16E4
100
AcMapDMSurrogateStyleSets
 70
     1
  1
Map Base
 70
     1
 40
1.797693134862314E+99
 70
     1
 70
     1
 70
     1
 70
     1
330
16E3
 70
     0
  0
ENDSEC
  0
EOF
