  0
SECTION
  2
HEADER
  9
$ACADVER
  1
AC1015
  9
$ACADMAINTVER
 70
    20
  9
$DWGCODEPAGE
  3
ANSI_1250
  9
$INSBASE
 10
0.0
 20
0.0
 30
0.0
  9
$EXTMIN
 10
0.0
 20
0.0
 30
0.0
  9
$EXTMAX
 10
1412.4
 20
418.9999999999997
 30
0.0
  9
$LIMMIN
 10
0.0
 20
0.0
  9
$LIMMAX
 10
0.0
 20
0.0
  9
$ORTHOMODE
 70
     1
  9
$REGENMODE
 70
     1
  9
$FILLMODE
 70
     1
  9
$QTEXTMODE
 70
     0
  9
$MIRRTEXT
 70
     1
  9
$LTSCALE
 40
1.0
  9
$ATTMODE
 70
     1
  9
$TEXTSIZE
 40
0.2
  9
$TRACEWID
 40
0.05
  9
$TEXTSTYLE
  7
STANDARD
  9
$CLAYER
  8
0
  9
$CELTYPE
  6
BYLAYER
  9
$CECOLOR
 62
   256
  9
$CELTSCALE
 40
1.0
  9
$DISPSILH
 70
     0
  9
$DIMSCALE
 40
1.0
  9
$DIMASZ
 40
0.18
  9
$DIMEXO
 40
0.0625
  9
$DIMDLI
 40
0.38
  9
$DIMRND
 40
0.0
  9
$DIMDLE
 40
0.0
  9
$DIMEXE
 40
0.18
  9
$DIMTP
 40
0.0
  9
$DIMTM
 40
0.0
  9
$DIMTXT
 40
10.0
  9
$DIMCEN
 40
0.09
  9
$DIMTSZ
 40
0.0
  9
$DIMTOL
 70
     0
  9
$DIMLIM
 70
     0
  9
$DIMTIH
 70
     1
  9
$DIMTOH
 70
     1
  9
$DIMSE1
 70
     0
  9
$DIMSE2
 70
     0
  9
$DIMTAD
 70
     0
  9
$DIMZIN
 70
     0
  9
$DIMBLK
  1

  9
$DIMASO
 70
     1
  9
$DIMSHO
 70
     1
  9
$DIMPOST
  1

  9
$DIMAPOST
  1

  9
$DIMALT
 70
     0
  9
$DIMALTD
 70
     2
  9
$DIMALTF
 40
25.4
  9
$DIMLFAC
 40
1.0
  9
$DIMTOFL
 70
     0
  9
$DIMTVP
 40
0.0
  9
$DIMTIX
 70
     0
  9
$DIMSOXD
 70
     0
  9
$DIMSAH
 70
     0
  9
$DIMBLK1
  1

  9
$DIMBLK2
  1

  9
$DIMSTYLE
  2
STANDARD
  9
$DIMCLRD
 70
     0
  9
$DIMCLRE
 70
     0
  9
$DIMCLRT
 70
     0
  9
$DIMTFAC
 40
1.0
  9
$DIMGAP
 40
0.09
  9
$DIMJUST
 70
     0
  9
$DIMSD1
 70
     0
  9
$DIMSD2
 70
     0
  9
$DIMTOLJ
 70
     1
  9
$DIMTZIN
 70
     0
  9
$DIMALTZ
 70
     0
  9
$DIMALTTZ
 70
     0
  9
$DIMUPT
 70
     0
  9
$DIMDEC
 70
     4
  9
$DIMTDEC
 70
     4
  9
$DIMALTU
 70
     2
  9
$DIMALTTD
 70
     2
  9
$DIMTXSTY
  7
STANDARD
  9
$DIMAUNIT
 70
     0
  9
$DIMADEC
 70
     5
  9
$DIMALTRND
 40
0.0
  9
$DIMAZIN
 70
     0
  9
$DIMDSEP
 70
    46
  9
$DIMATFIT
 70
     3
  9
$DIMFRAC
 70
     0
  9
$DIMLDRBLK
  1

  9
$DIMLUNIT
 70
     2
  9
$DIMLWD
 70
    -2
  9
$DIMLWE
 70
    -2
  9
$DIMTMOVE
 70
     0
  9
$LUNITS
 70
     2
  9
$LUPREC
 70
     4
  9
$SKETCHINC
 40
0.1
  9
$FILLETRAD
 40
0.0
  9
$AUNITS
 70
     0
  9
$AUPREC
 70
     0
  9
$MENU
  1
acad
  9
$ELEVATION
 40
0.0
  9
$PELEVATION
 40
0.0
  9
$THICKNESS
 40
0.0
  9
$LIMCHECK
 70
     0
  9
$CHAMFERA
 40
0.0
  9
$CHAMFERB
 40
0.0
  9
$CHAMFERC
 40
0.0
  9
$CHAMFERD
 40
0.0
  9
$SKPOLY
 70
     0
  9
$TDCREATE
 40
2311946.475710706
  9
$TDUCREATE
 40
2311946.434044039
  9
$TDUPDATE
 40
2454143.697203415
  9
$TDUUPDATE
 40
2454143.655536748
  9
$TDINDWG
 40
1.7584632639
  9
$TDUSRTIMER
 40
1.7584631481
  9
$USRTIMER
 70
     1
  9
$ANGBASE
 50
0.0
  9
$ANGDIR
 70
     0
  9
$PDMODE
 70
     0
  9
$PDSIZE
 40
0.0
  9
$PLINEWID
 40
0.5
  9
$SPLFRAME
 70
     0
  9
$SPLINETYPE
 70
     6
  9
$SPLINESEGS
 70
     8
  9
$HANDSEED
  5
5364
  9
$SURFTAB1
 70
     6
  9
$SURFTAB2
 70
     6
  9
$SURFTYPE
 70
     6
  9
$SURFU
 70
     6
  9
$SURFV
 70
     6
  9
$UCSBASE
  2

  9
$UCSNAME
  2

  9
$UCSORG
 10
0.0
 20
0.0
 30
0.0
  9
$UCSXDIR
 10
1.0
 20
0.0
 30
0.0
  9
$UCSYDIR
 10
0.0
 20
1.0
 30
0.0
  9
$UCSORTHOREF
  2

  9
$UCSORTHOVIEW
 70
     1
  9
$UCSORGTOP
 10
0.0
 20
0.0
 30
0.0
  9
$UCSORGBOTTOM
 10
0.0
 20
0.0
 30
0.0
  9
$UCSORGLEFT
 10
0.0
 20
0.0
 30
0.0
  9
$UCSORGRIGHT
 10
0.0
 20
0.0
 30
0.0
  9
$UCSORGFRONT
 10
0.0
 20
0.0
 30
0.0
  9
$UCSORGBACK
 10
0.0
 20
0.0
 30
0.0
  9
$PUCSBASE
  2

  9
$PUCSNAME
  2

  9
$PUCSORG
 10
0.0
 20
0.0
 30
0.0
  9
$PUCSXDIR
 10
1.0
 20
0.0
 30
0.0
  9
$PUCSYDIR
 10
0.0
 20
1.0
 30
0.0
  9
$PUCSORTHOREF
  2

  9
$PUCSORTHOVIEW
 70
     0
  9
$PUCSORGTOP
 10
0.0
 20
0.0
 30
0.0
  9
$PUCSORGBOTTOM
 10
0.0
 20
0.0
 30
0.0
  9
$PUCSORGLEFT
 10
0.0
 20
0.0
 30
0.0
  9
$PUCSORGRIGHT
 10
0.0
 20
0.0
 30
0.0
  9
$PUCSORGFRONT
 10
0.0
 20
0.0
 30
0.0
  9
$PUCSORGBACK
 10
0.0
 20
0.0
 30
0.0
  9
$USERI1
 70
     0
  9
$USERI2
 70
     0
  9
$USERI3
 70
     0
  9
$USERI4
 70
     0
  9
$USERI5
 70
     0
  9
$USERR1
 40
0.0
  9
$USERR2
 40
0.0
  9
$USERR3
 40
0.0
  9
$USERR4
 40
0.0
  9
$USERR5
 40
0.0
  9
$WORLDVIEW
 70
     1
  9
$SHADEDGE
 70
     3
  9
$SHADEDIF
 70
    70
  9
$TILEMODE
 70
     1
  9
$MAXACTVP
 70
    16
  9
$PINSBASE
 10
0.0
 20
0.0
 30
0.0
  9
$PLIMCHECK
 70
     0
  9
$PEXTMIN
 10
114.7487361907958
 20
78.54526405334468
 30
0.0
  9
$PEXTMAX
 10
1032.738625717163
 20
706.9073764801025
 30
0.0
  9
$PLIMMIN
 10
-20.1082763671875
 20
-27.22033309936524
  9
$PLIMMAX
 10
1167.765014648437
 20
812.6729774475098
  9
$UNITMODE
 70
     0
  9
$VISRETAIN
 70
     0
  9
$PLINEGEN
 70
     1
  9
$PSLTSCALE
 70
     0
  9
$TREEDEPTH
 70
  3020
  9
$CMLSTYLE
  2
STANDARD
  9
$CMLJUST
 70
     0
  9
$CMLSCALE
 40
1.0
  9
$PROXYGRAPHICS
 70
     0
  9
$MEASUREMENT
 70
     1
  9
$CELWEIGHT
370
    -1
  9
$ENDCAPS
280
     0
  9
$JOINSTYLE
280
     0
  9
$LWDISPLAY
290
     0
  9
$INSUNITS
 70
     0
  9
$HYPERLINKBASE
  1

  9
$STYLESHEET
  1
monochrome.ctb
  9
$XEDIT
290
     1
  9
$CEPSNTYPE
380
     0
  9
$PSTYLEMODE
290
     1
  9
$FINGERPRINTGUID
  2
{44CFACF6-FF42-4479-A730-8E27374F1164}
  9
$VERSIONGUID
  2
{5973294B-6851-4177-AE7E-CD6A7AD1CD60}
  9
$EXTNAMES
290
     1
  9
$PSVPSCALE
 40
0.0
  9
$OLESTARTUP
290
     0
  0
ENDSEC
  0
SECTION
  2
CLASSES
  0
CLASS
  1
IMAGE
  2
AcDbRasterImage
  3
ISM
 90
    34943
280
     0
281
     1
  0
CLASS
  1
DICTIONARYVAR
  2
AcDbDictionaryVar
  3
ObjectDBX Classes
 90
        0
280
     0
281
     0
  0
CLASS
  1
RASTERVARIABLES
  2
AcDbRasterVariables
  3
ISM
 90
    32768
280
     0
281
     0
  0
CLASS
  1
IMAGEDEF
  2
AcDbRasterImageDef
  3
ISM
 90
    32768
280
     0
281
     0
  0
CLASS
  1
IMAGEDEF_REACTOR
  2
AcDbRasterImageDefReactor
  3
ISM
 90
    32769
280
     0
281
     0
  0
CLASS
  1
IDBUFFER
  2
AcDbIdBuffer
  3
ObjectDBX Classes
 90
    32768
280
     0
281
     0
  0
CLASS
  1
SPATIAL_FILTER
  2
AcDbSpatialFilter
  3
ObjectDBX Classes
 90
    32768
280
     0
281
     0
  0
CLASS
  1
SORTENTSTABLE
  2
AcDbSortentsTable
  3
ObjectDBX Classes
 90
        0
280
     0
281
     0
  0
CLASS
  1
LAYER_INDEX
  2
AcDbLayerIndex
  3
ObjectDBX Classes
 90
    32768
280
     0
281
     0
  0
CLASS
  1
SPATIAL_INDEX
  2
AcDbSpatialIndex
  3
ObjectDBX Classes
 90
    32768
280
     0
281
     0
  0
CLASS
  1
OBJECT_PTR
  2
CAseDLPNTableRecord
  3
ASE-LPNTableRecord
 90
    32769
280
     0
281
     0
  0
CLASS
  1
LAYOUT
  2
AcDbLayout
  3
ObjectDBX Classes
 90
        0
280
     0
281
     0
  0
CLASS
  1
PLOTSETTINGS
  2
AcDbPlotSettings
  3
ObjectDBX Classes
 90
    32768
280
     0
281
     0
  0
CLASS
  1
ACDBDICTIONARYWDFLT
  2
AcDbDictionaryWithDefault
  3
ObjectDBX Classes
 90
        0
280
     0
281
     0
  0
CLASS
  1
ACDBPLACEHOLDER
  2
AcDbPlaceHolder
  3
ObjectDBX Classes
 90
        0
280
     0
281
     0
  0
CLASS
  1
VBA_PROJECT
  2
AcDbVbaProject
  3
acad
 90
    32768
280
     0
281
     0
  0
CLASS
  1
WIPEOUT
  2
AcDbWipeout
  3
"WipeOut|Product Desc: Object Enabler for WipeOut entity                        |Company: Autodesk, Inc.                        |WEB Address: www.autodesk.com"
 90
    34943
280
     0
281
     1
  0
CLASS
  1
WIPEOUTVARIABLES
  2
AcDbWipeoutVariables
  3
"WipeOut|Product Desc:     WipeOut Dbx Application|Company:          Autodesk, Inc.|WEB Address:      www.autodesk.com"
 90
    32768
280
     0
281
     0
  0
CLASS
  1
RTEXT
  2
RText
  3
RText|AutoCAD Express Tool|expresstools@autodesk.com
 90
    35839
280
     0
281
     1
  0
CLASS
  1
ARCALIGNEDTEXT
  2
AcDbArcAlignedText
  3
ATEXT|AutoCAD Express Tool|expresstools@autodesk.com
 90
    32768
280
     0
281
     1
  0
CLASS
  1
MATERIAL
  2
AcDbMaterial
  3
ObjectDBX Classes
 90
     1024
280
     0
281
     0
  0
CLASS
  1
VISUALSTYLE
  2
AcDbVisualStyle
  3
ObjectDBX Classes
 90
     4095
280
     0
281
     0
  0
CLASS
  1
TABLESTYLE
  2
AcDbTableStyle
  3
ObjectDBX Classes
 90
     4095
280
     0
281
     0
  0
CLASS
  1
DMMAPMANAGER
  2
AcMapDMMapManager
  3
AcMapDisplayManagement
 90
     1024
280
     0
281
     0
  0
CLASS
  1
DMSTYLELIBRARY
  2
AcMapDMStyleLibrary
  3
AcMapDisplayManagement
 90
     1024
280
     0
281
     0
  0
CLASS
  1
DMSTYLECATEGORY
  2
AcMapDMStyleCategory
  3
AcMapDisplayManagement
 90
     1024
280
     0
281
     0
  0
CLASS
  1
ACDBDATATABLE
  2
AcDbDataTable
  3
AcMapAnnotObj|Product Desc:     AutoCAD MAP DBX App for Annotation Entity|Company:          Autodesk,Inc.|WEB Address:      www.autodesk.com
 90
        0
280
     0
281
     0
  0
CLASS
  1
DMMAP
  2
AcMapDMMap
  3
AcMapDisplayManagement
 90
     1024
280
     0
281
     0
  0
CLASS
  1
DMBASEELEMENT
  2
AcMapDMBaseElement
  3
AcMapDisplayManagement
 90
     1024
280
     0
281
     0
  0
CLASS
  1
DMDEFAULTSTYLE
  2
AcMapDMDefaultStyle
  3
AcMapDisplayManagement
 90
     1024
280
     0
281
     0
  0
CLASS
  1
DMSTYLEREFERENCE
  2
AcMapDMStyleReference
  3
AcMapDisplayManagement
 90
     1024
280
     0
281
     0
  0
CLASS
  1
DMSURROGATESTYLESETS
  2
AcMapDMSurrogateStyleSets
  3
AcMapDisplayManagement
 90
     1153
280
     0
281
     0
  0
CLASS
  1
DMSTYLIZEDENTITIESTABLE
  2
AcMapDMStylizedEntitiesTable
  3
AcMapDisplayManagement
 90
     1024
280
     0
281
     0
  0
CLASS
  1
MAPGWSUNDOOBJECT
  2
AcMapGWSUndoRecorder
  3
AcMapFeatureSourceManager
 90
     1025
280
     0
281
     0
  0
ENDSEC
  0
SECTION
  2
TABLES
  0
TABLE
  2
VPORT
  5
157
330
0
100
AcDbSymbolTable
 70
     1
  0
VPORT
  5
16BF
330
157
100
AcDbSymbolTableRecord
100
AcDbViewportTableRecord
  2
*Active
 70
     0
 10
0.0
 20
0.0
 11
1.0
 21
1.0
 12
706.2
 22
209.4999999999999
 13
0.0
 23
0.0
 14
1.0
 24
1.0
 15
0.0
 25
0.0
 16
0.0
 26
0.0
 36
1.0
 17
0.0
 27
0.0
 37
0.0
 40
913.3341109133761
 41
1.55400254129606
 42
50.0
 43
0.0
 44
0.0
 50
0.0
 51
0.0
 71
     0
 72
   100
 73
     1
 74
     1
 75
     0
 76
     0
 77
     0
 78
     0
281
     0
 65
     1
110
0.0
120
0.0
130
0.0
111
1.0
121
0.0
131
0.0
112
0.0
122
1.0
132
0.0
 79
     0
146
0.0
  0
ENDTAB
  0
TABLE
  2
LTYPE
  5
152
330
0
100
AcDbSymbolTable
 70
     1
  0
LTYPE
  5
153
330
152
100
AcDbSymbolTableRecord
100
AcDbLinetypeTableRecord
  2
BYBLOCK
 70
     0
  3

 72
    65
 73
     0
 40
0.0
  0
LTYPE
  5
154
330
152
100
AcDbSymbolTableRecord
100
AcDbLinetypeTableRecord
  2
BYLAYER
 70
     0
  3

 72
    65
 73
     0
 40
0.0
  0
LTYPE
  5
A
330
152
100
AcDbSymbolTableRecord
100
AcDbLinetypeTableRecord
  2
CONTINUOUS
 70
     0
  3
Solid line
 72
    65
 73
     0
 40
0.0
  0
ENDTAB
  0
TABLE
  2
LAYER
  5
14E
102
{ACAD_XDICTIONARY
360
18FA
102
}
330
0
100
AcDbSymbolTable
 70
     5
  0
LAYER
  5
6
330
14E
100
AcDbSymbolTableRecord
100
AcDbLayerTableRecord
  2
0
 70
     0
 62
     7
  6
CONTINUOUS
370
    -3
390
7
  0
LAYER
  5
C
330
14E
100
AcDbSymbolTableRecord
100
AcDbLayerTableRecord
  2
mechanical
 70
     0
 62
     6
  6
CONTINUOUS
370
    -3
390
7
  0
LAYER
  5
174
330
14E
100
AcDbSymbolTableRecord
100
AcDbLayerTableRecord
  2
copper
 70
     0
 62
     1
  6
CONTINUOUS
370
    -3
390
7
  0
LAYER
  5
41F
330
14E
100
AcDbSymbolTableRecord
100
AcDbLayerTableRecord
  2
Defpoints
 70
     0
 62
     7
  6
CONTINUOUS
290
     0
370
    -3
390
7
  0
LAYER
  5
794
330
14E
100
AcDbSymbolTableRecord
100
AcDbLayerTableRecord
  2
kapton
 70
     0
 62
     2
  6
CONTINUOUS
370
    -3
390
7
  0
ENDTAB
  0
TABLE
  2
STYLE
  5
14F
330
0
100
AcDbSymbolTable
 70
     1
  0
STYLE
  5
150
330
14F
100
AcDbSymbolTableRecord
100
AcDbTextStyleTableRecord
  2
STANDARD
 70
     0
 40
0.0
 41
1.0
 50
0.0
 71
     0
 42
0.2
  3
txt
  4

  0
ENDTAB
  0
TABLE
  2
VIEW
  5
155
330
0
100
AcDbSymbolTable
 70
     0
  0
ENDTAB
  0
TABLE
  2
UCS
  5
156
330
0
100
AcDbSymbolTable
 70
     0
  0
ENDTAB
  0
TABLE
  2
APPID
  5
159
330
0
100
AcDbSymbolTable
 70
     8
  0
APPID
  5
15A
330
159
100
AcDbSymbolTableRecord
100
AcDbRegAppTableRecord
  2
ACAD
 70
     0
  0
APPID
  5
189
330
159
100
AcDbSymbolTableRecord
100
AcDbRegAppTableRecord
  2
DCO15
 70
     0
  0
APPID
  5
16E2
330
159
100
AcDbSymbolTableRecord
100
AcDbRegAppTableRecord
  2
AcMapDMDisplayStyleRegapp
 70
     0
  0
APPID
  5
16E9
330
159
100
AcDbSymbolTableRecord
100
AcDbRegAppTableRecord
  2
ADE
 70
     0
  0
APPID
  5
16EC
330
159
100
AcDbSymbolTableRecord
100
AcDbRegAppTableRecord
  2
MapGWS
 70
     0
  0
APPID
  5
1738
330
159
100
AcDbSymbolTableRecord
100
AcDbRegAppTableRecord
  2
ACAD_PSEXT
 70
     0
  0
APPID
  5
18F8
330
159
100
AcDbSymbolTableRecord
100
AcDbRegAppTableRecord
  2
AcAecLayerStandard
 70
     0
  0
APPID
  5
3569
330
159
100
AcDbSymbolTableRecord
100
AcDbRegAppTableRecord
  2
ACAD_EXEMPT_FROM_CAD_STANDARDS
 70
     0
  0
ENDTAB
  0
TABLE
  2
DIMSTYLE
  5
15B
330
0
100
AcDbSymbolTable
 70
     1
100
AcDbDimStyleTable
 71
     1
340
15C
  0
DIMSTYLE
105
15C
330
15B
100
AcDbSymbolTableRecord
100
AcDbDimStyleTableRecord
  2
STANDARD
 70
     0
140
10.0
179
     5
340
150
  0
ENDTAB
  0
TABLE
  2
BLOCK_RECORD
  5
1
330
0
100
AcDbSymbolTable
 70
     2
  0
BLOCK_RECORD
  5
2
102
{ACAD_XDICTIONARY
360
3
102
}
330
1
100
AcDbSymbolTableRecord
100
AcDbBlockTableRecord
  2
*MODEL_SPACE
340
146
  0
BLOCK_RECORD
  5
148
102
{ACAD_XDICTIONARY
360
149
102
}
330
1
100
AcDbSymbolTableRecord
100
AcDbBlockTableRecord
  2
*PAPER_SPACE
340
14D
  0
ENDTAB
  0
ENDSEC
  0
SECTION
  2
BLOCKS
  0
BLOCK
  5
5
330
2
100
AcDbEntity
  8
0
100
AcDbBlockBegin
  2
*MODEL_SPACE
 70
     0
 10
0.0
 20
0.0
 30
0.0
  3
*MODEL_SPACE
  1

  0
ENDBLK
  5
145
330
2
100
AcDbEntity
  8
0
100
AcDbBlockEnd
  0
BLOCK
  5
14B
330
148
100
AcDbEntity
 67
     1
  8
0
100
AcDbBlockBegin
  2
*PAPER_SPACE
 70
     0
 10
0.0
 20
0.0
 30
0.0
  3
*PAPER_SPACE
  1

  0
ENDBLK
  5
14C
330
148
100
AcDbEntity
 67
     1
  8
0
100
AcDbBlockEnd
  0
ENDSEC
  0
SECTION
  2
ENTITIES
  0
LWPOLYLINE
  5
46A8
330
2
100
AcDbEntity
  8
mechanical
100
AcDbPolyline
 90
        2
 70
   128
 43
0.25
 10
1402.4
 20
132.6004061737307
 42
0.3970117693568934
 10
10.0
 20
132.6004061737309
  0
LWPOLYLINE
  5
46A9
330
2
100
AcDbEntity
  8
mechanical
100
AcDbPolyline
 90
        2
 70
   128
 43
0.25
 10
1402.4
 20
132.6004061737307
 10
1279.799593826269
 20
10.00000000000023
  0
LWPOLYLINE
  5
46AA
330
2
100
AcDbEntity
  8
mechanical
100
AcDbPolyline
 90
        2
 70
   128
 43
0.25
 10
1271.390233461265
 20
10.00000000000023
 42
0.3892494720807613
 10
141.0097665387344
 20
10.00000000000011
  0
LWPOLYLINE
  5
46AB
330
2
100
AcDbEntity
  8
mechanical
100
AcDbPolyline
 90
        2
 70
   128
 43
0.25
 10
1271.390233461265
 20
10.00000000000011
 10
1279.799593826269
 20
10.00000000000011
  0
LWPOLYLINE
  5
46AC
330
2
100
AcDbEntity
  8
mechanical
100
AcDbPolyline
 90
        2
 70
   128
 43
0.25
 10
9.999999999999772
 20
132.6004061737307
 10
132.6004061737304
 20
10.00000000000023
  0
LWPOLYLINE
  5
46AD
330
2
100
AcDbEntity
  8
mechanical
100
AcDbPolyline
 90
        2
 70
   128
 43
0.25
 10
132.6004061737304
 20
10.00000000000011
 10
141.0097665387343
 20
10.00000000000011
  0
LWPOLYLINE
  5
47D1
330
2
100
AcDbEntity
  8
copper
100
AcDbPolyline
 90
        2
 70
   128
 43
0.5
 10
705.6999999999998
 20
242.585595822893
 10
705.6999999999998
 20
315.5770776229182
  0
LWPOLYLINE
  5
47D2
330
2
100
AcDbEntity
  8
copper
100
AcDbPolyline
 90
        2
 70
   128
 43
0.5
 10
704.6999999999997
 20
246.549135217437
 10
704.6999999999997
 20
315.5770776229182
  0
LWPOLYLINE
  5
4A61
330
2
100
AcDbEntity
  8
copper
100
AcDbPolyline
 90
        2
 70
   128
 43
0.5
 10
699.6576822916665
 20
321.5769283886925
 42
0.0744219117076667
 10
428.3622692192127
 20
279.0129690318562
  0
LWPOLYLINE
  5
4A62
330
2
100
AcDbEntity
  8
copper
100
AcDbPolyline
 90
        2
 70
   128
 43
0.5
 10
699.6647352430553
 20
320.5769532610635
 42
0.0744219117076667
 10
428.66179243049
 20
278.0588800182384
  0
LWPOLYLINE
  5
4A63
330
2
100
AcDbEntity
  8
copper
100
AcDbPolyline
 90
        2
 70
   128
 43
0.5
 10
705.6999999999998
 20
315.5770776229182
 42
0.416280853149802
 10
699.6576822916664
 20
321.5769283886924
  0
LWPOLYLINE
  5
4A64
330
2
100
AcDbEntity
  8
copper
100
AcDbPolyline
 90
        2
 70
   128
 43
0.5
 10
704.6999999999997
 20
315.5770776229182
 42
0.416280853149802
 10
699.6647352430553
 20
320.5769532610634
  0
LWPOLYLINE
  5
4A65
330
2
100
AcDbEntity
  8
copper
100
AcDbPolyline
 90
        2
 70
   128
 43
0.5
 10
428.3622692192126
 20
279.0129690318561
 42
0.1498527778863652
 10
425.4625191353577
 20
277.0219628286568
  0
LWPOLYLINE
  5
4A66
330
2
100
AcDbEntity
  8
copper
100
AcDbPolyline
 90
        2
 70
   128
 43
0.5
 10
428.6617924304899
 20
278.0588800182384
 42
0.149852777886368
 10
426.2453340272775
 20
276.3997081822389
  0
LWPOLYLINE
  5
4A67
330
2
100
AcDbEntity
  8
copper
100
AcDbPolyline
 90
        2
 70
   128
 43
0.5
 10
417.0355252846933
 20
274.2983735998948
 42
0.3019967653129456
 10
425.4625191353577
 20
277.0219628286568
  0
LWPOLYLINE
  5
4A68
330
2
100
AcDbEntity
  8
copper
100
AcDbPolyline
 90
        2
 70
   128
 43
0.5
 10
416.76496594528
 20
273.3356702998816
 42
0.3019967653129458
 10
426.2453340272775
 20
276.3997081822389
  0
LWPOLYLINE
  5
4A69
330
2
100
AcDbEntity
  8
copper
100
AcDbPolyline
 90
        2
 70
   128
 43
0.5
 10
413.5190193084232
 20
274.2156574052834
 42
0.0024370182945807
 10
404.9526713741969
 20
271.3208119016759
 42
0.0024370182945807
  0
LWPOLYLINE
  5
4A6A
330
2
100
AcDbEntity
  8
copper
100
AcDbPolyline
 90
        2
 70
   128
 43
0.5
 10
413.8345442983883
 20
273.2667401377055
 42
0.00266612938163
 10
404.4744141044628
 20
270.0988704569784
 42
0.00266612938163
  0
LWPOLYLINE
  5
4A6B
330
2
100
AcDbEntity
  8
copper
100
AcDbPolyline
 90
        2
 70
   128
 43
0.5
 10
417.0355252846933
 20
274.2983735998947
 42
0.1498527778863613
 10
413.5190193084232
 20
274.2156574052833
  0
LWPOLYLINE
  5
4A6C
330
2
100
AcDbEntity
  8
copper
100
AcDbPolyline
 90
        2
 70
   128
 43
0.5
 10
416.76496594528
 20
273.3356702998816
 42
0.1498527778863659
 10
413.8345442983881
 20
273.2667401377053
  0
LWPOLYLINE
  5
4ACF
330
2
100
AcDbEntity
  8
copper
100
AcDbPolyline
 90
        2
 70
   129
 43
0.6
 10
387.8328656814573
 20
267.6523110290434
 42
1.0
 10
388.4328656814573
 20
267.6523110290434
 42
1.0
  0
LWPOLYLINE
  5
4AD0
330
2
100
AcDbEntity
  8
copper
100
AcDbPolyline
 90
        2
 70
   129
 43
0.6
 10
388.449736538135
 20
265.9613137794537
 42
1.0
 10
389.049736538135
 20
265.9613137794537
 42
1.0
  0
LWPOLYLINE
  5
4AD1
330
2
100
AcDbEntity
  8
copper
100
AcDbPolyline
 90
        2
 70
   129
 43
0.6
 10
392.0231273894789
 20
267.2539787142325
 42
1.0
 10
392.6231273894789
 20
267.2539787142325
 42
1.0
  0
LWPOLYLINE
  5
4AD2
330
2
100
AcDbEntity
  8
copper
100
AcDbPolyline
 90
        2
 70
   129
 43
0.6
 10
391.4062497402261
 20
268.9449945839689
 42
1.0
 10
392.0062497402262
 20
268.9449945839689
 42
1.0
  0
LWPOLYLINE
  5
4AD3
330
2
100
AcDbEntity
  8
copper
100
AcDbPolyline
 90
        2
 70
   128
 43
1.199999999999999
 10
388.1328656814573
 20
267.6523110290433
 10
391.7062497402262
 20
268.9449945839689
  0
LWPOLYLINE
  5
4AD4
330
2
100
AcDbEntity
  8
copper
100
AcDbPolyline
 90
        2
 70
   128
 43
1.199999999999999
 10
388.749736538135
 20
265.9613137794537
 10
392.3231273894789
 20
267.2539787142324
  0
LWPOLYLINE
  5
4AE5
330
2
100
AcDbEntity
  8
copper
100
AcDbPolyline
 90
        2
 70
   128
 43
0.5
 10
391.7062497402452
 20
268.9449945839757
 10
394.0600631188414
 20
269.7874869532132
  0
LWPOLYLINE
  5
4AE6
330
2
100
AcDbEntity
  8
copper
100
AcDbPolyline
 90
        2
 70
   128
 43
0.5
 10
392.3231273895534
 20
267.2539787142593
 10
394.6769508679956
 20
268.0964433971214
  0
LWPOLYLINE
  5
4AF8
330
2
100
AcDbEntity
  8
copper
100
AcDbPolyline
 90
        2
 70
   128
 43
0.5
 10
394.6769508679985
 20
268.0964433971225
 10
404.4744141044628
 20
270.0988704569784
  0
LWPOLYLINE
  5
4AFB
330
2
100
AcDbEntity
  8
copper
100
AcDbPolyline
 90
        2
 70
   128
 43
0.5
 10
394.0600631188414
 20
269.7874869532132
 10
404.9526713741969
 20
271.3208119016759
  0
LWPOLYLINE
  5
4B00
330
2
100
AcDbEntity
  8
copper
100
AcDbPolyline
 90
        2
 70
   129
 43
0.25
 10
393.9350631188414
 20
269.7874869532132
 42
1.0
 10
394.1850631188414
 20
269.7874869532132
 42
1.0
  0
LWPOLYLINE
  5
4B01
330
2
100
AcDbEntity
  8
copper
100
AcDbPolyline
 90
        2
 70
   129
 43
0.25
 10
394.5519508679956
 20
268.0964433971214
 42
1.0
 10
394.8019508679956
 20
268.0964433971214
 42
1.0
  0
LWPOLYLINE
  5
4B02
330
2
100
AcDbEntity
  8
copper
100
AcDbPolyline
 90
        2
 70
   129
 43
0.25
 10
404.8276713741969
 20
271.3208119016759
 42
1.0
 10
405.0776713741969
 20
271.3208119016759
 42
1.0
  0
LWPOLYLINE
  5
4B03
330
2
100
AcDbEntity
  8
copper
100
AcDbPolyline
 90
        2
 70
   129
 43
0.25
 10
404.3494141044627
 20
270.0988704569784
 42
1.0
 10
404.5994141044627
 20
270.0988704569784
 42
1.0
  0
LWPOLYLINE
  5
4BD4
330
2
100
AcDbEntity
  8
copper
  6
Continuous
100
AcDbPolyline
 90
        2
 70
   129
 43
2.25
 10
702.0749999999998
 20
234.7446476190021
 42
-1.0
 10
704.3249999999998
 20
234.7446476190021
 42
-1.0
  0
LWPOLYLINE
  5
4BD5
330
2
100
AcDbEntity
  8
copper
  6
Continuous
100
AcDbPolyline
 90
        2
 70
   129
 43
2.25
 10
702.0749999999998
 20
237.2446476190021
 42
-1.0
 10
704.3249999999998
 20
237.2446476190021
 42
-1.0
  0
LWPOLYLINE
  5
4BD6
330
2
100
AcDbEntity
  8
copper
  6
Continuous
100
AcDbPolyline
 90
        2
 70
   128
 43
4.5
 10
703.1999999999998
 20
234.7446476190021
 10
703.1999999999998
 20
237.2446476190021
  0
LWPOLYLINE
  5
4BE3
330
2
100
AcDbEntity
  8
copper
  6
Continuous
100
AcDbPolyline
 90
        2
 70
   129
 43
2.25
 10
696.0749999999998
 20
234.7446476190021
 42
-1.0
 10
698.3249999999998
 20
234.7446476190021
 42
-1.0
  0
LWPOLYLINE
  5
4BE4
330
2
100
AcDbEntity
  8
copper
  6
Continuous
100
AcDbPolyline
 90
        2
 70
   129
 43
2.25
 10
696.0749999999998
 20
237.2446476190021
 42
-1.0
 10
698.3249999999998
 20
237.2446476190021
 42
-1.0
  0
LWPOLYLINE
  5
4BE5
330
2
100
AcDbEntity
  8
copper
  6
Continuous
100
AcDbPolyline
 90
        2
 70
   128
 43
4.5
 10
697.1999999999998
 20
234.7446476190021
 10
697.1999999999998
 20
237.2446476190021
  0
LWPOLYLINE
  5
4BE6
330
2
100
AcDbEntity
  8
copper
  6
Continuous
100
AcDbPolyline
 90
        2
 70
   129
 43
2.25
 10
690.0749999999998
 20
234.7446476190021
 42
-1.0
 10
692.3249999999998
 20
234.7446476190021
 42
-1.0
  0
LWPOLYLINE
  5
4BE7
330
2
100
AcDbEntity
  8
copper
  6
Continuous
100
AcDbPolyline
 90
        2
 70
   129
 43
2.25
 10
690.0749999999998
 20
237.2446476190021
 42
-1.0
 10
692.3249999999998
 20
237.2446476190021
 42
-1.0
  0
LWPOLYLINE
  5
4BE8
330
2
100
AcDbEntity
  8
copper
  6
Continuous
100
AcDbPolyline
 90
        2
 70
   128
 43
4.5
 10
691.1999999999998
 20
234.7446476190021
 10
691.1999999999998
 20
237.2446476190021
  0
LWPOLYLINE
  5
4BE9
330
2
100
AcDbEntity
  8
copper
  6
Continuous
100
AcDbPolyline
 90
        2
 70
   129
 43
2.25
 10
684.0749999999998
 20
234.7446476190021
 42
-1.0
 10
686.3249999999998
 20
234.7446476190021
 42
-1.0
  0
LWPOLYLINE
  5
4BEA
330
2
100
AcDbEntity
  8
copper
  6
Continuous
100
AcDbPolyline
 90
        2
 70
   129
 43
2.25
 10
684.0749999999998
 20
237.2446476190021
 42
-1.0
 10
686.3249999999998
 20
237.2446476190021
 42
-1.0
  0
LWPOLYLINE
  5
4BEB
330
2
100
AcDbEntity
  8
copper
  6
Continuous
100
AcDbPolyline
 90
        2
 70
   128
 43
4.5
 10
685.1999999999998
 20
234.7446476190021
 10
685.1999999999998
 20
237.2446476190021
  0
LWPOLYLINE
  5
4BF0
330
2
100
AcDbEntity
  8
copper
100
AcDbPolyline
 90
        2
 70
   128
 43
0.5
 10
697.1999999999998
 20
238.8312987330328
 42
0.4058535057977104
 10
704.6999999999997
 20
246.549135217437
  0
LWPOLYLINE
  5
4C02
330
2
100
AcDbEntity
  8
copper
100
AcDbPolyline
 90
        2
 70
   128
 43
0.5
 10
697.509189223511
 20
239.2206035962608
 42
0.1651395649889704
 10
700.6768008017473
 20
239.7712218046974
  0
LWPOLYLINE
  5
4C07
330
2
100
AcDbEntity
  8
copper
100
AcDbPolyline
 90
        2
 70
   128
 43
0.5
 10
701.3617797342974
 20
240.192635960721
 42
0.2466134023421745
 10
699.1999999999998
 20
236.0762655056531
  0
LWPOLYLINE
  5
4C0E
330
2
100
AcDbEntity
  8
copper
100
AcDbPolyline
 90
        3
 70
   128
 43
0.5
 10
703.1999999999998
 20
237.2446476190021
 10
704.8982003133355
 20
239.8698796873023
 42
0.1445381314841468
 10
705.6999999999998
 20
242.585595822893
  0
LWPOLYLINE
  5
4C16
330
2
100
AcDbEntity
  8
copper
100
AcDbPolyline
 90
        2
 70
   128
 43
0.5
 10
705.3496957274432
 20
240.7470285431357
 42
0.1553657012311796
 10
705.1426832728245
 20
237.7200229459668
  0
LWPOLYLINE
  5
4C17
330
2
100
AcDbEntity
  8
copper
100
AcDbPolyline
 90
        2
 70
   128
 43
0.5
 10
702.9862214036169
 20
239.2331894746663
 42
0.3307894765333874
 10
705.6138837726064
 20
241.661611911067
  0
LWPOLYLINE
  5
4C18
330
2
100
AcDbEntity
  8
copper
100
AcDbPolyline
 90
        2
 70
   128
 43
0.5
 10
704.8982003133355
 20
239.8698796873023
 10
704.4781948416175
 20
238.3361941031012
  0
LWPOLYLINE
  5
4C19
330
2
100
AcDbEntity
  8
copper
100
AcDbPolyline
 90
        2
 70
   128
 43
0.5
 10
704.5969029434045
 20
239.6244955323318
 10
703.8337518515482
 20
238.980346452397
  0
LWPOLYLINE
  5
4C1A
330
2
100
AcDbEntity
  8
copper
100
AcDbPolyline
 90
        2
 70
   128
 43
0.5
 10
700.2214843825395
 20
239.3702242658855
 10
699.0852296368903
 20
237.8954613824512
  0
LWPOLYLINE
  5
4C1B
330
2
100
AcDbEntity
  8
copper
100
AcDbPolyline
 90
        2
 70
   128
 43
0.5
 10
699.7975087311779
 20
239.2854693566442
 10
698.9156393763451
 20
238.1836326509779
  0
LWPOLYLINE
  5
4C1C
330
2
100
AcDbEntity
  8
copper
100
AcDbPolyline
 90
        2
 70
   128
 43
0.5
 10
699.3565740537615
 20
239.2007111780417
 10
698.6612539855286
 20
238.471803919504
  0
LWPOLYLINE
  5
4C3D
330
2
100
AcDbEntity
  8
copper
100
AcDbPolyline
 90
        2
 70
   128
 43
0.5
 10
706.6999999999998
 20
242.585595822893
 10
706.6999999999998
 20
315.5770776229182
  0
LWPOLYLINE
  5
4C3E
330
2
100
AcDbEntity
  8
copper
100
AcDbPolyline
 90
        2
 70
   128
 43
0.5
 10
707.6999999999998
 20
246.549135217437
 10
707.6999999999998
 20
315.5770776229182
  0
LWPOLYLINE
  5
4C43
330
2
100
AcDbEntity
  8
copper
100
AcDbPolyline
 90
        2
 70
   128
 43
0.5
 10
995.3644747153063
 20
274.2983735998948
 42
-0.3019967653129456
 10
986.9374808646419
 20
277.0219628286568
  0
LWPOLYLINE
  5
4C44
330
2
100
AcDbEntity
  8
copper
100
AcDbPolyline
 90
        2
 70
   128
 43
0.5
 10
995.6350340547196
 20
273.3356702998816
 42
-0.3019967653129458
 10
986.154665972722
 20
276.3997081822389
  0
LWPOLYLINE
  5
4C77
330
2
100
AcDbEntity
  8
copper
100
AcDbPolyline
 90
        2
 70
   128
 43
0.5
 10
712.7352647569442
 20
320.5769532610635
 42
-0.0744219117076667
 10
983.7382075695096
 20
278.0588800182384
  0
LWPOLYLINE
  5
4C78
330
2
100
AcDbEntity
  8
copper
100
AcDbPolyline
 90
        2
 70
   128
 43
0.5
 10
998.5654557016113
 20
273.2667401377055
 42
-0.00266612938163
 10
1007.925585895537
 20
270.0988704569784
 42
-0.00266612938163
  0
LWPOLYLINE
  5
4C79
330
2
100
AcDbEntity
  8
copper
100
AcDbPolyline
 90
        2
 70
   128
 43
0.5
 10
712.742317708333
 20
321.5769283886925
 42
-0.0744219117076667
 10
984.0377307807868
 20
279.0129690318562
  0
LWPOLYLINE
  5
4C7A
330
2
100
AcDbEntity
  8
copper
100
AcDbPolyline
 90
        2
 70
   128
 43
0.5
 10
998.8809806915764
 20
274.2156574052834
 42
-0.0024370182945807
 10
1007.447328625802
 20
271.3208119016759
 42
-0.0024370182945807
  0
LWPOLYLINE
  5
4CB9
330
2
100
AcDbEntity
  8
copper
100
AcDbPolyline
 90
        2
 70
   128
 43
0.5
 10
707.6999999999998
 20
315.5770776229182
 42
-0.416280853149802
 10
712.7352647569442
 20
320.5769532610634
  0
LWPOLYLINE
  5
4CBA
330
2
100
AcDbEntity
  8
copper
100
AcDbPolyline
 90
        2
 70
   128
 43
0.5
 10
706.6999999999998
 20
315.5770776229182
 42
-0.416280853149802
 10
712.7423177083332
 20
321.5769283886924
  0
LWPOLYLINE
  5
4CBD
330
2
100
AcDbEntity
  8
copper
100
AcDbPolyline
 90
        2
 70
   128
 43
0.5
 10
715.1999999999998
 20
238.8312987330328
 42
-0.4058535057977104
 10
707.6999999999998
 20
246.549135217437
  0
LWPOLYLINE
  5
4CD2
330
2
100
AcDbEntity
  8
copper
100
AcDbPolyline
 90
        2
 70
   128
 43
0.5
 10
983.7382075695096
 20
278.0588800182384
 42
-0.149852777886368
 10
986.154665972722
 20
276.3997081822389
  0
LWPOLYLINE
  5
4CD3
330
2
100
AcDbEntity
  8
copper
100
AcDbPolyline
 90
        2
 70
   128
 43
0.5
 10
984.0377307807868
 20
279.0129690318561
 42
-0.1498527778863652
 10
986.9374808646419
 20
277.0219628286568
  0
LWPOLYLINE
  5
4CD4
330
2
100
AcDbEntity
  8
copper
100
AcDbPolyline
 90
        2
 70
   128
 43
0.5
 10
995.6350340547196
 20
273.3356702998816
 42
-0.1498527778863659
 10
998.5654557016115
 20
273.2667401377053
  0
LWPOLYLINE
  5
4CD5
330
2
100
AcDbEntity
  8
copper
100
AcDbPolyline
 90
        2
 70
   128
 43
0.5
 10
995.3644747153063
 20
274.2983735998947
 42
-0.1498527778863613
 10
998.8809806915764
 20
274.2156574052833
  0
LWPOLYLINE
  5
4D90
330
2
100
AcDbEntity
  8
copper
100
AcDbPolyline
 90
        2
 70
   129
 43
0.6
 10
1024.567134318542
 20
267.6523110290434
 42
-1.0
 10
1023.967134318542
 20
267.6523110290434
 42
-1.0
  0
LWPOLYLINE
  5
4D91
330
2
100
AcDbEntity
  8
copper
100
AcDbPolyline
 90
        2
 70
   129
 43
0.6
 10
1023.950263461864
 20
265.9613137794537
 42
-1.0
 10
1023.350263461864
 20
265.9613137794537
 42
-1.0
  0
LWPOLYLINE
  5
4D92
330
2
100
AcDbEntity
  8
copper
100
AcDbPolyline
 90
        2
 70
   129
 43
0.6
 10
1020.376872610521
 20
267.2539787142325
 42
-1.0
 10
1019.77687261052
 20
267.2539787142325
 42
-1.0
  0
LWPOLYLINE
  5
4D93
330
2
100
AcDbEntity
  8
copper
100
AcDbPolyline
 90
        2
 70
   129
 43
0.6
 10
1020.993750259773
 20
268.9449945839689
 42
-1.0
 10
1020.393750259773
 20
268.9449945839689
 42
-1.0
  0
LWPOLYLINE
  5
4D94
330
2
100
AcDbEntity
  8
copper
100
AcDbPolyline
 90
        2
 70
   128
 43
1.199999999999999
 10
1024.267134318542
 20
267.6523110290433
 10
1020.693750259773
 20
268.9449945839689
  0
LWPOLYLINE
  5
4D95
330
2
100
AcDbEntity
  8
copper
100
AcDbPolyline
 90
        2
 70
   128
 43
1.199999999999999
 10
1023.650263461864
 20
265.9613137794537
 10
1020.076872610521
 20
267.2539787142324
  0
LWPOLYLINE
  5
4D96
330
2
100
AcDbEntity
  8
copper
100
AcDbPolyline
 90
        2
 70
   128
 43
0.5
 10
1020.693750259754
 20
268.9449945839757
 10
1018.339936881158
 20
269.7874869532132
  0
LWPOLYLINE
  5
4D97
330
2
100
AcDbEntity
  8
copper
100
AcDbPolyline
 90
        2
 70
   128
 43
0.5
 10
1020.076872610446
 20
267.2539787142593
 10
1017.723049132004
 20
268.0964433971214
  0
LWPOLYLINE
  5
4D98
330
2
100
AcDbEntity
  8
copper
100
AcDbPolyline
 90
        2
 70
   128
 43
0.5
 10
1017.723049132001
 20
268.0964433971225
 10
1007.925585895537
 20
270.0988704569784
  0
LWPOLYLINE
  5
4D99
330
2
100
AcDbEntity
  8
copper
100
AcDbPolyline
 90
        2
 70
   128
 43
0.5
 10
1018.339936881158
 20
269.7874869532132
 10
1007.447328625802
 20
271.3208119016759
  0
LWPOLYLINE
  5
4D9A
330
2
100
AcDbEntity
  8
copper
100
AcDbPolyline
 90
        2
 70
   129
 43
0.25
 10
1018.464936881158
 20
269.7874869532132
 42
-1.0
 10
1018.214936881158
 20
269.7874869532132
 42
-1.0
  0
LWPOLYLINE
  5
4D9B
330
2
100
AcDbEntity
  8
copper
100
AcDbPolyline
 90
        2
 70
   129
 43
0.25
 10
1017.848049132004
 20
268.0964433971214
 42
-1.0
 10
1017.598049132004
 20
268.0964433971214
 42
-1.0
  0
LWPOLYLINE
  5
4D9C
330
2
100
AcDbEntity
  8
copper
100
AcDbPolyline
 90
        2
 70
   129
 43
0.25
 10
1007.572328625802
 20
271.3208119016759
 42
-1.0
 10
1007.322328625803
 20
271.3208119016759
 42
-1.0
  0
LWPOLYLINE
  5
4D9D
330
2
100
AcDbEntity
  8
copper
100
AcDbPolyline
 90
        2
 70
   129
 43
0.25
 10
1008.050585895537
 20
270.0988704569784
 42
-1.0
 10
1007.800585895537
 20
270.0988704569784
 42
-1.0
  0
LWPOLYLINE
  5
4DBA
330
2
100
AcDbEntity
  8
copper
  6
Continuous
100
AcDbPolyline
 90
        2
 70
   129
 43
2.25
 10
710.3249999999998
 20
234.7446476190021
 42
1.0
 10
708.0749999999998
 20
234.7446476190021
 42
1.0
  0
LWPOLYLINE
  5
4DBB
330
2
100
AcDbEntity
  8
copper
  6
Continuous
100
AcDbPolyline
 90
        2
 70
   129
 43
2.25
 10
710.3249999999998
 20
237.2446476190021
 42
1.0
 10
708.0749999999998
 20
237.2446476190021
 42
1.0
  0
LWPOLYLINE
  5
4DBC
330
2
100
AcDbEntity
  8
copper
  6
Continuous
100
AcDbPolyline
 90
        2
 70
   128
 43
4.5
 10
709.1999999999998
 20
234.7446476190021
 10
709.1999999999998
 20
237.2446476190021
  0
LWPOLYLINE
  5
4DBD
330
2
100
AcDbEntity
  8
copper
  6
Continuous
100
AcDbPolyline
 90
        2
 70
   129
 43
2.25
 10
716.3249999999997
 20
234.7446476190021
 42
1.0
 10
714.0749999999997
 20
234.7446476190021
 42
1.0
  0
LWPOLYLINE
  5
4DBE
330
2
100
AcDbEntity
  8
copper
  6
Continuous
100
AcDbPolyline
 90
        2
 70
   129
 43
2.25
 10
716.3249999999997
 20
237.2446476190021
 42
1.0
 10
714.0749999999997
 20
237.2446476190021
 42
1.0
  0
LWPOLYLINE
  5
4DBF
330
2
100
AcDbEntity
  8
copper
  6
Continuous
100
AcDbPolyline
 90
        2
 70
   128
 43
4.5
 10
715.1999999999998
 20
234.7446476190021
 10
715.1999999999998
 20
237.2446476190021
  0
LWPOLYLINE
  5
4DC0
330
2
100
AcDbEntity
  8
copper
  6
Continuous
100
AcDbPolyline
 90
        2
 70
   129
 43
2.25
 10
722.3249999999998
 20
234.7446476190021
 42
1.0
 10
720.0749999999998
 20
234.7446476190021
 42
1.0
  0
LWPOLYLINE
  5
4DC1
330
2
100
AcDbEntity
  8
copper
  6
Continuous
100
AcDbPolyline
 90
        2
 70
   129
 43
2.25
 10
722.3249999999998
 20
237.2446476190021
 42
1.0
 10
720.0749999999998
 20
237.2446476190021
 42
1.0
  0
LWPOLYLINE
  5
4DC2
330
2
100
AcDbEntity
  8
copper
  6
Continuous
100
AcDbPolyline
 90
        2
 70
   128
 43
4.5
 10
721.1999999999997
 20
234.7446476190021
 10
721.1999999999997
 20
237.2446476190021
  0
LWPOLYLINE
  5
4DC3
330
2
100
AcDbEntity
  8
copper
  6
Continuous
100
AcDbPolyline
 90
        2
 70
   129
 43
2.25
 10
728.3249999999998
 20
234.7446476190021
 42
1.0
 10
726.0749999999998
 20
234.7446476190021
 42
1.0
  0
LWPOLYLINE
  5
4DC4
330
2
100
AcDbEntity
  8
copper
  6
Continuous
100
AcDbPolyline
 90
        2
 70
   129
 43
2.25
 10
728.3249999999998
 20
237.2446476190021
 42
1.0
 10
726.0749999999998
 20
237.2446476190021
 42
1.0
  0
LWPOLYLINE
  5
4DC5
330
2
100
AcDbEntity
  8
copper
  6
Continuous
100
AcDbPolyline
 90
        2
 70
   128
 43
4.5
 10
727.1999999999998
 20
234.7446476190021
 10
727.1999999999998
 20
237.2446476190021
  0
LWPOLYLINE
  5
4DC6
330
2
100
AcDbEntity
  8
copper
100
AcDbPolyline
 90
        2
 70
   128
 43
0.5
 10
714.8908107764886
 20
239.2206035962608
 42
-0.1651395649889704
 10
711.7231991982522
 20
239.7712218046974
  0
LWPOLYLINE
  5
4DC7
330
2
100
AcDbEntity
  8
copper
100
AcDbPolyline
 90
        2
 70
   128
 43
0.5
 10
711.0382202657022
 20
240.192635960721
 42
-0.2466134023421745
 10
713.1999999999997
 20
236.0762655056531
  0
LWPOLYLINE
  5
4DC8
330
2
100
AcDbEntity
  8
copper
100
AcDbPolyline
 90
        3
 70
   128
 43
0.5
 10
709.1999999999998
 20
237.2446476190021
 10
707.501799686664
 20
239.8698796873023
 42
-0.1445381314841468
 10
706.6999999999998
 20
242.585595822893
  0
LWPOLYLINE
  5
4DC9
330
2
100
AcDbEntity
  8
copper
100
AcDbPolyline
 90
        2
 70
   128
 43
0.5
 10
707.0503042725564
 20
240.7470285431357
 42
-0.1553657012311796
 10
707.257316727175
 20
237.7200229459668
  0
LWPOLYLINE
  5
4DCA
330
2
100
AcDbEntity
  8
copper
100
AcDbPolyline
 90
        2
 70
   128
 43
0.5
 10
709.4137785963827
 20
239.2331894746663
 42
-0.3307894765333874
 10
706.7861162273932
 20
241.661611911067
  0
LWPOLYLINE
  5
4DCB
330
2
100
AcDbEntity
  8
copper
100
AcDbPolyline
 90
        2
 70
   128
 43
0.5
 10
707.501799686664
 20
239.8698796873023
 10
707.921805158382
 20
238.3361941031012
  0
LWPOLYLINE
  5
4DCC
330
2
100
AcDbEntity
  8
copper
100
AcDbPolyline
 90
        2
 70
   128
 43
0.5
 10
707.8030970565951
 20
239.6244955323318
 10
708.5662481484514
 20
238.980346452397
  0
LWPOLYLINE
  5
4DCD
330
2
100
AcDbEntity
  8
copper
100
AcDbPolyline
 90
        2
 70
   128
 43
0.5
 10
712.1785156174601
 20
239.3702242658855
 10
713.3147703631093
 20
237.8954613824512
  0
LWPOLYLINE
  5
4DCE
330
2
100
AcDbEntity
  8
copper
100
AcDbPolyline
 90
        2
 70
   128
 43
0.5
 10
712.6024912688217
 20
239.2854693566442
 10
713.4843606236545
 20
238.1836326509779
  0
LWPOLYLINE
  5
4DCF
330
2
100
AcDbEntity
  8
copper
100
AcDbPolyline
 90
        2
 70
   128
 43
0.5
 10
713.0434259462381
 20
239.2007111780417
 10
713.7387460144709
 20
238.471803919504
  0
LWPOLYLINE
  5
4DDC
330
2
100
AcDbEntity
  8
copper
100
AcDbPolyline
 90
      364
 70
   128
 43
1.709999999999999
 10
727.1999999999998
 20
237.2446476190021
 10
727.1999999999998
 20
239.8191319661667
 42
0.4086744756112974
 10
722.3231878137664
 20
244.7892395762429
 42
0.0020333064822643
 10
715.4030792693866
 20
244.8922321281121
 42
-1.0
 10
715.4389207306129
 20
248.206038306762
 42
-0.0043602969052375
 10
730.335033623405
 20
247.914992073565
 42
-0.4144982055586228
 10
731.9445111825223
 20
246.2102293125643
 10
731.7057499967423
 20
239.5864175577232
 42
0.4133532895569258
 10
736.4949603036615
 20
234.4541720880443
 42
-0.0654335145660464
 10
952.636134349184
 20
198.0834730841262
 42
1.0
 10
955.5494138351525
 20
207.5890591595154
 42
0.0634819677609635
 10
743.4629362381553
 20
244.125732434274
 42
-1.0
 10
743.6080570227601
 20
247.4365534741183
 42
-0.0678965528080897
 10
970.8416690905105
 20
206.2303247952447
 42
-0.3731329228193694
 10
975.8635137954552
 20
195.5620646612443
 42
0.3978795451329373
 10
979.0359767769464
 20
189.5133749825766
 42
-0.1022937579350909
 10
1272.128493413803
 20
16.09801506063582
 42
1.0
 10
1278.818696840105
 20
23.45223440157861
 42
0.1007305174686068
 10
987.2378090736804
 20
197.1936486520952
 42
-1.0
 10
988.3323129285495
 20
200.3216923397177
 42
-0.1009147236234672
 10
1281.509528533176
 20
25.48417233920793
 42
1.0
 10
1288.205094420541
 20
32.83350982281524
 42
0.1840968052204938
 10
715.403353630804
 20
258.1489926430197
 42
-1.0
 10
715.4386463691955
 20
261.4628047111095
 42
-0.1842796088745602
 10
1290.890333159372
 20
34.86994347837959
 42
1.0
 10
1297.591094984304
 20
42.21454387360404
 42
0.1843211207564861
 10
715.4036197181014
 20
271.4057302639892
 42
-1.0
 10
715.4383802818983
 20
274.7195479571044
 42
-0.184498461063503
 10
1300.270917591263
 20
44.25534576524102
 42
1.0
 10
1306.976716465305
 20
51.59534749963416
 42
0.1845387427064764
 10
715.4038779000118
 20
284.6624460094863
 42
-1.0
 10
715.4381220999878
 20
287.9762690788075
 42
-0.184710861075575
 10
1309.65129152277
 20
53.6403954697588
 42
1.0
 10
1316.361975732947
 20
60.97593099426422
 42
0.1847499663739895
 10
715.404128523679
 20
297.9191408384482
 42
-1.0
 10
715.4378714763205
 20
301.2329690496184
 42
-0.0744646016751584
 10
980.8055708565046
 20
258.7246838471606
 42
-0.0329927840945654
 10
982.0329823656544
 20
258.2437330972601
 42
0.0634919726630258
 10
988.3510820970691
 20
256.2017346480304
 42
-0.032992784094556
 10
989.6278039867492
 20
255.8733539953812
 42
-0.1063678473808463
 10
1319.031464086666
 20
63.02510791852353
 42
1.0
 10
1325.74688866998
 20
70.35630404642882
 42
0.1054225649641737
 10
995.9896336363552
 20
264.2402918280132
 42
0.0771221841550076
 10
992.9659103576005
 20
264.7515884198192
 42
-0.1506394512990401
 10
983.2949760651914
 20
267.8772169580189
 42
0.0771221841550208
 10
980.5439644316786
 20
269.2323042849301
 42
0.0735616060549809
 10
715.4043719162151
 20
311.1758156545702
 42
-1.0
 10
715.4376280837844
 20
314.4896487866577
 42
-0.0734532985565767
 10
981.1566649228922
 20
272.5131528386353
 42
-0.0915473703981246
 10
984.367788725971
 20
270.8172210962161
 42
0.1798482703881803
 10
993.8166978743353
 20
267.763350684526
 42
-0.0915473703981389
 10
997.4129837397795
 20
267.2591398876815
 42
-0.1054723563529902
 10
1328.411443894628
 20
72.40949756217332
 42
1.0
 10
1335.131470243625
 20
79.73647578438636
 42
0.0902995176686161
 10
1053.056774276909
 20
257.4116553662079
 42
-1.0
 10
1054.292142926091
 20
260.4867911844471
 42
-0.0904532956793795
 10
1337.791239073901
 20
81.79357803711196
 42
1.0
 10
1344.51573457062
 20
89.11645481571463
 42
0.0917451017374951
 10
1053.505892467946
 20
271.5035497438407
 42
0.4155066113856828
 10
1047.046335402033
 20
268.6903863708577
 42
-0.9966435920609848
 10
1043.959777650949
 20
269.8968825828095
 42
1.001324718225802
 10
1034.669047203429
 20
273.4360235129154
 42
-1.002924998150775
 10
1031.558128419296
 20
274.5782523123755
 42
1.00265114675837
 10
1022.214253454562
 20
277.9745255280655
 10
1021.772887378017
 20
276.7602327885396
 42
-0.9991166294841365
 10
1018.650326587625
 20
277.8702785229764
 10
1019.06009445162
 20
279.0957753083682
 42
1.002651147385891
 10
1009.669078233351
 20
282.3594366725529
 10
1008.539152800264
 20
279.1081344813323
 42
-0.9236354484240488
 10
1005.337399111706
 20
279.9219868135278
 42
0.0352937193664096
 10
1005.50901784077
 20
281.6497489534792
 42
0.2204121905022486
 10
1002.19270514536
 20
289.3761167921912
 10
1001.102894650439
 20
290.3542956701367
 42
0.1906663047732168
 10
993.2462210091106
 20
293.4999071134648
 10
990.4071992605018
 20
293.2910568039745
 42
0.2362533895199554
 10
982.7184331932953
 20
288.7089938226747
 42
0.0267701390991818
 10
982.0615791413223
 20
287.5506235335384
 42
-0.9204633716674276
 10
978.9198939454543
 20
288.8037348644587
 10
979.8207415594267
 20
291.8765902046144
 42
1.002715580834941
 10
970.065038965861
 20
294.7918309246359
 10
969.1482500891508
 20
291.7238340692738
 42
-0.9990933521710362
 10
965.889372803376
 20
292.671961359644
 10
966.7463011735824
 20
295.7573434099432
 42
1.002715580833471
 10
956.9492718221882
 20
298.5305324474407
 10
956.0771557005137
 20
295.4495390980121
 42
-0.9990933521924379
 10
952.8048467427332
 20
296.3502169579113
 10
953.6176880113586
 20
299.4474966049184
 42
1.00271558083565
 10
943.7814025991897
 20
302.0780575413213
 10
942.9541405054058
 20
298.9847188955993
 42
-0.9990933521881066
 10
939.6690914863022
 20
299.8377601985669
 10
940.4376866591126
 20
302.9463062236307
 42
1.0027155808356
 10
930.5642237851266
 20
305.4336928895505
 10
929.7819874792548
 20
302.3286626303396
 42
-0.9990933521858986
 10
926.484892570251
 20
303.1338903518602
 10
927.20909153876
 20
306.2530695515424
 42
1.002715580834991
 10
917.3005372601231
 20
308.5967661311105
 10
916.5634889565394
 20
305.4807002866474
 42
-0.999093352194391
 10
913.2550447416456
 20
306.2379475378273
 10
913.9347063037723
 20
309.3671248443852
 42
1.002715580835118
 10
903.9931536908815
 20
311.5666459729265
 10
903.3014460275952
 20
308.440202776991
 42
-0.9990933521968543
 10
899.9823513548632
 20
309.1493128360971
 10
900.6173432341091
 20
312.2878514380933
 42
1.002715580835397
 10
890.6448919244802
 20
314.3427422933111
 10
889.9986679344612
 20
311.2065820449119
 42
-0.9990933521930324
 10
886.669623767049
 20
311.8674083866256
 10
887.2598226301782
 20
315.0146698495779
 42
1.002715580834637
 10
877.2585783812633
 20
316.9245062361099
 10
876.6579714658504
 20
313.7792911588852
 42
-0.9990933521785946
 10
873.3196807327697
 20
314.391697481443
 10
873.8649722060111
 20
317.5470418685541
 42
1.002715580834484
 10
863.8370464470678
 20
319.3114302959982
 10
863.2821803514325
 20
316.1578243972334
 42
-0.9990933521964295
 10
859.9353477979834
 20
316.7216846473457
 10
860.4356264817486
 20
319.8844706402513
 42
1.002715580835346
 10
850.3831358648378
 20
321.5030483945451
 10
849.8741246555351
 20
318.3417173239913
 42
-0.9990933522047525
 10
846.5194566934691
 20
318.8569157195361
 10
846.9746261756025
 20
322.0265007391271
 42
1.002715580834915
 10
836.899692125822
 20
323.4989359473282
 10
836.4366401704174
 20
320.3305468557744
 42
-0.9990933522026292
 10
833.0748447278642
 20
320.7969779063181
 10
833.4848175954171
 20
323.9727182335518
 42
1.002715580835701
 10
823.3895658604742
 20
325.2987099220281
 10
822.9725678092423
 20
322.1239313196453
 42
-0.9990933521908244
 10
819.6043541804273
 20
322.541499844738
 10
819.9690520299649
 20
325.7227507414399
 42
1.002715580834865
 10
809.855612229183
 20
326.9020288874848
 10
809.4847529988827
 20
323.7215305019853
 42
-0.9990933521813973
 10
806.1108316936772
 20
324.0901516472862
 10
806.4301851401273
 20
327.276267476985
 42
1.002715580834687
 10
796.3006903129758
 20
328.3085930537705
 10
795.9760450727064
 20
325.1230456884317
 42
-0.9990933521901448
 10
792.5971276660296
 20
325.4426449395873
 10
792.871076350071
 20
328.6329792882941
 42
1.002715580835397
 10
782.727662504326
 20
329.5181443032627
 10
782.4492966634599
 20
326.3282196948278
 42
-0.9990933521937966
 10
779.0660956445783
 20
326.5987328891854
 10
779.2945882385756
 20
329.7926386861733
 42
1.002715580835498
 10
769.1393938982018
 20
330.5304662127786
 10
768.9073630963947
 20
327.3368368892844
 42
-0.9990933521954953
 10
765.5205917181421
 20
327.5582102253764
 10
765.7035859306301
 20
330.7550398638877
 42
1.002715580835169
 10
755.5387516834879
 20
331.3453840667898
 10
755.3531017827637
 20
328.1487232053207
 42
-0.9990933521955803
 10
751.9634739107194
 20
328.3209132501645
 10
752.1009364894401
 20
331.5200187080742
 42
1.002715580835245
 10
741.928604534906
 20
331.9627648616879
 10
741.7893716138173
 20
328.7637461461226
 42
-0.9990933521984677
 10
738.3976015754716
 20
328.886719840317
 10
738.4895083089708
 20
332.0874528007307
 42
1.002715580835422
 10
728.3118220055754
 20
332.3825173012291
 10
728.2190323554341
 20
329.1818147799542
 42
-0.9990933521935419
 10
724.8258347893755
 20
329.2555494405773
 10
724.8721705071578
 20
332.4572614123403
 42
1.002715580835245
 10
714.6912739203319
 20
332.6045917830404
 10
714.644944043512
 20
329.4028797267519
 42
-0.9990933521949008
 10
711.2510337486662
 20
329.4273630480713
 10
711.1710311786597
 20
339.3779306341029
 42
-0.4144702647219319
 10
712.8396169881032
 20
341.0247250152709
 42
-0.0750224303308881
 10
991.9824247348797
 20
296.8999501698129
 42
0.0583165585008287
 10
994.2653283871727
 20
296.4608117139905
 42
-0.1201046535970669
 10
1000.799543222514
 20
294.3489652525684
 42
0.0583165585008354
 10
1002.907633958618
 20
293.3689422337625
 42
-0.1065900490738601
 10
1347.170857300905
 20
91.17736222208202
 42
1.0
 10
1353.899694976805
 20
98.49624926393415
 42
0.186235813123658
 10
712.8165436495391
 20
350.9671266298186
 42
-1.0
 10
712.8394563504603
 20
354.281047420685
 42
-0.1863850231047839
 10
1356.550305832091
 20
100.5608622900812
 42
1.0
 10
1363.283364051761
 20
107.8758668020774
 42
0.1864094178613065
 10
712.8166999052373
 20
364.2234380792711
 42
-1.0
 10
712.8393000947624
 20
367.5373610161289
 42
-0.1865545907477587
 10
1365.929591532282
 20
109.9440897560682
 42
1.0
 10
1372.666753698984
 20
117.2553146835041
 42
0.1865783304404201
 10
712.816851955877
 20
377.4797411610423
 42
-1.0
 10
712.8391480441226
 20
380.7936661578474
 42
-0.1867196279410519
 10
1375.308720900761
 20
119.3270555208481
 42
1.0
 10
1382.049875182001
 20
126.6345997702202
 42
0.1867427386069468
 10
712.8169999689506
 20
390.7360362078856
 42
-1.0
 10
712.839000031049
 20
394.0499631831325
 42
-0.1868803139052618
 10
1384.687700095291
 20
128.7097699114925
 42
1.0
 10
1391.432739166825
 20
136.0137285589297
 42
0.3911083871546033
 10
20.96726083317435
 20
136.01372855893
 42
1.0
 10
27.71229990470829
 20
128.7097699114928
 42
-0.1868803139052617
 10
699.5609999689506
 20
394.0499631831325
 42
-1.0
 10
699.583000031049
 20
390.7360362078856
 42
0.1867427386069468
 10
30.35012481799891
 20
126.6345997702201
 42
1.0
 10
37.09127909923814
 20
119.3270555208481
 42
-0.1867196279410519
 10
699.560851955877
 20
380.7936661578474
 42
-1.0
 10
699.5831480441226
 20
377.4797411610423
 42
0.1865783304404201
 10
39.73324630101592
 20
117.2553146835041
 42
1.0
 10
46.47040846771722
 20
109.9440897560682
 42
-0.1865545907477587
 10
699.5606999052372
 20
367.5373610161289
 42
-1.0
 10
699.5833000947623
 20
364.2234380792711
 42
0.1864094178613065
 10
49.11663594823813
 20
107.8758668020774
 42
1.0
 10
55.84969416790875
 20
100.5608622900812
 42
-0.1863850231047839
 10
699.5605436495392
 20
354.2810474206853
 42
-1.0
 10
699.5834563504604
 20
350.9671266298186
 42
0.186235813123658
 10
58.50030502319464
 20
98.49624926393415
 42
1.0
 10
65.22914269909438
 20
91.17736222208202
 42
-0.1065900490738601
 10
409.4923660413819
 20
293.3689422337625
 42
0.0583165585008328
 10
411.6004567774856
 20
294.3489652525684
 42
-0.1201046535970669
 10
418.1346716128268
 20
296.4608117139905
 42
0.0583165585008301
 10
420.4175752651198
 20
296.8999501698129
 42
-0.0750224303308881
 10
699.5603830118964
 20
341.0247250152709
 42
-0.4144702647219319
 10
701.2289688213399
 20
339.3779306341029
 10
701.1489662513334
 20
329.4273630480713
 42
-0.9990933521949008
 10
697.7550559564876
 20
329.4028797267519
 10
697.7087260796677
 20
332.6045917830404
 42
1.002715580835245
 10
687.5278294928417
 20
332.4572614123403
 10
687.574165210624
 20
329.2555494405773
 42
-0.9990933521935419
 10
684.1809676445655
 20
329.1818147799542
 10
684.0881779944242
 20
332.3825173012291
 42
1.002715580835422
 10
673.9104916910288
 20
332.0874528007307
 10
674.0023984245279
 20
328.886719840317
 42
-0.9990933521984677
 10
670.6106283861823
 20
328.7637461461226
 10
670.4713954650934
 20
331.9627648616915
 42
1.00271558083565
 10
660.2990635105594
 20
331.5200187080758
 10
660.4365260892802
 20
328.3209132501638
 42
-0.9990933521916735
 10
657.0468982172359
 20
328.1487232053208
 10
656.8612483165117
 20
331.3453840667898
 42
1.002715580835169
 10
646.6964140693695
 20
330.7550398638877
 10
646.8794082818574
 20
327.5582102253764
 42
-0.9990933521954953
 10
643.4926369036048
 20
327.3368368892844
 10
643.2606061017978
 20
330.5304662127786
 42
1.002715580835498
 10
633.105411761424
 20
329.7926386861733
 10
633.3339043554213
 20
326.5987328891854
 42
-0.9990933521937966
 10
629.9507033365397
 20
326.3282196948278
 10
629.6723374956736
 20
329.5181443032627
 42
1.002715580835397
 10
619.5289236499286
 20
328.6329792882941
 10
619.80287233397
 20
325.4426449395873
 42
-0.9990933521901448
 10
616.4239549272931
 20
325.1230456884317
 10
616.0993096870238
 20
328.3085930537705
 42
1.002715580834687
 10
605.9698148598722
 20
327.276267476985
 10
606.2891683063224
 20
324.0901516472862
 42
-0.9990933521813973
 10
602.9152470011169
 20
323.7215305019853
 10
602.5443877708165
 20
326.9020288874848
 42
1.002715580834865
 10
592.4309479700347
 20
325.7227507414399
 10
592.7956458195722
 20
322.541499844738
 42
-0.9990933521908244
 10
589.4274321907572
 20
322.1239313196453
 10
589.0104341395254
 20
325.2987099220281
 42
1.002715580835701
 10
578.9151824045825
 20
323.9727182335518
 10
579.3251552721353
 20
320.7969779063181
 42
-0.9990933522026292
 10
575.9633598295821
 20
320.3305468557744
 10
575.5003078741776
 20
323.4989359473282
 42
1.002715580834915
 10
565.4253738243972
 20
322.0265007391271
 10
565.8805433065305
 20
318.8569157195361
 42
-0.9990933522047525
 10
562.5258753444645
 20
318.3417173239913
 10
562.0168641351622
 20
321.503048394543
 42
1.002715580835169
 10
551.964373518251
 20
319.8844706402514
 10
552.4646522020169
 20
316.7216846473412
 42
-0.999093352187597
 10
549.117819648567
 20
316.1578243972335
 10
548.5629535529279
 20
319.3114302960199
 42
1.0027155808356
 10
538.5350277939885
 20
317.5470418685538
 10
539.0803192672296
 20
314.3916974814442
 42
-0.9990933521861533
 10
535.7420285341491
 20
313.7792911588852
 10
535.1414216187363
 20
316.9245062361099
 42
1.002715580834637
 10
525.1401773698213
 20
315.0146698495779
 10
525.7303762329505
 20
311.8674083866256
 42
-0.9990933521930324
 10
522.4013320655384
 20
311.2065820449119
 10
521.7551080755209
 20
314.3427422933042
 42
1.002715580835524
 10
511.7826567658905
 20
312.2878514380934
 10
512.4176486451363
 20
309.1493128360971
 42
-0.9990933521968543
 10
509.0985539724044
 20
308.440202776991
 10
508.4068463091181
 20
311.5666459729265
 42
1.002715580835118
 10
498.4652936962272
 20
309.3671248443852
 10
499.1449552583539
 20
306.2379475378273
 42
-0.999093352194391
 10
495.8365110434602
 20
305.4807002866474
 10
495.0994627398766
 20
308.5967661311105
 42
1.002715580834991
 10
485.1909084612396
 20
306.2530695515424
 10
485.9151074297485
 20
303.1338903518602
 42
-0.9990933521858986
 10
482.6180125207448
 20
302.3286626303396
 10
481.835776214873
 20
305.4336928895505
 42
1.0027155808356
 10
471.962313340887
 20
302.9463062236307
 10
472.7309085136974
 20
299.8377601985669
 42
-0.9990933521881066
 10
469.4458594945938
 20
298.9847188955993
 10
468.6185974008098
 20
302.0780575413213
 42
1.00271558083565
 10
458.782311988641
 20
299.4474966049184
 10
459.5951532572663
 20
296.3502169579113
 42
-0.9990933521924379
 10
456.3228442994859
 20
295.4495390980121
 10
455.4507281778114
 20
298.5305324474407
 42
1.002715580833471
 10
445.6536988264172
 20
295.7573434099432
 10
446.5106271966246
 20
292.6719613596399
 42
-0.9990933521719703
 10
443.2517499108487
 20
291.7238340692738
 10
442.3349610341386
 20
294.7918309246359
 42
1.002715580834941
 10
432.5792584405729
 20
291.8765902046144
 10
433.4801060545453
 20
288.8037348644587
 42
-0.9204633716674276
 10
430.3384208586773
 20
287.5506235335384
 42
0.0267701390991818
 10
429.6815668067042
 20
288.7089938226747
 42
0.2362533895199553
 10
421.9928007394978
 20
293.2910568039745
 10
419.153778990889
 20
293.4999071134648
 42
0.1906663047732468
 10
411.2971053495598
 20
290.3542956701358
 10
410.2072948546395
 20
289.3761167921912
 42
0.2204121905022486
 10
406.890982159229
 20
281.6497489534792
 42
0.0352937193664096
 10
407.0626008882936
 20
279.9219868135278
 42
-0.9236354484240488
 10
403.8608471997348
 20
279.1081344813323
 10
402.730921766642
 20
282.3594366725724
 42
1.002651147388232
 10
393.3399055483797
 20
279.0957753083683
 10
393.749673412374
 20
277.8702785229762
 42
-0.9991166294526856
 10
390.6271126219828
 20
276.7602327885396
 10
390.1857465454454
 20
277.9745255280427
 42
1.002651147427106
 10
380.8418715816887
 20
274.5782523097156
 42
-1.002924999352415
 10
377.730952797163
 20
273.4360235113598
 42
1.001324718640939
 10
368.440222349367
 20
269.8968825819941
 42
-0.9966435918164279
 10
365.3536645968652
 20
268.6903863736761
 42
0.4155066112072222
 10
358.8941075320533
 20
271.5035497438407
 42
0.0917451017374951
 10
67.88426542937964
 20
89.11645481571463
 42
1.0
 10
74.60876092609919
 20
81.79357803711196
 42
-0.0904532956793794
 10
358.1078570739085
 20
260.4867911844469
 42
-1.0
 10
359.3432257230905
 20
257.4116553662079
 42
0.0902995176686161
 10
77.26852975637462
 20
79.73647578438613
 42
1.0
 10
83.98855610537145
 20
72.40949756217332
 42
-0.1054723563529903
 10
414.98701626022
 20
267.2591398876815
 42
-0.0915473703981403
 10
418.5833021256642
 20
267.763350684526
 42
0.1798482703881671
 10
428.0322112740281
 20
270.8172210962157
 42
-0.0915473703981401
 10
431.2433350771075
 20
272.5131528386349
 42
-0.0734532985565766
 10
696.9623719162151
 20
314.4896487866577
 42
-1.0
 10
696.9956280837845
 20
311.1758156545702
 42
0.0735616060549809
 10
431.8560355683209
 20
269.2323042849297
 42
0.0771221841550325
 10
429.1050239348075
 20
267.8772169580186
 42
-0.1506394512990268
 10
419.4340896423992
 20
264.751588419819
 42
0.0771221841550314
 10
416.4103663636437
 20
264.2402918280128
 42
0.1054225649641735
 10
86.6531113300191
 20
70.35630404642893
 42
1.0
 10
93.36853591333374
 20
63.02510791852341
 42
-0.1063678473808463
 10
422.7721960132503
 20
255.8733539953812
 42
-0.0329927840945367
 10
424.0489179029295
 20
256.2017346480302
 42
0.0634919726630364
 10
430.3670176343453
 20
258.2437330972601
 42
-0.0329927840945782
 10
431.5944291434957
 20
258.7246838471608
 42
-0.0744646016751582
 10
696.962128523679
 20
301.2329690496183
 42
-1.0
 10
696.9958714763205
 20
297.9191408384484
 42
0.1847499663739895
 10
96.03802426705295
 20
60.97593099426399
 42
1.0
 10
102.7487084772298
 20
53.64039546975892
 42
-0.1847108610755751
 10
696.9618779000118
 20
287.9762690788078
 42
-1.0
 10
696.9961220999878
 20
284.662446009486
 42
0.1845387427064763
 10
105.423283534694
 20
51.59534749963427
 42
1.0
 10
112.1290824087362
 20
44.25534576524114
 42
-0.1844984610635029
 10
696.9616197181013
 20
274.7195479571043
 42
-1.0
 10
696.9963802818982
 20
271.405730263989
 42
0.1843211207564861
 10
114.808905015695
 20
42.21454387360393
 42
1.0
 10
121.5096668406271
 20
34.86994347837947
 42
-0.1842796088745602
 10
696.961353630804
 20
261.4628047111096
 42
-1.0
 10
696.9966463691955
 20
258.1489926430197
 42
0.1840968052204938
 10
124.1949055794587
 20
32.83350982281513
 42
1.0
 10
130.8904714668235
 20
25.48417233920793
 42
-0.1009147236234672
 10
424.06768707145
 20
200.3216923397177
 42
-1.0
 10
425.1621909263192
 20
197.1936486520952
 42
0.1007305174686068
 10
133.5813031598948
 20
23.4522344015785
 42
1.0
 10
140.2715065861969
 20
16.09801506063582
 42
-0.1022937579350909
 10
433.364023223053
 20
189.5133749825763
 42
0.3978795451329477
 10
436.5364862045445
 20
195.5620646612442
 42
-0.3731329228193476
 10
441.5583309094885
 20
206.2303247952443
 42
-0.0678965528080899
 10
668.7919429772395
 20
247.4365534741185
 42
-1.0
 10
668.9370637618443
 20
244.1257324342739
 42
0.0634819677609635
 10
456.8505861648469
 20
207.5890591595155
 42
1.0
 10
459.7638656508155
 20
198.0834730841262
 42
-0.0654335145660464
 10
675.9050396963381
 20
234.4541720880442
 42
0.4133532895569054
 10
680.6942500032573
 20
239.5864175577227
 10
680.4554888174773
 20
246.2102293125643
 42
-0.4144982055586228
 10
682.0649663765946
 20
247.914992073565
 42
-0.0043602969052375
 10
696.9610792693867
 20
248.2060383067618
 42
-1.0
 10
696.9969207306129
 20
244.8922321281121
 42
0.0020333064822643
 10
690.0768121862332
 20
244.7892395762429
 42
0.4086744756112907
 10
685.1999999999998
 20
239.8191319661667
 10
685.1999999999998
 20
237.2446476190021
  0
LWPOLYLINE
  5
4F4D
330
2
100
AcDbEntity
  8
copper
100
AcDbPolyline
 90
      364
 70
   128
 43
1.709999999999999
 10
721.1999999999997
 20
237.2446476190021
 10
721.1999999999997
 20
239.8657678331712
 42
0.4096012490217629
 10
719.5691348805097
 20
241.5225617153486
 42
0.0012394219129456
 10
715.3672378081607
 20
241.5784259494623
 42
-1.0
 10
715.474762191839
 20
251.5198444854117
 42
-0.0043602969052375
 10
730.4286630523209
 20
251.2276691677054
 42
-0.4150676650477991
 10
735.2568040124097
 20
246.1037242857138
 10
735.0180461423394
 20
239.4800133992177
 42
0.4139267470234988
 10
736.6143390176286
 20
237.7660212275207
 42
-0.0654335145660464
 10
953.6072275111736
 20
201.2520017759227
 42
1.0
 10
954.5783206731631
 20
204.4205304677191
 42
0.0634819677609635
 10
743.3178154535504
 20
240.8149113944297
 42
-1.0
 10
743.753177807365
 20
250.7473745139626
 42
-0.0679420786123489
 10
972.0161171328037
 20
209.3331201247985
 42
-0.3773361308553527
 10
979.0536120974707
 20
194.6643626931735
 42
0.3978795451329451
 10
980.1110997579678
 20
192.6481328002842
 42
-0.1022937579350909
 10
1274.35856122257
 20
18.54942150761678
 42
1.0
 10
1276.588629031338
 20
21.00082795459775
 42
0.1007305174686069
 10
986.1433052188111
 20
194.0656049644724
 42
-1.0
 10
989.4268167834189
 20
203.4497360273403
 42
-0.1009147236234672
 10
1283.741383828964
 20
27.93395150041045
 42
1.0
 10
1285.973239124752
 20
30.38373066161273
 42
0.1840968052204938
 10
715.3680608924124
 20
254.8351805749301
 42
-1.0
 10
715.4739391075871
 20
264.7766167791992
 42
-0.1842796088745601
 10
1293.12392043435
 20
37.31814361012107
 42
1.0
 10
1295.357507709327
 20
39.76634374186256
 42
0.1843211207564861
 10
715.3688591543045
 20
268.0919125708737
 42
-1.0
 10
715.473140845695
 20
278.0333656502195
 42
-0.184498461063503
 10
1302.506183882611
 20
46.70201301003885
 42
1.0
 10
1304.741450173958
 20
49.14868025483656
 42
0.1845387427064764
 10
715.3696337000358
 20
281.3486229401645
 42
-1.0
 10
715.4723662999638
 20
291.2900921481293
 42
-0.1847108610755751
 10
1311.888186259495
 20
56.08557397792731
 42
1.0
 10
1314.125080996221
 20
58.5307524860957
 42
0.1847499663739896
 10
715.3703855710376
 20
294.6053126272782
 42
-1.0
 10
715.4716144289619
 20
304.5467972607887
 42
-0.074001076425378
 10
980.2078238785812
 20
262.3899730474339
 42
-0.0491452143513796
 10
982.0111301985955
 20
261.6193304190657
 42
0.0950190859010811
 10
990.3444085443313
 20
258.9260298726398
 42
-0.0491452143513742
 10
992.2576371170208
 20
258.4954951201454
 42
-0.1059016695901512
 10
1321.269938947771
 20
65.46883996115866
 42
1.0
 10
1323.508413808875
 20
67.91257200379368
 42
0.1056099507719418
 10
994.2997505399056
 20
261.3098444055864
 42
0.0632844546037109
 10
991.8259167938472
 20
261.7966736564849
 42
-0.1229607471128375
 10
982.4899351954774
 20
264.8140460874897
 42
0.0632844546036966
 10
980.1991182519294
 20
265.8671433545158
 42
0.0737479339205211
 10
715.3711157486457
 20
307.8619825224832
 42
-1.0
 10
715.4708842513539
 20
317.8034819187447
 42
-0.0734116147879773
 10
982.0003083133729
 20
275.7216184455538
 42
-0.1073423683131444
 10
985.6902792196073
 20
273.6234497673244
 42
0.2122467581417775
 10
994.3867418443588
 20
270.8127687163067
 42
-0.1073423683131422
 10
998.6067121031878
 20
270.3544586621338
 42
-0.1054304351139891
 10
1330.651452677627
 20
74.85182363624438
 42
1.0
 10
1332.891461460626
 20
77.29414971031508
 42
0.0902995176686161
 10
1051.821405627727
 20
254.3365195479687
 42
-1.0
 10
1055.527511575273
 20
263.5619270026864
 42
-0.0904532956793794
 10
1340.032737572807
 20
84.23453696331296
 42
1.0
 10
1342.274236071713
 20
86.67549588951363
 42
0.0917451017374951
 10
1052.286299099859
 20
268.4221234480294
 42
0.4144720771255274
 10
1050.135251695656
 20
267.4898469998796
 42
-0.9974117612032449
 10
1040.865603655776
 20
271.0837759574582
 42
0.996915898676381
 10
1037.771573600655
 20
272.2709866517483
 42
-0.9986210647985622
 10
1028.447504779734
 20
275.721336839273
 42
1.000882929829803
 10
1025.332870087041
 20
276.8534314364592
 10
1024.891509474859
 20
275.6391538660399
 42
-0.9973522233351685
 10
1015.523856369616
 20
278.9692806655079
 10
1015.933601036645
 20
280.1947114251303
 42
1.000882934158414
 10
1012.803252544461
 20
281.2826019358474
 10
1011.673341127455
 20
278.0313404520349
 42
-0.9228150507794927
 10
1002.070926750475
 20
280.4812312263889
 42
0.032361946503278
 10
1002.19274295818
 20
281.6386496324991
 42
0.2162728066265204
 10
999.8601945411602
 20
287.3812736525188
 10
999.3720939480093
 20
287.8442498489495
 42
0.2241154046529176
 10
992.6121449329064
 20
290.4796477768888
 10
991.0083251292071
 20
290.2882490514185
 42
0.2233013297520102
 10
985.5959143251849
 20
286.9087105230317
 42
0.0277368316335114
 10
985.0992899533668
 20
286.0368372136148
 42
-0.9196259362380983
 10
975.6715417792271
 20
289.7873367335151
 10
976.5723597214838
 20
292.8600939788383
 42
1.000904373511106
 10
973.3204482277079
 20
293.831844061772
 10
972.4036712570692
 20
290.7638874811171
 42
-0.9972825159133231
 10
962.6270715749349
 20
293.6082599912543
 10
963.4839725586646
 20
296.6935465114542
 42
1.000904373490275
 10
960.218285433925
 20
297.6179458787973
 10
959.3461806318934
 20
294.5369929727883
 42
-0.9972825159148806
 10
949.5292860663631
 20
297.2390176600163
 10
950.3421021559397
 20
300.3362043987227
 42
1.000904373513582
 10
947.0633296348333
 20
301.2130609102866
 10
946.2360782719233
 20
298.1197628681907
 42
-0.9972825159170156
 10
936.380963648207
 20
300.6788783549445
 10
937.1495357700871
 20
303.7873341482503
 42
1.000904373496166
 10
933.8583707211988
 20
304.6164657469788
 10
933.076144555202
 20
301.5114762430136
 42
-0.9972825159179953
 10
923.1848923807133
 20
303.9271514574833
 10
923.9090703456698
 20
307.0462431543209
 42
1.000904373494544
 10
920.6062081236785
 20
307.8274779011016
 10
919.8691693668529
 20
304.7114529548265
 42
-0.9972825159196784
 10
909.9438693867506
 20
306.9831872320061
 10
910.6235119106058
 20
310.1122798146112
 42
1.000904373493861
 10
907.3096502078971
 20
310.8454559205736
 10
906.6179514963017
 20
307.719053757243
 42
-0.9972825159189998
 10
896.6607002478324
 20
309.8463769334405
 10
897.2956749707009
 20
312.9848336379067
 42
1.000904373494288
 10
893.9715136687567
 20
313.6697994952247
 10
893.3252980334877
 20
310.5336804050751
 42
-0.9972825159166136
 10
883.338198399211
 20
312.516152905808
 10
883.9283819032537
 20
315.6633353427084
 42
1.000904373492153
 10
880.594622923501
 20
316.2999495523768
 10
879.9940237641921
 20
313.1547757504482
 42
-0.9972825159171915
 10
869.9791845242012
 20
314.9919886717704
 10
870.5244623499021
 20
318.1472569468621
 42
1.000904373505472
 10
867.1818095044041
 20
318.7353883450358
 10
866.6269505646168
 20
315.5818238298392
 42
-0.9972825159164882
 10
856.5864859478566
 20
317.2733990131265
 10
857.0867526088132
 20
320.4361118480674
 42
1.000904373499922
 10
853.7359114505669
 20
320.9756395296887
 10
853.2269067953846
 20
317.8143499422266
 42
-0.9972825159172165
 10
843.1629360301338
 20
319.3599400422556
 10
843.6180950263809
 20
322.5294548953828
 42
1.00090437348797
 10
840.2597726993898
 20
323.0202682357343
 10
839.7967266950431
 20
319.851920718091
 42
-0.9972825159178697
 10
829.7113735586982
 20
321.2512092645851
 10
830.1213373885586
 20
324.4268824517161
 42
1.000904373490702
 10
826.7562424777098
 20
324.8688811259381
 10
826.3392497732539
 20
321.6941441794887
 42
-0.9972825159165886
 10
816.2346421414945
 20
322.9468456320794
 10
816.5993323119634
 20
326.1280324472981
 42
1.000904373497361
 10
813.2281746926842
 20
326.5211264475191
 10
812.8573202037905
 20
323.3406697911941
 42
-0.9972825159170406
 10
802.7355895992112
 20
324.4465295876653
 10
803.0549366348795
 20
327.6325844241142
 42
1.000904373496593
 10
799.6784273226496
 20
327.9766940744583
 10
799.3537862174585
 20
324.7911885027435
 42
-0.9972825159167642
 10
789.217067357793
 20
325.7499831007833
 10
789.4910108083136
 20
328.9402595714464
 42
1.000904373497617
 10
786.1098618080545
 20
329.2353155408512
 10
785.8314994951048
 20
326.045432781663
 42
-0.9972825159168648
 10
775.681929841117
 20
326.8569696939358
 10
775.9104182872179
 20
330.0508207523912
 42
1.000904373501715
 10
772.5253424425809
 20
330.2967640651481
 10
772.2933145608244
 20
327.1031766376996
 42
-0.9972825159181207
 10
762.1330338639739
 20
327.7672944603339
 10
762.316024922018
 20
330.9640725214339
 42
1.0009043734983
 10
758.9277357646222
 20
331.1608545656036
 10
758.7420881755075
 20
327.9642356381489
 42
-0.9972825159165886
 10
748.5732380254843
 20
328.480804072632
 10
748.7106983505882
 20
331.6798611331805
 42
1.000904373496934
 10
745.3199099492264
 20
331.8274436667829
 10
745.1806787308588
 20
328.6284669143563
 42
-0.9972825159171662
 10
735.0054021030814
 20
328.9973867828069
 10
735.097307390788
 20
332.1980745421253
 42
1.000904373498727
 10
731.7047342006385
 20
332.2964296971162
 10
731.6119456440118
 20
329.09576915928
 42
-0.9972825159172165
 10
721.4323864471897
 20
329.3169724131607
 10
721.4787214337036
 20
332.5186423936117
 42
1.000904373498556
 10
718.0850781455793
 20
332.5677526777054
 10
718.0387487528768
 20
329.366082616301
 42
-0.9972825159171662
 10
707.8570513767299
 20
329.4395323385326
 10
707.857047722805
 20
339.3895477917249
 42
-0.4149838101192401
 10
712.8628509643098
 20
344.3386435692414
 42
-0.0753602113815356
 10
994.1995189216719
 20
299.6733451663922
 42
0.0402242268011728
 10
995.7645060355549
 20
299.3110747440361
 42
-0.0829537615684919
 10
1001.252093010752
 20
297.5374965211967
 42
0.040224226801189
 10
1002.733077169522
 20
296.915314516468
 42
-0.1069297594116805
 10
1349.413803192872
 20
93.61699123603273
 42
1.0
 10
1351.656749084838
 20
96.05662024998345
 42
0.186235813123658
 10
712.7936309486179
 20
347.6532058389522
 42
-1.0
 10
712.8623690513816
 20
357.5949682115517
 42
-0.1863850231047838
 10
1358.794658571981
 20
102.9991971274133
 42
1.0
 10
1361.039011311871
 20
105.4375319647456
 42
0.1864094178613065
 10
712.7940997157121
 20
360.9095151424132
 42
-1.0
 10
712.8619002842874
 20
370.8512839529873
 42
-0.1865545907477588
 10
1368.175312254516
 20
112.3811647318803
 42
1.0
 10
1370.42103297675
 20
114.8182397076921
 42
0.1865783304404202
 10
712.7945558676312
 20
374.1658161642373
 42
-1.0
 10
712.8614441323683
 20
384.1075911546526
 42
-0.1867196279410519
 10
1377.555772327841
 20
121.7629036039721
 42
1.0
 10
1379.802823754921
 20
124.1987516870962
 42
0.1867427386069468
 10
712.7949999068521
 20
387.422109232639
 42
-1.0
 10
712.8610000931474
 20
397.3638901583789
 42
-0.1868803139052617
 10
1386.936046452469
 20
131.1444227939718
 42
1.0
 10
1389.184392809647
 20
133.5790756764507
 42
0.3911083871546033
 10
23.21560719035233
 20
133.5790756764507
 42
1.0
 10
25.46395354753031
 20
131.1444227939718
 42
-0.1868803139052618
 10
699.5389999068521
 20
397.363890158379
 42
-1.0
 10
699.6050000931475
 20
387.4221092326388
 42
0.1867427386069469
 10
32.59717624507857
 20
124.1987516870959
 42
1.0
 10
34.84422767215836
 20
121.7629036039719
 42
-0.1867196279410519
 10
699.5385558676312
 20
384.1075911546523
 42
-1.0
 10
699.6054441323683
 20
374.1658161642373
 42
0.1865783304404202
 10
41.97896702324965
 20
114.8182397076921
 42
1.0
 10
44.22468774548327
 20
112.3811647318803
 42
-0.1865545907477587
 10
699.5380997157122
 20
370.8512839529869
 42
-1.0
 10
699.6059002842875
 20
360.9095151424133
 42
0.1864094178613065
 10
51.36098868812837
 20
105.4375319647454
 42
1.0
 10
53.6053414280185
 20
102.9991971274132
 42
-0.1863850231047839
 10
699.537630948618
 20
357.5949682115514
 42
-1.0
 10
699.6063690513816
 20
347.6532058389522
 42
0.1862358131236579
 10
60.74325091516119
 20
96.05662024998345
 42
1.0
 10
62.98619680712784
 20
93.61699123603273
 42
-0.1069297594116805
 10
409.6669228304776
 20
296.915314516468
 42
0.0402242268011837
 10
411.1479069892474
 20
297.5374965211967
 42
-0.0829537615684927
 10
416.6354939644446
 20
299.3110747440361
 42
0.0402242268011755
 10
418.2004810783277
 20
299.6733451663922
 42
-0.0753602113815355
 10
699.5371490356898
 20
344.3386435692413
 42
-0.4149838101192337
 10
704.5429522771946
 20
339.3895477917249
 10
704.5429486232697
 20
329.4395323385326
 42
-0.9972825159171662
 10
694.3612512471228
 20
329.366082616301
 10
694.3149218544203
 20
332.5677526777034
 42
1.000904373497873
 10
690.9212785662959
 20
332.518642393612
 10
690.9676135528099
 20
329.3169724131608
 42
-0.9972825159171915
 10
680.7880543559879
 20
329.0957691592796
 10
680.6952657993611
 20
332.296429697116
 42
1.000904373498642
 10
677.3026926092114
 20
332.1980745421314
 10
677.3945978969181
 20
328.9973867828069
 42
-0.9972825159171662
 10
667.2193212691407
 20
328.6284669143563
 10
667.0800900507731
 20
331.8274436667829
 42
1.000904373496934
 10
663.6893016494114
 20
331.6798611331805
 10
663.8267619745152
 20
328.480804072632
 42
-0.9972825159165886
 10
653.6579118244921
 20
327.9642356381489
 10
653.4722642353774
 20
331.160854565604
 42
1.000904373496507
 10
650.0839750779817
 20
330.964072521431
 10
650.2669661360256
 20
327.7672944603339
 42
-0.9972825159181207
 10
640.1066854391752
 20
327.1031766376996
 10
639.8746575574186
 20
330.2967640651481
 42
1.000904373501715
 10
636.4895817127817
 20
330.0508207523912
 10
636.7180701588826
 20
326.8569696939358
 42
-0.9972825159168648
 10
626.5685005048948
 20
326.045432781663
 10
626.2901381919451
 20
329.2353155408512
 42
1.000904373497617
 10
622.908989191686
 20
328.9402595714464
 10
623.1829326422066
 20
325.7499831007833
 42
-0.9972825159167642
 10
613.046213782541
 20
324.7911885027435
 10
612.7215726773499
 20
327.9766940744581
 42
1.000904373497788
 10
609.34506336512
 20
327.6325844241157
 10
609.6644104007885
 20
324.4465295876653
 42
-0.9972825159170406
 10
599.5426797962091
 20
323.3406697911941
 10
599.1718253073153
 20
326.5211264475189
 42
1.00090437349719
 10
595.8006676880363
 20
326.1280324472962
 10
596.1653578585051
 20
322.9468456320792
 42
-0.9972825159166889
 10
586.0607502267455
 20
321.694144179491
 10
585.6437575222896
 20
324.8688811259383
 42
1.000904373500605
 10
582.27866261144
 20
324.4268824517235
 10
582.6886264413014
 20
321.251209264585
 42
-0.9972825159148303
 10
572.6032733049581
 20
319.8519207180806
 10
572.14022730061
 20
323.0202682357336
 42
1.000904373496507
 10
568.781904973619
 20
322.5294548953812
 10
569.2370639698658
 20
319.3599400422556
 42
-0.9972825159172165
 10
559.173093204615
 20
317.8143499422266
 10
558.6640885494327
 20
320.9756395296892
 42
1.000904373501118
 10
555.3132473911853
 20
320.4361118480739
 10
555.813514052143
 20
317.2733990131265
 42
-0.9972825159164882
 10
545.7730494353827
 20
315.5818238298392
 10
545.2181904955955
 20
318.7353883450358
 42
1.000904373505472
 10
541.8755376500975
 20
318.1472569468621
 10
542.4208154757983
 20
314.9919886717703
 42
-0.9972825159166136
 10
532.4059762358074
 20
313.1547757504492
 10
531.8053770764986
 20
316.2999495523768
 42
1.000904373492153
 10
528.4716180967458
 20
315.6633353427084
 10
529.0618016007885
 20
312.516152905808
 42
-0.9972825159166136
 10
519.0747019665119
 20
310.5336804050751
 10
518.4284863312427
 20
313.6697994952251
 42
1.000904373505898
 10
515.1043250292989
 20
312.9848336379056
 10
515.7392997521672
 20
309.8463769334407
 42
-0.9972825159178697
 10
505.7820485036992
 20
307.7190537572368
 10
505.0903497921025
 20
310.8454559205739
 42
1.000904373501203
 10
501.7764880893923
 20
310.1122798146175
 10
502.456130613249
 20
306.9831872320061
 42
-0.9972825159196784
 10
492.5308306331467
 20
304.7114529548265
 10
491.793791876321
 20
307.8274779011016
 42
1.000904373494544
 10
488.4909296543298
 20
307.0462431543209
 10
489.2151076192864
 20
303.9271514574833
 42
-0.9972825159183468
 10
479.3238554447983
 20
301.5114762430108
 10
478.541629278801
 20
304.6164657469783
 42
1.000904373503935
 10
475.2504642299132
 20
303.787334148248
 10
476.0190363517927
 20
300.6788783549443
 42
-0.9972825159169904
 10
466.1639217280763
 20
298.1197628681907
 10
465.3366703651663
 20
301.2130609102868
 42
1.000904373490532
 10
462.057897844061
 20
300.3362043987187
 10
462.8707139336365
 20
297.2390176600163
 42
-0.9972825159172165
 10
453.0538193681046
 20
294.5369929727934
 10
452.1817145660746
 20
297.6179458787973
 42
1.000904373490275
 10
448.9160274413349
 20
296.6935465114542
 10
449.7729284250647
 20
293.6082599912542
 42
-0.9972825159139764
 10
439.9963287429299
 20
290.7638874811192
 10
439.0795517722918
 20
293.8318440617718
 42
1.000904373506496
 10
435.8276402785178
 20
292.8600939788314
 10
436.7284582207724
 20
289.7873367335152
 42
-0.9196259362380413
 10
427.3007100466328
 20
286.036837213615
 42
0.0277368316335802
 10
426.8040856748132
 20
286.9087105230338
 42
0.2233013297519171
 10
421.3916748707924
 20
290.2882490514183
 10
419.7878550670933
 20
290.4796477768888
 42
0.2241154046529095
 10
413.0279060519905
 20
287.8442498489497
 10
412.5398054588394
 20
287.3812736525188
 42
0.2162728066265003
 10
410.2072570418191
 20
281.6386496324997
 42
0.0323619465032938
 10
410.3290732495241
 20
280.4812312263889
 42
-0.9228150507794927
 10
400.7266588725441
 20
278.0313404520349
 10
399.5967474555381
 20
281.2826019358474
 42
1.000882934158414
 10
396.4663989633543
 20
280.1947114251303
 10
396.8761436303826
 20
278.9692806655096
 42
-0.9973522233356282
 10
387.50849052514
 20
275.6391538660401
 10
387.0671299129857
 20
276.8534314363852
 42
1.00088294783069
 10
383.9524952243948
 20
275.7213368280657
 42
-0.9986210635770989
 10
374.6284264005549
 20
272.270986648478
 42
0.9969158948467409
 10
371.5343963433325
 20
271.083775959774
 42
-0.9974117614187667
 10
362.2647483043988
 20
267.4898469997397
 42
0.4144720771521286
 10
360.1137009001408
 20
268.4221234480296
 42
0.0917451017374951
 10
70.12576392828623
 20
86.67549588951374
 42
1.0
 10
72.3672624271926
 20
84.23453696331296
 42
-0.0904532956793794
 10
356.8724884247263
 20
263.5619270026864
 42
-1.0
 10
360.5785943722727
 20
254.3365195479687
 42
0.0902995176686161
 10
79.5085385393736
 20
77.29414971031508
 42
1.0
 10
81.74854732237236
 20
74.85182363624438
 42
-0.1054304351139891
 10
413.7932878968116
 20
270.3544586621338
 42
-0.1073423683131453
 10
418.0132581556409
 20
270.8127687163067
 42
0.2122467581417775
 10
426.7097207803923
 20
273.6234497673244
 42
-0.1073423683131443
 10
430.3996916866267
 20
275.7216184455538
 42
-0.0734116147879773
 10
696.9291157486456
 20
317.8034819187444
 42
-1.0
 10
697.0288842513539
 20
307.8619825224832
 42
0.0737479339205211
 10
432.2008817480702
 20
265.8671433545156
 42
0.063284454603707
 10
429.9100648045218
 20
264.8140460874895
 42
-0.1229607471128327
 10
420.5740832061525
 20
261.796673656485
 42
0.0632844546036991
 10
418.1002494600945
 20
261.3098444055867
 42
0.105609950771942
 10
88.89158619112391
 20
67.91257200379391
 42
1.0
 10
91.13006105222893
 20
65.46883996115866
 42
-0.1059016695901512
 10
420.1423628829787
 20
258.4954951201455
 42
-0.0491452143513644
 10
422.055591455668
 20
258.9260298726399
 42
0.0950190859010865
 10
430.3888698014042
 20
261.6193304190658
 42
-0.0491452143513682
 10
432.1921761214182
 20
262.3899730474338
 42
-0.0740010764253781
 10
696.9283855710377
 20
304.5467972607884
 42
-1.0
 10
697.0296144289619
 20
294.6053126272782
 42
0.1847499663739895
 10
98.27491900377845
 20
58.5307524860957
 42
1.0
 10
100.5118137405041
 20
56.08557397792731
 42
-0.1847108610755751
 10
696.9276337000358
 20
291.2900921481293
 42
-1.0
 10
697.0303662999638
 20
281.3486229401645
 42
0.1845387427064764
 10
107.6585498260413
 20
49.14868025483656
 42
1.0
 10
109.8938161173888
 20
46.70201301003885
 42
-0.1844984610635029
 10
696.9268591543046
 20
278.0333656502197
 42
-1.0
 10
697.031140845695
 20
268.0919125708737
 42
0.1843211207564861
 10
117.0424922906722
 20
39.76634374186244
 42
1.0
 10
119.2760795656497
 20
37.31814361012096
 42
-0.1842796088745602
 10
696.9260608924124
 20
264.7766167791991
 42
-1.0
 10
697.0319391075872
 20
254.8351805749301
 42
0.1840968052204938
 10
126.426760875247
 20
30.38373066161284
 42
1.0
 10
128.6586161710354
 20
27.93395150041033
 42
-0.1009147236234672
 10
422.9731832165807
 20
203.4497360273402
 42
-1.0
 10
426.2566947811885
 20
194.0656049644723
 42
0.1007305174686068
 10
135.811370968662
 20
21.00082795459764
 42
1.0
 10
138.0414387774292
 20
18.54942150761678
 42
-0.1022937579350909
 10
432.2889002420319
 20
192.6481328002841
 42
0.3978795451329388
 10
433.346387902529
 20
194.6643626931734
 42
-0.3773361308553231
 10
440.3838828671944
 20
209.333120124798
 42
-0.0679420786123494
 10
668.6468221926345
 20
250.7473745139626
 42
-1.0
 10
669.0821845464491
 20
240.8149113944297
 42
0.0634819677609635
 10
457.8216793268364
 20
204.4205304677192
 42
1.0
 10
458.792772488826
 20
201.2520017759226
 42
-0.0654335145660464
 10
675.785660982371
 20
237.7660212275206
 42
0.413926747022874
 10
677.3819538576603
 20
239.480013399214
 10
677.1431959875899
 20
246.1037242857144
 42
-0.4150676650477726
 10
681.9713369476787
 20
251.2276691677055
 42
-0.0043602969052375
 10
696.9252378081606
 20
251.5198444854117
 42
-1.0
 10
697.032762191839
 20
241.5784259494623
 42
0.0012394219129456
 10
692.8308651194899
 20
241.5225617153485
 42
0.4096012490217831
 10
691.1999999999998
 20
239.8657678331709
 10
691.1999999999998
 20
237.2446476190021
  0
LWPOLYLINE
  5
50BB
330
2
100
AcDbEntity
  8
mechanical
100
AcDbPolyline
 90
        2
 70
   128
 43
0.25
 10
413.1999999999997
 20
282.0000000000013
 42
0.9999999999999998
 10
425.1999999999998
 20
282.0000000000013
  0
LWPOLYLINE
  5
50BC
330
2
100
AcDbEntity
  8
mechanical
100
AcDbPolyline
 90
        2
 70
   128
 43
0.25
 10
425.1999999999998
 20
282.0000000000007
 42
0.9999999999999053
 10
413.1999999999997
 20
282.0000000000007
  0
LWPOLYLINE
  5
50C0
330
2
100
AcDbEntity
  8
mechanical
100
AcDbPolyline
 90
        2
 70
   128
 43
0.25
 10
451.1999999999995
 20
198.0000000000007
 42
0.9999999999999053
 10
439.1999999999995
 20
198.0000000000007
  0
LWPOLYLINE
  5
50C1
330
2
100
AcDbEntity
  8
mechanical
100
AcDbPolyline
 90
        2
 70
   128
 43
0.25
 10
439.1999999999995
 20
198.0000000000012
 42
0.9999999999999998
 10
451.1999999999995
 20
198.0000000000012
  0
LWPOLYLINE
  5
50C2
330
2
100
AcDbEntity
  8
mechanical
100
AcDbPolyline
 90
        2
 70
   128
 43
0.25
 10
973.1999999999997
 20
198.0000000000004
 42
0.9999999999999053
 10
961.1999999999996
 20
198.0000000000004
  0
LWPOLYLINE
  5
50C3
330
2
100
AcDbEntity
  8
mechanical
100
AcDbPolyline
 90
        2
 70
   128
 43
0.25
 10
961.1999999999996
 20
198.000000000001
 42
0.9999999999999998
 10
973.1999999999997
 20
198.000000000001
  0
LWPOLYLINE
  5
50C4
330
2
100
AcDbEntity
  8
mechanical
100
AcDbPolyline
 90
        2
 70
   128
 43
0.25
 10
999.2000000000118
 20
281.9999999999993
 42
0.9999999999999053
 10
987.2000000000118
 20
281.9999999999993
  0
LWPOLYLINE
  5
50C5
330
2
100
AcDbEntity
  8
mechanical
100
AcDbPolyline
 90
        2
 70
   128
 43
0.25
 10
987.2000000000118
 20
281.9999999999999
 42
0.9999999999999998
 10
999.2000000000118
 20
281.9999999999999
  0
LWPOLYLINE
  5
50DB
330
2
100
AcDbEntity
  8
copper
100
AcDbPolyline
 90
        2
 70
   128
 43
1.709999999999999
 10
685.4045905271886
 20
241.2305786486509
 42
0.2772487272423218
 10
686.1779664425031
 20
238.2394373642938
  0
LWPOLYLINE
  5
50DC
330
2
100
AcDbEntity
  8
copper
100
AcDbPolyline
 90
        2
 70
   128
 43
1.709999999999999
 10
684.0583520157374
 20
238.0463114388354
 42
0.0984875246417094
 10
685.3192897439985
 20
240.9016053338817
  0
LWPOLYLINE
  5
50E7
330
2
100
AcDbEntity
  8
copper
100
AcDbPolyline
 90
        2
 70
   128
 43
1.709999999999999
 10
691.1999999999998
 20
239.7207382877782
 42
0.2623114418449128
 10
691.922797927461
 20
238.4377897547336
  0
LWPOLYLINE
  5
50E8
330
2
100
AcDbEntity
  8
copper
100
AcDbPolyline
 90
        2
 70
   128
 43
1.709999999999999
 10
690.2613794047173
 20
238.2766439262201
 42
0.1760358254290049
 10
691.2152430088355
 20
240.0900065050445
  0
LWPOLYLINE
  5
50E9
330
2
100
AcDbEntity
  8
copper
100
AcDbPolyline
 90
        2
 70
   128
 43
1.709999999999999
 10
726.9954094728109
 20
241.2305786486509
 42
-0.2772487272423218
 10
726.2220335574965
 20
238.2394373642938
  0
LWPOLYLINE
  5
50EA
330
2
100
AcDbEntity
  8
copper
100
AcDbPolyline
 90
        2
 70
   128
 43
1.709999999999999
 10
728.3416479842621
 20
238.0463114388354
 42
-0.0984875246417094
 10
727.0807102560011
 20
240.9016053338817
  0
LWPOLYLINE
  5
50EB
330
2
100
AcDbEntity
  8
copper
100
AcDbPolyline
 90
        2
 70
   128
 43
1.709999999999999
 10
721.1999999999997
 20
239.7207382877782
 42
-0.2623114418449128
 10
720.4772020725386
 20
238.4377897547336
  0
LWPOLYLINE
  5
50EC
330
2
100
AcDbEntity
  8
copper
100
AcDbPolyline
 90
        2
 70
   128
 43
1.709999999999999
 10
722.1386205952823
 20
238.2766439262201
 42
-0.1760358254290049
 10
721.184756991164
 20
240.0900065050445
  0
LWPOLYLINE
  5
50EF
330
2
100
AcDbEntity
  8
mechanical
100
AcDbPolyline
 90
        2
 70
   129
 43
0.125
 10
9.937499999999772
 20
132.6004061737307
 42
1.0
 10
10.06249999999977
 20
132.6004061737307
 42
1.0
  0
LWPOLYLINE
  5
50F0
330
2
100
AcDbEntity
  8
mechanical
100
AcDbPolyline
 90
        2
 70
   129
 43
0.125
 10
132.5379061737304
 20
10.00000000000023
 42
1.0
 10
132.6629061737304
 20
10.00000000000023
 42
1.0
  0
LWPOLYLINE
  5
50F1
330
2
100
AcDbEntity
  8
mechanical
100
AcDbPolyline
 90
        2
 70
   129
 43
0.125
 10
140.9472665387344
 20
10.00000000000011
 42
1.0
 10
141.0722665387344
 20
10.00000000000011
 42
1.0
  0
LWPOLYLINE
  5
50F2
330
2
100
AcDbEntity
  8
mechanical
100
AcDbPolyline
 90
        2
 70
   129
 43
0.125
 10
1271.327733461265
 20
10.00000000000011
 42
1.0
 10
1271.452733461265
 20
10.00000000000011
 42
1.0
  0
LWPOLYLINE
  5
50F3
330
2
100
AcDbEntity
  8
mechanical
100
AcDbPolyline
 90
        2
 70
   129
 43
0.125
 10
1279.737093826269
 20
10.00000000000023
 42
1.0
 10
1279.862093826269
 20
10.00000000000023
 42
1.0
  0
LWPOLYLINE
  5
50F4
330
2
100
AcDbEntity
  8
mechanical
100
AcDbPolyline
 90
        2
 70
   129
 43
0.125
 10
1402.3375
 20
132.6004061737308
 42
1.0
 10
1402.4625
 20
132.6004061737308
 42
1.0
  0
LWPOLYLINE
  5
5109
330
2
100
AcDbEntity
  8
kapton
100
AcDbPolyline
 90
        2
 70
   128
 43
0.25
 10
1271.390233461265
 20
10.00000000000023
 42
0.3892494720807613
 10
141.0097665387344
 20
10.0
  0
LWPOLYLINE
  5
510A
330
2
100
AcDbEntity
  8
kapton
100
AcDbPolyline
 90
        2
 70
   128
 43
0.25
 10
1402.4
 20
132.6004061737308
 42
0.3970117693568934
 10
10.0
 20
132.6004061737308
  0
LWPOLYLINE
  5
510B
330
2
100
AcDbEntity
  8
kapton
100
AcDbPolyline
 90
        2
 70
   128
 43
0.25
 10
9.999999999999772
 20
132.6004061737308
 10
132.6004061737304
 20
10.00000000000023
  0
LWPOLYLINE
  5
510C
330
2
100
AcDbEntity
  8
kapton
100
AcDbPolyline
 90
        2
 70
   128
 43
0.25
 10
1402.4
 20
132.6004061737308
 10
1279.799593826269
 20
10.00000000000023
  0
LWPOLYLINE
  5
510D
330
2
100
AcDbEntity
  8
kapton
100
AcDbPolyline
 90
        2
 70
   128
 43
0.25
 10
132.6004061737304
 20
10.0
 10
141.0097665387343
 20
10.0
  0
LWPOLYLINE
  5
510E
330
2
100
AcDbEntity
  8
kapton
100
AcDbPolyline
 90
        2
 70
   128
 43
0.25
 10
1271.390233461265
 20
10.0
 10
1279.799593826269
 20
10.0
  0
LWPOLYLINE
  5
510F
330
2
100
AcDbEntity
  8
kapton
100
AcDbPolyline
 90
        2
 70
   128
 43
0.25
 10
425.1999999999998
 20
282.0000000000007
 42
0.9999999999999053
 10
413.1999999999997
 20
282.0000000000007
  0
LWPOLYLINE
  5
5110
330
2
100
AcDbEntity
  8
kapton
100
AcDbPolyline
 90
        2
 70
   128
 43
0.25
 10
413.1999999999997
 20
282.0000000000014
 42
0.9999999999999998
 10
425.1999999999998
 20
282.0000000000014
  0
LWPOLYLINE
  5
5111
330
2
100
AcDbEntity
  8
kapton
100
AcDbPolyline
 90
        2
 70
   128
 43
0.25
 10
451.1999999999995
 20
198.0000000000007
 42
0.9999999999999053
 10
439.1999999999995
 20
198.0000000000007
  0
LWPOLYLINE
  5
5112
330
2
100
AcDbEntity
  8
kapton
100
AcDbPolyline
 90
        2
 70
   128
 43
0.25
 10
439.1999999999995
 20
198.0000000000013
 42
0.9999999999999998
 10
451.1999999999995
 20
198.0000000000013
  0
LWPOLYLINE
  5
5113
330
2
100
AcDbEntity
  8
kapton
100
AcDbPolyline
 90
        2
 70
   128
 43
0.25
 10
973.1999999999997
 20
198.0000000000004
 42
0.9999999999999053
 10
961.1999999999996
 20
198.0000000000004
  0
LWPOLYLINE
  5
5114
330
2
100
AcDbEntity
  8
kapton
100
AcDbPolyline
 90
        2
 70
   128
 43
0.25
 10
961.1999999999996
 20
198.0000000000009
 42
0.9999999999999998
 10
973.1999999999997
 20
198.0000000000009
  0
LWPOLYLINE
  5
5115
330
2
100
AcDbEntity
  8
kapton
100
AcDbPolyline
 90
        2
 70
   128
 43
0.25
 10
999.2000000000118
 20
281.9999999999993
 42
0.9999999999999053
 10
987.2000000000118
 20
281.9999999999993
  0
LWPOLYLINE
  5
5116
330
2
100
AcDbEntity
  8
kapton
100
AcDbPolyline
 90
        2
 70
   128
 43
0.25
 10
987.2000000000118
 20
282.0
 42
0.9999999999999998
 10
999.2000000000118
 20
282.0
  0
LWPOLYLINE
  5
5117
330
2
100
AcDbEntity
  8
kapton
100
AcDbPolyline
 90
        2
 70
   129
 43
0.125
 10
9.937499999999772
 20
132.6004061737308
 42
1.0
 10
10.06249999999977
 20
132.6004061737308
 42
1.0
  0
LWPOLYLINE
  5
5118
330
2
100
AcDbEntity
  8
kapton
100
AcDbPolyline
 90
        2
 70
   129
 43
0.125
 10
132.5379061737304
 20
10.00000000000023
 42
1.0
 10
132.6629061737304
 20
10.00000000000023
 42
1.0
  0
LWPOLYLINE
  5
5119
330
2
100
AcDbEntity
  8
kapton
100
AcDbPolyline
 90
        2
 70
   129
 43
0.125
 10
140.9472665387344
 20
10.0
 42
1.0
 10
141.0722665387344
 20
10.0
 42
1.0
  0
LWPOLYLINE
  5
511A
330
2
100
AcDbEntity
  8
kapton
100
AcDbPolyline
 90
        2
 70
   129
 43
0.125
 10
1271.327733461265
 20
10.0
 42
1.0
 10
1271.452733461265
 20
10.0
 42
1.0
  0
LWPOLYLINE
  5
511B
330
2
100
AcDbEntity
  8
kapton
100
AcDbPolyline
 90
        2
 70
   129
 43
0.125
 10
1279.737093826269
 20
10.00000000000023
 42
1.0
 10
1279.862093826269
 20
10.00000000000023
 42
1.0
  0
LWPOLYLINE
  5
511C
330
2
100
AcDbEntity
  8
kapton
100
AcDbPolyline
 90
        2
 70
   129
 43
0.125
 10
1402.3375
 20
132.6004061737308
 42
1.0
 10
1402.4625
 20
132.6004061737308
 42
1.0
  0
LWPOLYLINE
  5
5143
102
{ACAD_REACTORS
330
5149
102
}
330
2
100
AcDbEntity
  8
kapton
100
AcDbPolyline
 90
        4
 70
     1
 43
0.25
 10
682.6999999999998
 20
238.2446476190021
 10
729.6999999999997
 20
238.2446476190021
 10
729.6999999999997
 20
232.7446476190021
 10
682.6999999999998
 20
232.7446476190021
  0
HATCH
  5
5149
330
2
100
AcDbEntity
  8
kapton
100
AcDbHatch
 10
0.0
 20
0.0
 30
0.0
210
0.0
220
0.0
230
1.0
  2
ANSI37
 70
     0
 71
     1
 91
        1
 92
        7
 72
     0
 73
     1
 93
        4
 10
729.6999999999997
 20
232.7446476190021
 10
729.6999999999997
 20
238.2446476190021
 10
682.6999999999998
 20
238.2446476190021
 10
682.6999999999998
 20
232.7446476190021
 97
        1
330
5143
 75
     0
 76
     1
 52
0.0
 41
0.5
 77
     0
 78
     2
 53
45.0
 43
706.1999999999998
 44
-606.0
 45
-1.122532015133643
 46
1.122532015133644
 79
     0
 53
135.0
 43
706.1999999999998
 44
-606.0
 45
-1.122532015133644
 46
-1.122532015133643
 79
     0
 47
0.0748854812177925
 98
        1
 10
706.6838392385616
 20
235.3068499352626
1001
ACAD
1010
0.0
1020
0.0
1030
0.0
  0
LWPOLYLINE
  5
5153
330
2
100
AcDbEntity
  8
mechanical
  6
Continuous
100
AcDbPolyline
 90
        2
 70
   128
 43
2.0
 10
0.0
 20
1.0
 10
2.0
 20
1.0
  0
LWPOLYLINE
  5
5157
330
2
100
AcDbEntity
  8
mechanical
  6
Continuous
100
AcDbPolyline
 90
        2
 70
   128
 43
2.0
 10
0.0
 20
417.9999999999997
 10
2.0
 20
417.9999999999997
  0
LWPOLYLINE
  5
5175
330
2
100
AcDbEntity
  8
mechanical
  6
Continuous
100
AcDbPolyline
 90
        2
 70
   128
 43
2.0
 10
100.0
 20
1.0
 10
102.0
 20
1.0
  0
LWPOLYLINE
  5
5176
330
2
100
AcDbEntity
  8
mechanical
  6
Continuous
100
AcDbPolyline
 90
        2
 70
   128
 43
2.0
 10
100.0
 20
417.9999999999997
 10
102.0
 20
417.9999999999997
  0
LWPOLYLINE
  5
5177
330
2
100
AcDbEntity
  8
mechanical
  6
Continuous
100
AcDbPolyline
 90
        2
 70
   128
 43
2.0
 10
200.0
 20
1.0
 10
202.0
 20
1.0
  0
LWPOLYLINE
  5
5178
330
2
100
AcDbEntity
  8
mechanical
  6
Continuous
100
AcDbPolyline
 90
        2
 70
   128
 43
2.0
 10
200.0
 20
417.9999999999997
 10
202.0
 20
417.9999999999997
  0
LWPOLYLINE
  5
5179
330
2
100
AcDbEntity
  8
mechanical
  6
Continuous
100
AcDbPolyline
 90
        2
 70
   128
 43
2.0
 10
300.0
 20
1.0
 10
302.0
 20
1.0
  0
LWPOLYLINE
  5
517A
330
2
100
AcDbEntity
  8
mechanical
  6
Continuous
100
AcDbPolyline
 90
        2
 70
   128
 43
2.0
 10
300.0
 20
417.9999999999997
 10
302.0
 20
417.9999999999997
  0
LWPOLYLINE
  5
517B
330
2
100
AcDbEntity
  8
mechanical
  6
Continuous
100
AcDbPolyline
 90
        2
 70
   128
 43
2.0
 10
400.0
 20
1.0
 10
402.0
 20
1.0
  0
LWPOLYLINE
  5
517C
330
2
100
AcDbEntity
  8
mechanical
  6
Continuous
100
AcDbPolyline
 90
        2
 70
   128
 43
2.0
 10
400.0
 20
417.9999999999997
 10
402.0
 20
417.9999999999997
  0
LWPOLYLINE
  5
517D
330
2
100
AcDbEntity
  8
mechanical
  6
Continuous
100
AcDbPolyline
 90
        2
 70
   128
 43
2.0
 10
500.0
 20
1.0
 10
502.0
 20
1.0
  0
LWPOLYLINE
  5
517E
330
2
100
AcDbEntity
  8
mechanical
  6
Continuous
100
AcDbPolyline
 90
        2
 70
   128
 43
2.0
 10
500.0
 20
417.9999999999997
 10
502.0
 20
417.9999999999997
  0
LWPOLYLINE
  5
517F
330
2
100
AcDbEntity
  8
mechanical
  6
Continuous
100
AcDbPolyline
 90
        2
 70
   128
 43
2.0
 10
600.0
 20
1.0
 10
602.0
 20
1.0
  0
LWPOLYLINE
  5
5180
330
2
100
AcDbEntity
  8
mechanical
  6
Continuous
100
AcDbPolyline
 90
        2
 70
   128
 43
2.0
 10
600.0
 20
417.9999999999997
 10
602.0
 20
417.9999999999997
  0
LWPOLYLINE
  5
5181
330
2
100
AcDbEntity
  8
mechanical
  6
Continuous
100
AcDbPolyline
 90
        2
 70
   128
 43
2.0
 10
700.0
 20
1.0
 10
702.0
 20
1.0
  0
LWPOLYLINE
  5
5182
330
2
100
AcDbEntity
  8
mechanical
  6
Continuous
100
AcDbPolyline
 90
        2
 70
   128
 43
2.0
 10
700.0
 20
417.9999999999997
 10
702.0
 20
417.9999999999997
  0
LWPOLYLINE
  5
5183
330
2
100
AcDbEntity
  8
mechanical
  6
Continuous
100
AcDbPolyline
 90
        2
 70
   128
 43
2.0
 10
800.0
 20
1.0
 10
802.0
 20
1.0
  0
LWPOLYLINE
  5
5184
330
2
100
AcDbEntity
  8
mechanical
  6
Continuous
100
AcDbPolyline
 90
        2
 70
   128
 43
2.0
 10
800.0
 20
417.9999999999997
 10
802.0
 20
417.9999999999997
  0
LWPOLYLINE
  5
5185
330
2
100
AcDbEntity
  8
mechanical
  6
Continuous
100
AcDbPolyline
 90
        2
 70
   128
 43
2.0
 10
900.0
 20
1.0
 10
902.0
 20
1.0
  0
LWPOLYLINE
  5
5186
330
2
100
AcDbEntity
  8
mechanical
  6
Continuous
100
AcDbPolyline
 90
        2
 70
   128
 43
2.0
 10
900.0
 20
417.9999999999997
 10
902.0
 20
417.9999999999997
  0
LWPOLYLINE
  5
5187
330
2
100
AcDbEntity
  8
mechanical
  6
Continuous
100
AcDbPolyline
 90
        2
 70
   128
 43
2.0
 10
1000.0
 20
1.0
 10
1002.0
 20
1.0
  0
LWPOLYLINE
  5
5188
330
2
100
AcDbEntity
  8
mechanical
  6
Continuous
100
AcDbPolyline
 90
        2
 70
   128
 43
2.0
 10
1000.0
 20
417.9999999999997
 10
1002.0
 20
417.9999999999997
  0
LWPOLYLINE
  5
5189
330
2
100
AcDbEntity
  8
mechanical
  6
Continuous
100
AcDbPolyline
 90
        2
 70
   128
 43
2.0
 10
1100.0
 20
1.0
 10
1102.0
 20
1.0
  0
LWPOLYLINE
  5
518A
330
2
100
AcDbEntity
  8
mechanical
  6
Continuous
100
AcDbPolyline
 90
        2
 70
   128
 43
2.0
 10
1100.0
 20
417.9999999999997
 10
1102.0
 20
417.9999999999997
  0
LWPOLYLINE
  5
518B
330
2
100
AcDbEntity
  8
mechanical
  6
Continuous
100
AcDbPolyline
 90
        2
 70
   128
 43
2.0
 10
1200.0
 20
1.0
 10
1202.0
 20
1.0
  0
LWPOLYLINE
  5
518C
330
2
100
AcDbEntity
  8
mechanical
  6
Continuous
100
AcDbPolyline
 90
        2
 70
   128
 43
2.0
 10
1200.0
 20
417.9999999999997
 10
1202.0
 20
417.9999999999997
  0
LWPOLYLINE
  5
518D
330
2
100
AcDbEntity
  8
mechanical
  6
Continuous
100
AcDbPolyline
 90
        2
 70
   128
 43
2.0
 10
1300.0
 20
1.0
 10
1302.0
 20
1.0
  0
LWPOLYLINE
  5
518E
330
2
100
AcDbEntity
  8
mechanical
  6
Continuous
100
AcDbPolyline
 90
        2
 70
   128
 43
2.0
 10
1300.0
 20
417.9999999999997
 10
1302.0
 20
417.9999999999997
  0
LWPOLYLINE
  5
518F
330
2
100
AcDbEntity
  8
mechanical
  6
Continuous
100
AcDbPolyline
 90
        2
 70
   128
 43
2.0
 10
1400.0
 20
1.0
 10
1402.0
 20
1.0
  0
LWPOLYLINE
  5
5190
330
2
100
AcDbEntity
  8
mechanical
  6
Continuous
100
AcDbPolyline
 90
        2
 70
   128
 43
2.0
 10
1400.0
 20
417.9999999999997
 10
1402.0
 20
417.9999999999997
  0
LWPOLYLINE
  5
5193
330
2
100
AcDbEntity
  8
mechanical
  6
Continuous
100
AcDbPolyline
 90
        2
 70
   128
 43
2.0
 10
1410.4
 20
1.0
 10
1412.4
 20
1.0
  0
LWPOLYLINE
  5
5194
330
2
100
AcDbEntity
  8
mechanical
  6
Continuous
100
AcDbPolyline
 90
        2
 70
   128
 43
2.0
 10
1410.4
 20
417.9999999999997
 10
1412.4
 20
417.9999999999997
  0
LWPOLYLINE
  5
52AE
330
2
100
AcDbEntity
  8
mechanical
100
AcDbPolyline
 90
       20
 70
   129
 43
0.5
 10
554.9814564793193
 20
133.0055753145592
 10
552.2689564793194
 20
133.0055753145592
 10
550.9564564793193
 20
132.3930753145592
 10
549.6439564793194
 20
131.0805753145593
 10
548.8564564793192
 20
129.7680753145592
 10
548.3314564793194
 20
127.6680753145592
 10
548.3314564793194
 20
124.4305753145592
 10
548.8564564793192
 20
122.3305753145592
 10
549.6439564793194
 20
121.0180753145593
 10
550.9564564793193
 20
119.7055753145592
 10
552.2689564793194
 20
119.0930753145592
 10
554.9814564793193
 20
119.0930753145592
 10
556.2939564793192
 20
119.7055753145592
 10
557.6064564793192
 20
121.0180753145593
 10
558.2189564793192
 20
122.3305753145592
 10
559.0064564793193
 20
124.4305753145592
 10
559.0064564793193
 20
127.6680753145592
 10
558.2189564793192
 20
129.7680753145592
 10
557.6064564793192
 20
131.0805753145593
 10
556.2939564793192
 20
132.3930753145592
  0
LWPOLYLINE
  5
52B0
330
2
100
AcDbEntity
  8
mechanical
100
AcDbPolyline
 90
       10
 70
   128
 10
563.5564564793193
 20
133.0055753145592
 40
0.5
 41
0.5
 10
563.5564564793193
 20
123.1180753145592
 40
0.5
 41
0.5
 10
564.3439564793192
 20
121.0180753145593
 40
0.5
 41
0.5
 10
565.6564564793192
 20
119.7055753145592
 40
0.5
 41
0.5
 10
567.5814564793194
 20
119.0930753145592
 40
0.5
 41
0.5
 10
568.8939564793193
 20
119.0930753145592
 40
0.5
 41
0.5
 10
570.9939564793192
 20
119.7055753145592
 40
0.5
 41
0.5
 10
572.3064564793193
 20
121.0180753145593
 40
0.5
 41
0.5
 10
572.9189564793192
 20
123.1180753145592
 40
0.5
 41
0.5
 10
572.9189564793192
 20
133.0055753145592
 40
0.0
 41
0.0
  0
LWPOLYLINE
  5
52B2
330
2
100
AcDbEntity
  8
mechanical
100
AcDbPolyline
 90
        2
 70
   128
 43
0.5
 10
580.8814564793193
 20
133.0055753145592
 10
580.8814564793193
 20
119.0930753145592
  0
LWPOLYLINE
  5
52B3
330
2
100
AcDbEntity
  8
mechanical
100
AcDbPolyline
 90
        4
 70
   128
 10
597.6814564793193
 20
119.0930753145592
 40
0.5
 41
0.5
 10
588.9314564793193
 20
119.0930753145592
 40
0.5
 41
0.5
 10
588.9314564793193
 20
133.0055753145592
 40
0.5
 41
0.5
 10
597.6814564793193
 20
133.0055753145592
 40
0.0
 41
0.0
  0
LWPOLYLINE
  5
52B4
330
2
100
AcDbEntity
  8
mechanical
100
AcDbPolyline
 90
       11
 70
   128
 10
601.6189564793193
 20
119.0930753145592
 40
0.5
 41
0.5
 10
601.6189564793193
 20
133.0055753145592
 40
0.5
 41
0.5
 10
607.5689564793194
 20
133.0055753145592
 40
0.5
 41
0.5
 10
609.6689564793193
 20
132.3930753145592
 40
0.5
 41
0.5
 10
610.2814564793192
 20
131.6930753145592
 40
0.5
 41
0.5
 10
610.9814564793192
 20
130.3805753145592
 40
0.5
 41
0.5
 10
610.9814564793192
 20
128.9805753145592
 40
0.5
 41
0.5
 10
610.2814564793192
 20
127.6680753145592
 40
0.5
 41
0.5
 10
609.6689564793193
 20
127.0555753145592
 40
0.5
 41
0.5
 10
607.5689564793194
 20
126.3555753145592
 40
0.5
 41
0.5
 10
601.6189564793193
 20
126.3555753145592
 40
0.0
 41
0.0
  0
LWPOLYLINE
  5
52B6
330
2
100
AcDbEntity
  8
mechanical
100
AcDbPolyline
 90
       11
 70
   128
 10
629.6189564793193
 20
119.0930753145592
 40
0.5
 41
0.5
 10
629.6189564793193
 20
133.0055753145592
 40
0.5
 41
0.5
 10
635.5689564793193
 20
133.0055753145592
 40
0.5
 41
0.5
 10
637.6689564793192
 20
132.3930753145592
 40
0.5
 41
0.5
 10
638.2814564793192
 20
131.6930753145592
 40
0.5
 41
0.5
 10
638.9814564793192
 20
130.3805753145592
 40
0.5
 41
0.5
 10
638.9814564793192
 20
128.4555753145592
 40
0.5
 41
0.5
 10
638.2814564793192
 20
127.0555753145592
 40
0.5
 41
0.5
 10
637.6689564793192
 20
126.3555753145592
 40
0.5
 41
0.5
 10
635.5689564793193
 20
125.7430753145592
 40
0.5
 41
0.5
 10
629.6189564793193
 20
125.7430753145592
 40
0.0
 41
0.0
  0
LWPOLYLINE
  5
52B8
330
2
100
AcDbEntity
  8
mechanical
100
AcDbPolyline
 90
        3
 70
   128
 10
641.6939564793193
 20
119.0930753145592
 40
0.5
 41
0.5
 10
646.9439564793193
 20
133.0055753145592
 40
0.5
 41
0.5
 10
652.2814564793192
 20
119.0930753145592
 40
0.0
 41
0.0
  0
LWPOLYLINE
  5
52BA
330
2
100
AcDbEntity
  8
mechanical
100
AcDbPolyline
 90
       12
 70
   129
 43
0.5
 10
664.3564564793193
 20
129.7680753145592
 10
664.8814564793193
 20
127.6680753145592
 10
664.8814564793193
 20
124.4305753145592
 10
664.3564564793193
 20
122.3305753145592
 10
663.5689564793193
 20
121.0180753145593
 10
662.2564564793194
 20
119.7055753145592
 10
660.3314564793194
 20
119.0930753145592
 10
655.6064564793192
 20
119.0930753145592
 10
655.6064564793192
 20
133.0055753145592
 10
660.3314564793194
 20
133.0055753145592
 10
662.2564564793194
 20
132.3930753145592
 10
663.5689564793193
 20
131.0805753145593
  0
LWPOLYLINE
  5
52BC
330
2
100
AcDbEntity
  8
mechanical
100
AcDbPolyline
 90
        3
 70
   128
 10
420.5352064793194
 20
119.0930753145592
 40
0.5
 41
0.5
 10
426.0008314793195
 20
133.0055753145591
 40
0.5
 41
0.5
 10
431.4167689793193
 20
119.0930753145592
 40
0.0
 41
0.0
  0
LWPOLYLINE
  5
52BE
330
2
100
AcDbEntity
  8
mechanical
100
AcDbPolyline
 90
        2
 70
   128
 43
0.5
 10
437.5283314793194
 20
133.0055753145591
 10
437.5283314793194
 20
119.0930753145592
  0
LWPOLYLINE
  5
52BF
330
2
100
AcDbEntity
  8
mechanical
100
AcDbPolyline
 90
        3
 70
   128
 10
445.7267689793194
 20
133.0055753145591
 40
0.5
 41
0.5
 10
445.7267689793194
 20
119.0930753145592
 40
0.5
 41
0.5
 10
453.8755189793193
 20
119.0930753145592
 40
0.0
 41
0.0
  0
LWPOLYLINE
  5
52C0
330
2
100
AcDbEntity
  8
mechanical
100
AcDbPolyline
 90
        2
 70
   128
 43
0.5
 10
457.2045814793194
 20
133.0055753145591
 10
457.2045814793194
 20
119.0930753145592
  0
LWPOLYLINE
  5
52C1
330
2
100
AcDbEntity
  8
mechanical
100
AcDbPolyline
 90
       18
 70
   128
 10
472.2102064793195
 20
129.7262003145591
 40
0.5
 41
0.5
 10
471.5145814793194
 20
131.0677628145592
 40
0.5
 41
0.5
 10
470.1233314793194
 20
132.3099503145592
 40
0.5
 41
0.5
 10
468.7320814793194
 20
133.0055753145591
 40
0.5
 41
0.5
 10
466.0489564793193
 20
133.0055753145591
 40
0.5
 41
0.5
 10
464.7073939793194
 20
132.3099503145592
 40
0.5
 41
0.5
 10
463.3658314793194
 20
131.0677628145592
 40
0.5
 41
0.5
 10
462.7198939793194
 20
129.7262003145591
 40
0.5
 41
0.5
 10
462.0242689793194
 20
127.6890128145592
 40
0.5
 41
0.5
 10
462.0242689793194
 20
124.4096378145592
 40
0.5
 41
0.5
 10
462.7198939793194
 20
122.3724503145592
 40
0.5
 41
0.5
 10
463.3658314793194
 20
121.0308878145591
 40
0.5
 41
0.5
 10
464.7073939793194
 20
119.7887003145591
 40
0.5
 41
0.5
 10
466.0489564793193
 20
119.0930753145592
 40
0.5
 41
0.5
 10
468.7320814793194
 20
119.0930753145592
 40
0.5
 41
0.5
 10
470.1233314793194
 20
119.7887003145591
 40
0.5
 41
0.5
 10
471.5145814793194
 20
121.0308878145591
 40
0.5
 41
0.5
 10
472.2102064793195
 20
122.3724503145592
 40
0.0
 41
0.0
  0
LWPOLYLINE
  5
52C2
330
2
100
AcDbEntity
  8
mechanical
100
AcDbPolyline
 90
        4
 70
   128
 10
485.7748939793195
 20
119.0930753145592
 40
0.5
 41
0.5
 10
476.9305189793194
 20
119.0930753145592
 40
0.5
 41
0.5
 10
476.9305189793194
 20
133.0055753145591
 40
0.5
 41
0.5
 10
485.7748939793195
 20
133.0055753145591
 40
0.0
 41
0.0
  0
LWPOLYLINE
  5
52C3
330
2
100
AcDbEntity
  8
mechanical
100
AcDbPolyline
 90
       16
 70
   129
 43
0.5
 10
509.5752064793193
 20
133.0055753145591
 10
507.5380189793194
 20
132.3099503145592
 10
506.1964564793194
 20
130.3721378145592
 10
505.5008314793195
 20
127.0430753145592
 10
505.5008314793195
 20
125.1052628145592
 10
506.1964564793194
 20
121.7265128145592
 10
507.5380189793194
 20
119.7887003145591
 10
509.5752064793193
 20
119.0930753145592
 10
510.9167689793194
 20
119.0930753145592
 10
513.0036439793194
 20
119.7887003145591
 10
514.3452064793194
 20
121.7265128145592
 10
515.0408314793194
 20
125.1052628145592
 10
515.0408314793194
 20
127.0430753145592
 10
514.3452064793194
 20
130.3721378145592
 10
513.0036439793194
 20
132.3099503145592
 10
510.9167689793194
 20
133.0055753145591
  0
LWPOLYLINE
  5
52C5
330
2
100
AcDbEntity
  8
mechanical
100
AcDbPolyline
 90
       16
 70
   129
 43
0.5
 10
523.1895814793193
 20
133.0055753145591
 10
521.1027064793194
 20
132.3099503145592
 10
519.7114564793194
 20
130.3721378145592
 10
519.0655189793194
 20
127.0430753145592
 10
519.0655189793194
 20
125.1052628145592
 10
519.7114564793194
 20
121.7265128145592
 10
521.1027064793194
 20
119.7887003145591
 10
523.1895814793193
 20
119.0930753145592
 10
524.5311439793193
 20
119.0930753145592
 10
526.5683314793193
 20
119.7887003145591
 10
527.9098939793194
 20
121.7265128145592
 10
528.5558314793194
 20
125.1052628145592
 10
528.5558314793194
 20
127.0430753145592
 10
527.9098939793194
 20
130.3721378145592
 10
526.5683314793193
 20
132.3099503145592
 10
524.5311439793193
 20
133.0055753145591
  0
LWPOLYLINE
  5
52C8
330
2
100
AcDbEntity
  8
mechanical
100
AcDbPolyline
 90
        2
 70
   128
 43
0.5
 10
422.3700948721765
 20
123.7637003145591
 10
429.5985613900337
 20
123.7637003145591
  0
LWPOLYLINE
  5
52D3
330
2
100
AcDbEntity
  8
mechanical
100
AcDbPolyline
 90
        2
 70
   128
 43
0.5
 10
476.9305189793194
 20
126.3474503145592
 10
482.3961439793193
 20
126.3474503145592
  0
LWPOLYLINE
  5
52F9
330
2
100
AcDbEntity
  8
mechanical
100
AcDbPolyline
 90
        2
 70
   128
 43
0.5
 10
588.9314564793193
 20
126.3555753145592
 10
594.2689564793194
 20
126.3555753145592
  0
LWPOLYLINE
  5
52FA
330
2
100
AcDbEntity
  8
mechanical
100
AcDbPolyline
 90
        2
 70
   128
 43
0.5
 10
606.2564564793193
 20
126.3555753145592
 10
610.9814564793192
 20
119.0930753145592
  0
LWPOLYLINE
  5
5302
330
2
100
AcDbEntity
  8
mechanical
100
AcDbPolyline
 90
        2
 70
   128
 43
0.5
 10
643.6189564793193
 20
123.6430753145592
 10
650.2689564793193
 20
123.6430753145592
  0
LWPOLYLINE
  5
530A
330
2
100
AcDbEntity
  8
mechanical
100
AcDbPolyline
 90
        2
 70
   128
 43
0.5
 10
432.8080189793195
 20
133.0055753145591
 10
442.3480189793194
 20
133.0055753145591
  0
LWPOLYLINE
  5
5324
330
2
100
AcDbEntity
  8
mechanical
100
AcDbPolyline
 90
        2
 70
   128
 43
0.5
 10
576.3314564793193
 20
133.0055753145592
 10
585.6064564793192
 20
133.0055753145592
  0
LWPOLYLINE
  5
5344
330
2
100
AcDbEntity
  8
mechanical
100
AcDbPolyline
 90
        4
 70
     1
 43
1.0
 10
415.5352064793194
 20
114.0930753145592
 10
669.8814564793194
 20
114.0930753145592
 10
669.8814564793194
 20
138.0055753145592
 10
415.5352064793194
 20
138.0055753145592
  0
VIEWPORT
  5
17F
102
{ACAD_XDICTIONARY
360
5356
102
}
330
148
100
AcDbEntity
 67
     1
  8
0
  6
Continuous
100
AcDbViewport
 10
539.4629528462933
 20
436.6083350012517
 30
0.0
 40
1387.054359180414
 41
867.4927515749562
 68
     1
 69
     1
 12
539.4629528462933
 22
436.6083350012517
 13
0.0
 23
0.0
 14
10.0
 24
10.0
 15
10.0
 25
10.0
 16
0.0
 26
0.0
 36
1.0
 17
0.0
 27
0.0
 37
0.0
 42
50.0
 43
0.0
 44
0.0
 45
867.4927515749562
 50
0.0
 51
0.0
 72
   100
 90
    32800
  1

281
     0
 71
     1
 74
     0
110
0.0
120
0.0
130
0.0
111
1.0
121
0.0
131
0.0
112
0.0
122
1.0
132
0.0
 79
     0
146
0.0
  0
VIEWPORT
  5
181
102
{ACAD_XDICTIONARY
360
5358
102
}
330
148
100
AcDbEntity
 67
     1
  8
0
  6
Continuous
100
AcDbViewport
 10
573.7436809539794
 20
392.7263202667236
 30
0.0
 40
917.9898895263672
 41
628.3621124267579
 68
     2
 69
     2
 12
454.7134502953538
 22
167.0708391774632
 13
0.0
 23
0.0
 14
1.0
 24
1.0
 15
0.0
 25
0.0
 16
0.0
 26
0.0
 36
1.0
 17
0.0
 27
0.0
 37
0.0
 42
50.0
 43
0.0
 44
0.0
 45
558.6397812350369
 50
0.0
 51
0.0
 72
   100
 90
    32800
  1

281
     0
 71
     1
 74
     0
110
0.0
120
0.0
130
0.0
111
1.0
121
0.0
131
0.0
112
0.0
122
1.0
132
0.0
 79
     1
146
0.0
  0
ENDSEC
  0
SECTION
  2
OBJECTS
  0
DICTIONARY
  5
9
330
0
100
AcDbDictionary
281
     1
  3
ACAD_COLOR
350
162
  3
ACAD_GROUP
350
15E
  3
ACAD_LAYOUT
350
147
  3
ACAD_MATERIAL
350
161
  3
ACAD_MLINESTYLE
350
15F
  3
ACAD_PLOTSETTINGS
350
160
  3
ACAD_PLOTSTYLENAME
350
8
  3
ACAD_TABLESTYLE
350
16D5
  3
ACAD_VISUALSTYLE
350
16C4
  3
AcDbVariableDictionary
350
16B
  3
ADE_QUERY_LIBRARY
350
16EA
  3
ASE_INDEX_DICTIONARY
350
6DB
  3
Autodesk_MAP
350
16D9
  3
DWGPROPS
350
5351
1001
ADE
1000
ADE02C004
1000
[Query]
1000
CaseSensitiveMatch=0
1000
SaveCurrQueryInSession=1
1000
MkSelSetWithQryObj=0
1000
ShowBlockAsInsPt=0
1000
CreateAssociativeHatchObjects=0
1000
ReferenceBoundaryForAreaLocation=1
1000
ShowImageAsBoundary=1
1000
DefaultJoinOperator=2
1000
ColorForAdd=red
1000
ColorForRemove=red
1000
BlockLocnForQuery=1
1000
TextLocnForQuery=1
1000
IncludeAllObjectsInGroups=0
1000
AlwaysUseLibraryDefinitions=0
1000
PreviewDefinitionsFrom=2
1000
[Save Back]
1000
RedefineBlockDefinitions=1
1000
RedefineLayerDefinitions=1
1000
RedefineTextStyleDefinitions=1
1000
RemoveUnusedGroups=1
1000
EraseSavedBackObjects=1
1000
RemoveLockAfterSave=1
1000
CreateHistoryFileOfChanges=0
1000
CreateBackupFileOfSourceDwg=1
1000
DontAddObjectsToSaveSet=0
1000
MarkObjectsForEditingWithoutPrompting=0
1000
FdoDontAddObjsToSvSet=0
1000
FdoEditWithoutPrompt=1
1000
FdoRemUnusedGrps=1
1000
FdoEraseSvdBkObjs=1
1000
FdoRemoveLockOnSave=1
1000
FdoTesselationMaxPointsDistance=0
1000
FdoTesselationMaxCurvesDistance=0
1000
[Coordinate Transformation]
1000
RestoreLastActiveDwgsOnStartup=1
1000
ActivateDwgsOnAttach=1
1000
AdjustSizesAndScalesForChangesInUnits=1
1000
AdjustRotationsForMapDistortions=1
1000
AdjustSizesAndScalesForMapDistortions=1
1000
AdjustElevations=1
1000
AdjustZeroRotationObjects=1
1000
ReconnectDbOnWSOpen=1
1000
NoOfSQLConditionsInHistory=10
  0
DICTIONARY
  5
18FA
330
14E
100
AcDbDictionary
280
     1
281
     1
  3
ACAD_LAYERFILTERS
360
50EE
  3
ACLYDICTIONARY
360
50ED
  0
DICTIONARY
  5
3
330
2
100
AcDbDictionary
280
     1
281
     1
  3
ACAD_LAYOUTSELFREF
360
4
  3
ACAD_SORTENTS
360
1703
  0
DICTIONARY
  5
149
330
148
100
AcDbDictionary
280
     1
281
     1
  3
ACAD_LAYOUTSELFREF
360
14A
  0
DICTIONARY
  5
5356
330
17F
100
AcDbDictionary
280
     1
281
     1
  3
ACAD_XREC_ROUNDTRIP
360
5357
  0
DICTIONARY
  5
5358
330
181
100
AcDbDictionary
280
     1
281
     1
  3
ACAD_XREC_ROUNDTRIP
360
5359
  0
DICTIONARY
  5
162
102
{ACAD_REACTORS
330
9
102
}
330
9
100
AcDbDictionary
281
     1
  0
DICTIONARY
  5
15E
102
{ACAD_REACTORS
330
9
102
}
330
9
100
AcDbDictionary
281
     1
  0
DICTIONARY
  5
147
102
{ACAD_REACTORS
330
9
102
}
330
9
100
AcDbDictionary
281
     1
  3
Layout1
350
14D
  3
Model
350
146
  0
DICTIONARY
  5
161
102
{ACAD_REACTORS
330
9
102
}
330
9
100
AcDbDictionary
281
     1
  3
ByBlock
350
16C2
  3
ByLayer
350
16C1
  3
Global
350
16C3
  0
DICTIONARY
  5
15F
102
{ACAD_REACTORS
330
9
102
}
330
9
100
AcDbDictionary
281
     1
  3
STANDARD
350
163
  0
DICTIONARY
  5
160
102
{ACAD_REACTORS
330
9
102
}
330
9
100
AcDbDictionary
281
     1
  0
ACDBDICTIONARYWDFLT
  5
8
102
{ACAD_REACTORS
330
9
102
}
330
9
100
AcDbDictionary
281
     1
  3
Normal
350
7
100
AcDbDictionaryWithDefault
340
7
  0
DICTIONARY
  5
16D5
102
{ACAD_REACTORS
330
9
102
}
330
9
100
AcDbDictionary
281
     1
  3
Legend
350
16DF
  3
Standard
350
16D6
  0
DICTIONARY
  5
16C4
102
{ACAD_REACTORS
330
9
102
}
330
9
100
AcDbDictionary
281
     1
  3
2dWireframe
350
16CA
  3
3D Hidden
350
16CC
  3
3dWireframe
350
16CB
  3
Basic
350
16C9
  3
Brighten
350
16D0
  3
ColorChange
350
16D4
  3
Conceptual
350
16CD
  3
Dim
350
16CF
  3
Facepattern
350
16D3
  3
Flat
350
16C5
  3
FlatWithEdges
350
16C6
  3
Gouraud
350
16C7
  3
GouraudWithEdges
350
16C8
  3
Linepattern
350
16D2
  3
Realistic
350
16CE
  3
Thicken
350
16D1
  0
DICTIONARY
  5
16B
102
{ACAD_REACTORS
330
9
102
}
330
9
100
AcDbDictionary
281
     1
  3
CTABLESTYLE
350
16ED
  3
DIMASSOC
350
16D
  3
HIDETEXT
350
16C
  3
INDEXCTL
350
5350
  3
PROJECTNAME
350
16E
  3
SORTENTS
350
7B5
  0
DICTIONARY
  5
16EA
102
{ACAD_REACTORS
330
9
102
}
330
9
100
AcDbDictionary
281
     1
  3
_CurrQry
350
534F
  0
DICTIONARY
  5
6DB
102
{ACAD_REACTORS
330
9
102
}
330
9
100
AcDbDictionary
281
     1
  3
ASEBlockHierarchyIndexRecord
350
6DC
1001
DCO15
1040
1584617934.375
  0
DICTIONARY
  5
16D9
102
{ACAD_REACTORS
330
9
102
}
330
9
100
AcDbDictionary
281
     1
  3
AcMapDMStylizedEntities
350
16E6
  3
FSD_Dictionary
350
16E7
  3
MAP_DISPLAY_CUSTOMOBJ_REG_TABLE
350
16DD
  3
MAP_DISPLAY_MANAGEMENT_DICTIONARY
350
16DA
  3
MAP_DISPLAY_STYLELIBRARY_DICTIONARY
350
16DB
1001
MapGWS
1000
C:\Documents and Settings\All Users\Application Data\Autodesk\Autodesk Map 3D 2007\R17.0\MapCache\ATLICE-outerGWS1234567891011.xml
  0
XRECORD
  5
5351
102
{ACAD_REACTORS
330
9
102
}
330
9
100
AcDbXrecord
280
     1
  1
DWGPROPS COOKIE
  2

  3

  4

  6

  7

  8
janez
  9

300
=
301
=
302
=
303
=
304
=
305
=
306
=
307
=
308
=
309
=
 40
1.758462002314814
 41
2311946.475710706
 42
2454143.697203415
  1

 90
        0
  0
DICTIONARY
  5
50EE
102
{ACAD_REACTORS
330
18FA
102
}
330
18FA
100
AcDbDictionary
281
     1
  0
DICTIONARY
  5
50ED
102
{ACAD_REACTORS
330
18FA
102
}
330
18FA
100
AcDbDictionary
281
     1
1001
ACAD
1000
<All
  0
XRECORD
  5
4
102
{ACAD_REACTORS
330
3
102
}
330
3
100
AcDbXrecord
280
     1
340
2
  0
SORTENTSTABLE
  5
1703
102
{ACAD_REACTORS
330
3
102
}
330
3
100
AcDbSortentsTable
330
2
331
5190
  5
5190
331
4D9B
  5
508C
331
4C1C
  5
4EF6
331
50C2
  5
50C2
331
5149
  5
5144
331
4DBB
  5
509E
331
4DC3
  5
50A6
331
4C44
  5
4F62
331
52B0
  5
5261
331
50EA
  5
50EA
331
4A69
  5
4A3E
331
4BE5
  5
4EAA
331
4AD0
  5
4E5D
331
46AA
  5
4731
331
52B8
  5
52C3
331
4DCB
  5
50AE
331
50F2
  5
50F2
331
52C0
  5
52F2
331
5179
  5
5179
331
510A
  5
510A
331
5181
  5
5181
331
52C8
  5
52ED
331
4CD4
  5
4FD1
331
5112
  5
5112
331
5189
  5
5189
331
511A
  5
511A
331
4D94
  5
507C
331
50BB
  5
50BC
331
47D2
  5
472D
331
4AF8
  5
4E68
331
4B00
  5
4E6A
331
4A62
  5
49D4
331
4BD6
  5
4EA7
331
4D9C
  5
508D
331
50C3
  5
50C3
331
4DBC
  5
509F
331
4C3D
  5
4EF7
331
50DB
  5
50E3
331
4DC4
  5
50A7
331
50EB
  5
50EB
331
4A6A
  5
49E6
331
4BE6
  5
4EAB
331
4AD1
  5
4E5F
331
46AB
  5
473D
331
4DCC
  5
50AF
331
50F3
  5
50F3
331
52C1
  5
52FC
331
517A
  5
517A
331
510B
  5
510B
331
4CBD
  5
4FC6
331
4DDC
  5
4B98
331
5182
  5
5182
331
5113
  5
5113
331
4CD5
  5
5073
331
4C0E
  5
4EB7
331
518A
  5
518A
331
511B
  5
511B
331
4D95
  5
507E
331
4C16
  5
4EB8
331
50BC
  5
4755
331
4A63
  5
4BB8
331
4B01
  5
4E6B
331
5143
  5
5145
331
4D9D
  5
509C
331
50C4
  5
50C4
331
52F9
  5
5278
331
4DBD
  5
50A0
331
50DC
  5
50E4
331
4C3E
  5
4EFF
331
5153
  5
5153
331
4DC5
  5
50A8
331
4A6B
  5
4E59
331
50EC
  5
50EC
331
52B2
  5
526F
331
4BE7
  5
4EAC
331
4AD2
  5
4E61
331
46AC
  5
4734
331
50F4
  5
50F4
331
4DCD
  5
50B0
331
52BA
  5
52CA
331
52C2
  5
530B
331
510C
  5
510C
331
4C07
  5
4EB6
331
517B
  5
517B
331
5114
  5
5114
331
4F4D
  5
4A40
331
5183
  5
5183
331
4D96
  5
5080
331
511C
  5
511C
331
4C17
  5
4EB9
331
518B
  5
518B
331
4A64
  5
4B9A
331
4B02
  5
4E6C
331
52FA
  5
529B
331
50C5
  5
50C5
331
5193
  5
5193
331
5302
  5
52C9
331
4DBE
  5
50A1
331
530A
  5
52EF
331
4DC6
  5
50A9
331
4A6C
  5
4C50
331
52B3
  5
5273
331
4C77
  5
4F63
331
4AD3
  5
4E63
331
4BE8
  5
4EAD
331
4BF0
  5
4C4C
331
46AD
  5
473B
331
4DCE
  5
50B1
331
52C3
  5
5311
331
517C
  5
517C
331
510D
  5
510D
331
5184
  5
5184
331
5115
  5
5115
331
52D3
  5
530D
331
518C
  5
518C
331
4D97
  5
5087
331
4AFB
  5
4E69
331
4B03
  5
4EA2
331
4A65
  5
4C4E
331
4C18
  5
4EBA
331
5194
  5
5194
331
4DBF
  5
50A2
331
4DC7
  5
50AA
331
52B4
  5
527C
331
4AD4
  5
4E64
331
4BE9
  5
4EAF
331
4C78
  5
4F64
331
52BC
  5
52EB
331
5175
  5
5175
331
4DCF
  5
50BB
331
517D
  5
517D
331
510E
  5
510E
331
5185
  5
5185
331
5116
  5
5116
331
4D90
  5
5074
331
518D
  5
518D
331
4A66
  5
4C4D
331
4D98
  5
5088
331
4C19
  5
4EBC
331
4DC0
  5
50A3
331
50E7
  5
50E6
331
50EF
  5
50EF
331
4BEA
  5
4EB1
331
4AE5
  5
4E66
331
4C79
  5
4F65
331
4DC8
  5
50AB
331
5324
  5
5272
331
5176
  5
5176
331
4CB9
  5
4FA6
331
4C02
  5
4EB5
331
52C5
  5
5324
331
517E
  5
517E
331
510F
  5
510F
331
5186
  5
5186
331
4D91
  5
5078
331
5117
  5
5117
331
518E
  5
518E
331
4A67
  5
475D
331
4D99
  5
5089
331
50C0
  5
50C0
331
4C1A
  5
4EEA
331
4DC1
  5
50A4
331
52AE
  5
5238
331
5157
  5
5157
331
50E8
  5
50E8
331
52B6
  5
52A1
331
4BE3
  5
4EA8
331
4BEB
  5
4EB4
331
46A8
  5
4733
331
4AE6
  5
4E67
331
4DC9
  5
50AC
331
4C7A
  5
4FA5
331
50F0
  5
50F0
331
52BE
  5
52EE
331
5177
  5
5177
331
4CBA
  5
4FB0
331
517F
  5
517F
331
5110
  5
5110
331
4CD2
  5
4FC7
331
5187
  5
5187
331
4D92
  5
507A
331
5118
  5
5118
331
518F
  5
518F
331
4BD4
  5
4EA4
331
4D9A
  5
508A
331
4C1B
  5
4EEB
331
50C1
  5
50C1
331
4DBA
  5
509D
331
4DC2
  5
50A5
331
4C43
  5
4F07
331
4A68
  5
4802
331
50E9
  5
50E9
331
4ACF
  5
4E5B
331
4BE4
  5
4EA9
331
46A9
  5
473A
331
4DCA
  5
50AD
331
50F1
  5
50F1
331
52BF
  5
52F0
331
5178
  5
5178
331
5109
  5
5109
331
5180
  5
5180
331
5111
  5
5111
331
4CD3
  5
4FCB
331
47D1
  5
4725
331
5188
  5
5188
331
4D93
  5
507B
331
5119
  5
5119
331
4A61
  5
49FB
331
4BD5
  5
4EA6
  0
XRECORD
  5
14A
102
{ACAD_REACTORS
330
149
102
}
330
149
100
AcDbXrecord
280
     1
340
148
  0
XRECORD
  5
5357
102
{ACAD_REACTORS
330
5356
102
}
330
5356
100
AcDbXrecord
280
     1
102
SHADEPLOT
 70
     0
  0
XRECORD
  5
5359
102
{ACAD_REACTORS
330
5358
102
}
330
5358
100
AcDbXrecord
280
     1
102
SHADEPLOT
 70
     0
  0
LAYOUT
  5
14D
102
{ACAD_XDICTIONARY
360
5354
102
}
102
{ACAD_REACTORS
330
147
102
}
330
147
100
AcDbPlotSettings
  1

  2
\\ris\laserc
  4
A4
  6

 40
6.805083274841308
 41
5.069413185119628
 42
6.805084228515625
 43
5.027069091796875
 44
209.9733276367187
 45
296.9683227539062
 46
0.0
 47
0.0
 48
0.0
 49
0.0
140
0.0
141
0.0
142
1.0
143
4.0
 70
   688
 72
     1
 73
     1
 74
     5
  7
monochrome.ctb
 75
    18
147
0.25
148
0.0
149
0.0
100
AcDbLayout
  1
Layout1
 70
     0
 71
     1
 10
-20.1082763671875
 20
-27.22033309936524
 11
1167.765014648437
 21
812.6729774475098
 12
0.0
 22
0.0
 32
0.0
 14
114.7487361907958
 24
78.54526405334468
 34
0.0
 15
1032.738625717163
 25
706.9073764801025
 35
0.0
146
0.0
 13
0.0
 23
0.0
 33
0.0
 16
1.0
 26
0.0
 36
0.0
 17
0.0
 27
1.0
 37
0.0
 76
     0
330
148
331
17F
  0
LAYOUT
  5
146
102
{ACAD_XDICTIONARY
360
5352
102
}
102
{ACAD_REACTORS
330
147
102
}
330
147
100
AcDbPlotSettings
  1

  2
\\ris\laserc
  4
A4
  6

 40
6.805083274841308
 41
5.069413185119628
 42
6.805084228515625
 43
5.027069091796875
 44
209.9733276367187
 45
296.9683227539062
 46
11.4
 47
35.65
 48
36.08173645326978
 49
39.13963998603622
140
251.6490471755318
141
212.6978016188405
142
1.0
143
1.0
 70
 11956
 72
     1
 73
     1
 74
     4
  7
monochrome.ctb
 75
    16
147
1.0
148
-36.08173645326978
149
-39.13963998603622
100
AcDbLayout
  1
Model
 70
     1
 71
     0
 10
0.0
 20
0.0
 11
12.0
 21
9.0
 12
0.0
 22
0.0
 32
0.0
 14
0.0
 24
0.0
 34
0.0
 15
0.0
 25
0.0
 35
0.0
146
0.0
 13
0.0
 23
0.0
 33
0.0
 16
1.0
 26
0.0
 36
0.0
 17
0.0
 27
1.0
 37
0.0
 76
     0
330
2
331
16BF
  0
MATERIAL
  5
16C2
102
{ACAD_XDICTIONARY
360
535C
102
}
102
{ACAD_REACTORS
330
161
102
}
330
161
100
AcDbMaterial
  1
ByBlock
  0
MATERIAL
  5
16C1
102
{ACAD_XDICTIONARY
360
535A
102
}
102
{ACAD_REACTORS
330
161
102
}
330
161
100
AcDbMaterial
  1
ByLayer
  0
MATERIAL
  5
16C3
102
{ACAD_XDICTIONARY
360
535E
102
}
102
{ACAD_REACTORS
330
161
102
}
330
161
100
AcDbMaterial
  1
Global
  0
MLINESTYLE
  5
163
102
{ACAD_REACTORS
330
15F
102
}
330
15F
100
AcDbMlineStyle
  2
STANDARD
 70
     0
  3

 62
     0
 51
90.0
 52
90.0
 71
     2
 49
0.5
 62
   256
  6
BYLAYER
 49
-0.5
 62
   256
  6
BYLAYER
  0
ACDBPLACEHOLDER
  5
7
102
{ACAD_REACTORS
330
8
102
}
330
8
  0
TABLESTYLE
  5
16DF
102
{ACAD_XDICTIONARY
360
5362
102
}
102
{ACAD_REACTORS
330
16D5
102
}
330
16D5
100
AcDbTableStyle
  3

 70
     0
 71
     1
 40
0.06
 41
0.06
280
     0
281
     0
  7
STANDARD
140
0.4
170
     4
 62
     0
 63
     7
283
     0
274
    -2
284
     0
 64
     0
275
    -2
285
     0
 65
     0
276
    -2
286
     1
 66
     0
277
    -2
287
     1
 67
     0
278
    -2
288
     0
 68
     0
279
    -2
289
     1
 69
     0
  7
STANDARD
140
0.5
170
     5
 62
     0
 63
     7
283
     0
274
    -2
284
     1
 64
     0
275
    -2
285
     0
 65
     0
276
    -2
286
     1
 66
     0
277
    -2
287
     1
 67
     0
278
    -2
288
     0
 68
     0
279
    -2
289
     1
 69
     0
  7
STANDARD
140
0.4
170
     4
 62
     0
 63
     7
283
     0
274
    -2
284
     1
 64
     0
275
    -2
285
     0
 65
     0
276
    -2
286
     1
 66
     0
277
    -2
287
     1
 67
     0
278
    -2
288
     0
 68
     0
279
    -2
289
     1
 69
     0
  0
TABLESTYLE
  5
16D6
102
{ACAD_XDICTIONARY
360
5360
102
}
102
{ACAD_REACTORS
330
16D5
102
}
330
16D5
100
AcDbTableStyle
  3
Standard
 70
     0
 71
     0
 40
1.5
 41
1.5
280
     0
281
     0
  7
STANDARD
140
4.5
170
     2
 62
     0
 63
     7
283
     0
274
    -2
284
     1
 64
     0
275
    -2
285
     1
 65
     0
276
    -2
286
     1
 66
     0
277
    -2
287
     1
 67
     0
278
    -2
288
     1
 68
     0
279
    -2
289
     1
 69
     0
  7
STANDARD
140
6.0
170
     5
 62
     0
 63
     7
283
     0
274
    -2
284
     1
 64
     0
275
    -2
285
     1
 65
     0
276
    -2
286
     1
 66
     0
277
    -2
287
     1
 67
     0
278
    -2
288
     1
 68
     0
279
    -2
289
     1
 69
     0
  7
STANDARD
140
4.5
170
     5
 62
     0
 63
     7
283
     0
274
    -2
284
     1
 64
     0
275
    -2
285
     1
 65
     0
276
    -2
286
     1
 66
     0
277
    -2
287
     1
 67
     0
278
    -2
288
     1
 68
     0
279
    -2
289
     1
 69
     0
  0
VISUALSTYLE
  5
16CA
102
{ACAD_REACTORS
330
16C4
102
}
330
16C4
100
AcDbVisualStyle
  2
2dWireframe
 70
     4
 71
     0
 72
     2
 73
     0
 90
        0
 40
-0.6
 41
-30.0
 62
     5
 63
     7
 74
     1
 91
        4
 64
     7
 65
   257
 75
     1
175
     1
 42
1.0
 92
        0
 66
   257
 43
1.0
 76
     1
 77
     6
 78
     2
 67
     7
 79
     5
170
     0
171
     0
290
     0
174
     0
 93
        1
 44
0.0
173
     0
291
     0
 45
0.0
1001
ACAD
1000
AcDbSavedByObjectVersion
1070
     0
  0
VISUALSTYLE
  5
16CC
102
{ACAD_REACTORS
330
16C4
102
}
330
16C4
100
AcDbVisualStyle
  2
3D Hidden
 70
     6
 71
     1
 72
     2
 73
     2
 90
        0
 40
-0.6
 41
-30.0
 62
     5
 63
     7
 74
     2
 91
        2
 64
     7
 65
   257
 75
     2
175
     1
 42
40.0
 92
        0
 66
   257
 43
1.0
 76
     1
 77
     6
 78
     2
 67
     7
 79
     3
170
     0
171
     0
290
     0
174
     0
 93
        1
 44
0.0
173
     0
291
     0
 45
0.0
1001
ACAD
1000
AcDbSavedByObjectVersion
1070
     0
  0
VISUALSTYLE
  5
16CB
102
{ACAD_REACTORS
330
16C4
102
}
330
16C4
100
AcDbVisualStyle
  2
3dWireframe
 70
     5
 71
     0
 72
     2
 73
     0
 90
        0
 40
-0.6
 41
-30.0
 62
     5
 63
     7
 74
     1
 91
        4
 64
     7
 65
   257
 75
     1
175
     1
 42
1.0
 92
        0
 66
   257
 43
1.0
 76
     1
 77
     6
 78
     2
 67
     7
 79
     5
170
     0
171
     0
290
     0
174
     0
 93
        1
 44
0.0
173
     0
291
     0
 45
0.0
1001
ACAD
1000
AcDbSavedByObjectVersion
1070
     0
  0
VISUALSTYLE
  5
16C9
102
{ACAD_REACTORS
330
16C4
102
}
330
16C4
100
AcDbVisualStyle
  2
Basic
 70
     7
 71
     1
 72
     0
 73
     1
 90
        0
 40
-0.6
 41
-30.0
 62
     5
 63
     7
 74
     0
 91
        4
 64
     7
 65
   257
 75
     1
175
     1
 42
1.0
 92
        8
 66
     7
 43
1.0
 76
     1
 77
     6
 78
     2
 67
     7
 79
     5
170
     0
171
     0
290
     0
174
     0
 93
        1
 44
0.0
173
     0
291
     1
 45
0.0
1001
ACAD
1000
AcDbSavedByObjectVersion
1070
     0
  0
VISUALSTYLE
  5
16D0
102
{ACAD_REACTORS
330
16C4
102
}
330
16C4
100
AcDbVisualStyle
  2
Brighten
 70
    12
 71
     2
 72
     2
 73
     0
 90
        0
 40
-0.6
 41
-30.0
 62
     5
 63
     7
 74
     1
 91
        4
 64
     7
 65
   257
 75
     1
175
     1
 42
1.0
 92
        8
 66
     7
 43
1.0
 76
     1
 77
     6
 78
     2
 67
     7
 79
     5
170
     0
171
     0
290
     0
174
     0
 93
        1
 44
50.0
173
     0
291
     1
 45
0.0
1001
ACAD
1000
AcDbSavedByObjectVersion
1070
     0
  0
VISUALSTYLE
  5
16D4
102
{ACAD_REACTORS
330
16C4
102
}
330
16C4
100
AcDbVisualStyle
  2
ColorChange
 70
    16
 71
     2
 72
     2
 73
     3
 90
        0
 40
-0.6
 41
-30.0
 62
     5
 63
     8
 74
     1
 91
        4
 64
     7
 65
   257
 75
     1
175
     1
 42
1.0
 92
        8
 66
     8
 43
1.0
 76
     1
 77
     6
 78
     2
 67
     7
 79
     5
170
     0
171
     0
290
     0
174
     0
 93
        1
 44
0.0
173
     0
291
     1
 45
0.0
1001
ACAD
1000
AcDbSavedByObjectVersion
1070
     0
  0
VISUALSTYLE
  5
16CD
102
{ACAD_REACTORS
330
16C4
102
}
330
16C4
100
AcDbVisualStyle
  2
Conceptual
 70
     9
 71
     3
 72
     2
 73
     0
 90
        0
 40
-0.6
 41
-30.0
 62
     5
 63
     7
 74
     2
 91
        2
 64
     7
 65
   257
 75
     1
175
     1
 42
40.0
 92
        8
 66
     7
 43
1.0
 76
     1
 77
     6
 78
     2
 67
     7
 79
     3
170
     0
171
     0
290
     0
174
     0
 93
        1
 44
0.0
173
     0
291
     0
 45
0.0
1001
ACAD
1000
AcDbSavedByObjectVersion
1070
     0
  0
VISUALSTYLE
  5
16CF
102
{ACAD_REACTORS
330
16C4
102
}
330
16C4
100
AcDbVisualStyle
  2
Dim
 70
    11
 71
     2
 72
     2
 73
     0
 90
        0
 40
-0.6
 41
-30.0
 62
     5
 63
     7
 74
     1
 91
        4
 64
     7
 65
   257
 75
     1
175
     1
 42
1.0
 92
        8
 66
     7
 43
1.0
 76
     1
 77
     6
 78
     2
 67
     7
 79
     5
170
     0
171
     0
290
     0
174
     0
 93
        1
 44
-50.0
173
     0
291
     1
 45
0.0
1001
ACAD
1000
AcDbSavedByObjectVersion
1070
     0
  0
VISUALSTYLE
  5
16D3
102
{ACAD_REACTORS
330
16C4
102
}
330
16C4
100
AcDbVisualStyle
  2
Facepattern
 70
    15
 71
     2
 72
     2
 73
     0
 90
        0
 40
-0.6
 41
-30.0
 62
     5
 63
     7
 74
     1
 91
        4
 64
     7
 65
   257
 75
     1
175
     1
 42
1.0
 92
        8
 66
     7
 43
1.0
 76
     1
 77
     6
 78
     2
 67
     7
 79
     5
170
     0
171
     0
290
     0
174
     0
 93
        1
 44
0.0
173
     0
291
     1
 45
0.0
1001
ACAD
1000
AcDbSavedByObjectVersion
1070
     0
  0
VISUALSTYLE
  5
16C5
102
{ACAD_REACTORS
330
16C4
102
}
330
16C4
100
AcDbVisualStyle
  2
Flat
 70
     0
 71
     2
 72
     1
 73
     1
 90
        2
 40
-0.6
 41
30.0
 62
     5
 63
     7
 74
     0
 91
        4
 64
     7
 65
   257
 75
     1
175
     1
 42
1.0
 92
        8
 66
     7
 43
1.0
 76
     1
 77
     6
 78
     2
 67
     7
 79
     5
170
     0
171
     0
290
     0
174
     0
 93
       13
 44
0.0
173
     0
291
     1
 45
0.0
1001
ACAD
1000
AcDbSavedByObjectVersion
1070
     0
  0
VISUALSTYLE
  5
16C6
102
{ACAD_REACTORS
330
16C4
102
}
330
16C4
100
AcDbVisualStyle
  2
FlatWithEdges
 70
     1
 71
     2
 72
     1
 73
     1
 90
        2
 40
-0.6
 41
30.0
 62
     5
 63
     7
 74
     1
 91
        4
 64
     7
 65
   257
 75
     1
175
     1
 42
1.0
 92
        0
 66
   257
 43
1.0
 76
     1
 77
     6
 78
     2
 67
     7
 79
     5
170
     0
171
     0
290
     0
174
     0
 93
       13
 44
0.0
173
     0
291
     1
 45
0.0
1001
ACAD
1000
AcDbSavedByObjectVersion
1070
     0
  0
VISUALSTYLE
  5
16C7
102
{ACAD_REACTORS
330
16C4
102
}
330
16C4
100
AcDbVisualStyle
  2
Gouraud
 70
     2
 71
     2
 72
     2
 73
     1
 90
        2
 40
-0.6
 41
30.0
 62
     5
 63
     7
 74
     0
 91
        4
 64
     7
 65
   257
 75
     1
175
     1
 42
1.0
 92
        0
 66
     7
 43
1.0
 76
     1
 77
     6
 78
     2
 67
     7
 79
     5
170
     0
171
     0
290
     0
174
     0
 93
       13
 44
0.0
173
     0
291
     1
 45
0.0
1001
ACAD
1000
AcDbSavedByObjectVersion
1070
     0
  0
VISUALSTYLE
  5
16C8
102
{ACAD_REACTORS
330
16C4
102
}
330
16C4
100
AcDbVisualStyle
  2
GouraudWithEdges
 70
     3
 71
     2
 72
     2
 73
     1
 90
        2
 40
-0.6
 41
30.0
 62
     5
 63
     7
 74
     1
 91
        4
 64
     7
 65
   257
 75
     1
175
     1
 42
1.0
 92
        0
 66
   257
 43
1.0
 76
     1
 77
     6
 78
     2
 67
     7
 79
     5
170
     0
171
     0
290
     0
174
     0
 93
       13
 44
0.0
173
     0
291
     1
 45
0.0
1001
ACAD
1000
AcDbSavedByObjectVersion
1070
     0
  0
VISUALSTYLE
  5
16D2
102
{ACAD_REACTORS
330
16C4
102
}
330
16C4
100
AcDbVisualStyle
  2
Linepattern
 70
    14
 71
     2
 72
     2
 73
     0
 90
        0
 40
-0.6
 41
-30.0
 62
     5
 63
     7
 74
     1
 91
        4
 64
     7
 65
   257
 75
     7
175
     7
 42
1.0
 92
        8
 66
     7
 43
1.0
 76
     1
 77
     6
 78
     2
 67
     7
 79
     5
170
     0
171
     0
290
     0
174
     0
 93
        1
 44
0.0
173
     0
291
     1
 45
0.0
1001
ACAD
1000
AcDbSavedByObjectVersion
1070
     0
  0
VISUALSTYLE
  5
16CE
102
{ACAD_REACTORS
330
16C4
102
}
330
16C4
100
AcDbVisualStyle
  2
Realistic
 70
     8
 71
     2
 72
     2
 73
     0
 90
        0
 40
-0.6
 41
-30.0
 62
     5
 63
     7
 74
     1
 91
        0
 64
     7
 65
   257
 75
     1
175
     1
 42
1.0
 92
        8
 66
     8
 43
1.0
 76
     1
 77
     6
 78
     2
 67
     7
 79
     5
170
     0
171
     0
290
     0
174
     0
 93
       13
 44
0.0
173
     0
291
     0
 45
0.0
1001
ACAD
1000
AcDbSavedByObjectVersion
1070
     0
  0
VISUALSTYLE
  5
16D1
102
{ACAD_REACTORS
330
16C4
102
}
330
16C4
100
AcDbVisualStyle
  2
Thicken
 70
    13
 71
     2
 72
     2
 73
     0
 90
        0
 40
-0.6
 41
-30.0
 62
     5
 63
     7
 74
     1
 91
        4
 64
     7
 65
   257
 75
     1
175
     1
 42
1.0
 92
       12
 66
     7
 43
1.0
 76
     1
 77
     6
 78
     2
 67
     7
 79
     5
170
     0
171
     0
290
     0
174
     0
 93
        1
 44
0.0
173
     0
291
     1
 45
0.0
1001
ACAD
1000
AcDbSavedByObjectVersion
1070
     0
  0
DICTIONARYVAR
  5
16ED
102
{ACAD_REACTORS
330
16B
102
}
330
16B
100
DictionaryVariables
280
     0
  1
STANDARD
  0
DICTIONARYVAR
  5
16D
102
{ACAD_REACTORS
330
16B
102
}
330
16B
100
DictionaryVariables
280
     0
  1
1
  0
DICTIONARYVAR
  5
16C
102
{ACAD_REACTORS
330
16B
102
}
330
16B
100
DictionaryVariables
280
     0
  1
1
  0
DICTIONARYVAR
  5
5350
102
{ACAD_REACTORS
330
16B
102
}
330
16B
100
DictionaryVariables
280
     0
  1
0
  0
DICTIONARYVAR
  5
16E
102
{ACAD_REACTORS
330
16B
102
}
330
16B
100
DictionaryVariables
280
     0
  1

  0
DICTIONARYVAR
  5
7B5
102
{ACAD_REACTORS
330
16B
102
}
330
16B
100
DictionaryVariables
280
     0
  1
96
  0
XRECORD
  5
534F
102
{ACAD_REACTORS
330
16EA
102
}
330
16EA
100
AcDbXrecord
280
     1
1000
ADE02C001
1070
     1
1070
     0
1002
{
1002
}
1002
{
1002
}
1002
{
1002
}
1000

  0
XRECORD
  5
6DC
102
{ACAD_REACTORS
330
6DB
102
}
330
6DB
100
AcDbXrecord
280
     1
  0
DMSTYLIZEDENTITIESTABLE
  5
16E6
102
{ACAD_REACTORS
330
16D9
102
}
330
16D9
100
AcMapDMStylizedEntitiesTable
 70
     1
  0
DICTIONARY
  5
16E7
102
{ACAD_REACTORS
330
16D9
102
}
330
16D9
100
AcDbDictionary
280
     1
281
     1
  0
ACDBDATATABLE
  5
16DD
102
{ACAD_REACTORS
330
16D9
102
}
330
16D9
100
ACDBDATATABLE
 70
     2
 90
        4
 91
       15
  1

 92
        3
  2
OriginalClassName
  3
AcMapDMDefaultStyle
  3
AcMapDMEntityStyle
  3
AcMapDMRasterStyle
  3
AcMapDMSEAnnotationStyle
  3
AcMapDMSEHatchStyle
  3
AcMapDMSETextStyle
  3
AcMapDMThematicStyle
  3
AcMapDMBaseElement
  3
AcMapDMAttachedDwgsQueryElement
  3
AcMapDMFeatureElement
  3
AcMapDMLayerElement
  3
AcMapDMCurrentDwgQueryElement
  3
AcMapDMRasterElement
  3
AcMapDMTopoElement
  3
AcMapDMTopoQueryElement
 92
        3
  2
ProxyDisplayName
  3
Default
  3
Entity
  3
Raster
  3
Annotation
  3
Hatch
  3
Text
  3
Thematic
  3
Map Base
  3
Ade Query
  3
Feature Class
  3
Layer
  3
Ade Project Query
  3
Raster
  3
Topology
  3
Topology Query
 92
        1
  2
CustomObjectType
 93
        2
 93
        2
 93
        2
 93
        2
 93
        2
 93
        2
 93
        2
 93
        1
 93
        1
 93
        1
 93
        1
 93
        1
 93
        1
 93
        1
 93
        1
 92
        1
  2
StyleCoExistanceType
 93
        1
 93
        1
 93
        1
 93
        1
 93
        1
 93
        1
 93
        2
 93
        0
 93
        0
 93
        0
 93
        0
 93
        0
 93
        0
 93
        0
 93
        0
  0
DMMAPMANAGER
  5
16DA
102
{ACAD_REACTORS
330
16D9
102
}
330
16D9
100
AcDbDictionary
281
     1
  3
DisplayMap1
350
16DE
100
AcDbDictionaryWithDefault
340
16DE
100
AcMapDMMapManager
 70
     1
340
16DE
  0
DMSTYLELIBRARY
  5
16DB
102
{ACAD_REACTORS
330
16D9
102
}
330
16D9
100
AcMapDMStyleLibrary
 70
     1
 70
     1
360
16DC
  0
DICTIONARY
  5
5354
330
14D
100
AcDbDictionary
280
     1
281
     1
  3
ACAD_XREC_ROUNDTRIP
360
5355
  0
DICTIONARY
  5
5352
330
146
100
AcDbDictionary
280
     1
281
     1
  3
ACAD_XREC_ROUNDTRIP
360
5353
  0
DICTIONARY
  5
535C
330
16C2
100
AcDbDictionary
280
     1
281
     1
  3
ACAD_XREC_ROUNDTRIP
360
535D
  0
DICTIONARY
  5
535A
330
16C1
100
AcDbDictionary
280
     1
281
     1
  3
ACAD_XREC_ROUNDTRIP
360
535B
  0
DICTIONARY
  5
535E
330
16C3
100
AcDbDictionary
280
     1
281
     1
  3
ACAD_XREC_ROUNDTRIP
360
535F
  0
DICTIONARY
  5
5362
330
16DF
100
AcDbDictionary
280
     1
281
     1
  3
ACAD_XREC_ROUNDTRIP
360
5363
  0
DICTIONARY
  5
5360
330
16D6
100
AcDbDictionary
280
     1
281
     1
  3
ACAD_XREC_ROUNDTRIP
360
5361
  0
DMMAP
  5
16DE
102
{ACAD_REACTORS
330
16DA
330
16E0
102
}
330
16DA
100
AcMapDMMap
 70
     1
  1
Default
 70
     1
330
0
100
AcMapDMMap
 70
     1
 90
        1
360
16E0
 90
        1
 40
1.797693134862314E+99
 70
     1
100
AcMapDMMap
 70
     2
 70
     0
 40
1.797693134862314E+99
290
     1
290
     1
 40
1.0
 40
3.0
  1
Legend
 90
        1
 40
1.797693134862314E+99
  1

 70
     0
 40
1.0
 70
     1
 90
        0
 90
        1
360
16E1
  0
DMSTYLECATEGORY
  5
16DC
102
{ACAD_REACTORS
330
16DB
102
}
330
0
100
AcMapDMStyleCategory
 70
     1
  1
Display Styles
 70
     0
  0
XRECORD
  5
5355
102
{ACAD_REACTORS
330
5354
102
}
330
5354
100
AcDbXrecord
280
     1
102
SHADEPLOT
 70
     0
102
SHADEPLOTRESLEVEL
 70
     2
102
SHADEPLOTCUSTOMDPI
 70
   300
  0
XRECORD
  5
5353
102
{ACAD_REACTORS
330
5352
102
}
330
5352
100
AcDbXrecord
280
     1
102
SHADEPLOT
 70
     0
102
SHADEPLOTRESLEVEL
 70
     2
102
SHADEPLOTCUSTOMDPI
 70
   300
  0
XRECORD
  5
535D
102
{ACAD_REACTORS
330
535C
102
}
330
535C
100
AcDbXrecord
280
     1
102
MATERIAL
148
0.0
149
0.0
149
0.0
 93
        0
 94
       63
282
     0
 72
     1
 77
     1
171
     1
175
     1
179
     1
273
     0
  0
XRECORD
  5
535B
102
{ACAD_REACTORS
330
535A
102
}
330
535A
100
AcDbXrecord
280
     1
102
MATERIAL
148
0.0
149
0.0
149
0.0
 93
        0
 94
       63
282
     0
 72
     1
 77
     1
171
     1
175
     1
179
     1
273
     0
  0
XRECORD
  5
535F
102
{ACAD_REACTORS
330
535E
102
}
330
535E
100
AcDbXrecord
280
     1
102
MATERIAL
148
0.0
149
0.0
149
0.0
 93
        0
 94
       63
282
     0
 72
     1
 77
     1
171
     1
175
     1
179
     1
273
     0
  0
XRECORD
  5
5363
102
{ACAD_REACTORS
330
5362
102
}
330
5362
100
AcDbXrecord
280
     1
102
ACAD_ROUNDTRIP_PRE2007_TABLESTYLE
 90
      512
 91
        0
  1

 92
      512
 93
        0
  2

 94
      512
 95
        0
  3

  0
XRECORD
  5
5361
102
{ACAD_REACTORS
330
5360
102
}
330
5360
100
AcDbXrecord
280
     1
102
ACAD_ROUNDTRIP_PRE2007_TABLESTYLE
 90
      512
 91
        0
  1

 92
      512
 93
        0
  2

 94
      512
 95
        0
  3

  0
DMBASEELEMENT
  5
16E0
102
{ACAD_XDICTIONARY
360
16E4
102
}
102
{ACAD_REACTORS
330
16DE
102
}
330
16DE
100
AcMapDMBaseElement
 70
     1
  1
Map Base
 70
     1
330
16DE
100
AcMapDMBaseElement
 70
     1
  1

 70
     2
  1

 70
     1
 40
1.797693134862314E+99
 70
     1
 70
     1
 70
     1
 70
     1
360
16E3
100
AcMapDMBaseElement
 70
     1
  0
DMDEFAULTSTYLE
  5
16E1
102
{ACAD_REACTORS
330
16DE
102
}
330
16DE
100
AcMapDMDefaultStyle
 70
     1
 90
        1
  1
Default
100
AcMapDMDefaultStyle
 70
     1
280
   100
 90
     0
1001
AcMapDMDisplayStyleRegapp
1070
     2
1071
        1
1000
Default
1000

  0
DICTIONARY
  5
16E4
330
16E0
100
AcDbDictionary
280
     1
281
     1
  3
AcMapDMSurrogateStyleSets
360
16E5
  0
DMSTYLEREFERENCE
  5
16E3
330
16E0
100
AcMapDMStyleReference
 70
     1
 70
     0
340
16E1
330
16DE
  0
DMSURROGATESTYLESETS
  5
16E5
102
{ACAD_REACTORS
330
16E4
102
}
330
16E4
100
AcMapDMSurrogateStyleSets
 70
     1
  1
Map Base
 70
     1
 40
1.797693134862314E+99
 70
     1
 70
     1
 70
     1
 70
     1
330
16E3
 70
     0
  0
ENDSEC
  0
EOF
