  0
SECTION
  2
HEADER
  9
$ACADVER
  1
AC1015
  9
$ACADMAINTVER
 70
    20
  9
$DWGCODEPAGE
  3
ANSI_1252
  9
$INSBASE
 10
0.0
 20
0.0
 30
0.0
  9
$EXTMIN
 10
-0.0826839266815114
 20
-0.0093187151035181
 30
-0.0000000000000058
  9
$EXTMAX
 10
1099.300113212549
 20
238.0166586848878
 30
0.0000000000000104
  9
$LIMMIN
 10
0.0
 20
0.0
  9
$LIMMAX
 10
0.0
 20
0.0
  9
$ORTHOMODE
 70
     1
  9
$REGENMODE
 70
     1
  9
$FILLMODE
 70
     1
  9
$QTEXTMODE
 70
     0
  9
$MIRRTEXT
 70
     1
  9
$LTSCALE
 40
1.0
  9
$ATTMODE
 70
     1
  9
$TEXTSIZE
 40
10.0
  9
$TRACEWID
 40
0.05
  9
$TEXTSTYLE
  7
STANDARD
  9
$CLAYER
  8
mechanical
  9
$CELTYPE
  6
CONTINUOUS
  9
$CECOLOR
 62
   256
  9
$CELTSCALE
 40
1.0
  9
$DISPSILH
 70
     0
  9
$DIMSCALE
 40
1.0
  9
$DIMASZ
 40
0.18
  9
$DIMEXO
 40
0.0625
  9
$DIMDLI
 40
0.38
  9
$DIMRND
 40
0.0
  9
$DIMDLE
 40
0.0
  9
$DIMEXE
 40
0.18
  9
$DIMTP
 40
0.0
  9
$DIMTM
 40
0.0
  9
$DIMTXT
 40
10.0
  9
$DIMCEN
 40
0.09
  9
$DIMTSZ
 40
0.0
  9
$DIMTOL
 70
     0
  9
$DIMLIM
 70
     0
  9
$DIMTIH
 70
     1
  9
$DIMTOH
 70
     1
  9
$DIMSE1
 70
     0
  9
$DIMSE2
 70
     0
  9
$DIMTAD
 70
     0
  9
$DIMZIN
 70
     0
  9
$DIMBLK
  1

  9
$DIMASO
 70
     1
  9
$DIMSHO
 70
     1
  9
$DIMPOST
  1

  9
$DIMAPOST
  1

  9
$DIMALT
 70
     0
  9
$DIMALTD
 70
     2
  9
$DIMALTF
 40
25.4
  9
$DIMLFAC
 40
1.0
  9
$DIMTOFL
 70
     0
  9
$DIMTVP
 40
0.0
  9
$DIMTIX
 70
     0
  9
$DIMSOXD
 70
     0
  9
$DIMSAH
 70
     0
  9
$DIMBLK1
  1

  9
$DIMBLK2
  1

  9
$DIMSTYLE
  2
STANDARD
  9
$DIMCLRD
 70
     0
  9
$DIMCLRE
 70
     0
  9
$DIMCLRT
 70
     0
  9
$DIMTFAC
 40
1.0
  9
$DIMGAP
 40
0.09
  9
$DIMJUST
 70
     0
  9
$DIMSD1
 70
     0
  9
$DIMSD2
 70
     0
  9
$DIMTOLJ
 70
     1
  9
$DIMTZIN
 70
     0
  9
$DIMALTZ
 70
     0
  9
$DIMALTTZ
 70
     0
  9
$DIMUPT
 70
     0
  9
$DIMDEC
 70
     4
  9
$DIMTDEC
 70
     4
  9
$DIMALTU
 70
     2
  9
$DIMALTTD
 70
     2
  9
$DIMTXSTY
  7
STANDARD
  9
$DIMAUNIT
 70
     0
  9
$DIMADEC
 70
     5
  9
$DIMALTRND
 40
0.0
  9
$DIMAZIN
 70
     0
  9
$DIMDSEP
 70
    46
  9
$DIMATFIT
 70
     3
  9
$DIMFRAC
 70
     0
  9
$DIMLDRBLK
  1

  9
$DIMLUNIT
 70
     2
  9
$DIMLWD
 70
    -2
  9
$DIMLWE
 70
    -2
  9
$DIMTMOVE
 70
     0
  9
$LUNITS
 70
     2
  9
$LUPREC
 70
     4
  9
$SKETCHINC
 40
0.1
  9
$FILLETRAD
 40
0.0
  9
$AUNITS
 70
     0
  9
$AUPREC
 70
     0
  9
$MENU
  1
acad
  9
$ELEVATION
 40
0.0
  9
$PELEVATION
 40
0.0
  9
$THICKNESS
 40
0.0
  9
$LIMCHECK
 70
     0
  9
$CHAMFERA
 40
0.0
  9
$CHAMFERB
 40
0.0
  9
$CHAMFERC
 40
0.0
  9
$CHAMFERD
 40
0.0
  9
$SKPOLY
 70
     0
  9
$TDCREATE
 40
2311946.475710706
  9
$TDUCREATE
 40
2311946.434044039
  9
$TDUPDATE
 40
2454389.677284364
  9
$TDUUPDATE
 40
2454389.635617697
  9
$TDINDWG
 40
1.0250191898
  9
$TDUSRTIMER
 40
1.0250190741
  9
$USRTIMER
 70
     1
  9
$ANGBASE
 50
0.0
  9
$ANGDIR
 70
     0
  9
$PDMODE
 70
     0
  9
$PDSIZE
 40
0.0
  9
$PLINEWID
 40
1.199999999999999
  9
$SPLFRAME
 70
     0
  9
$SPLINETYPE
 70
     6
  9
$SPLINESEGS
 70
     8
  9
$HANDSEED
  5
2C35
  9
$SURFTAB1
 70
     6
  9
$SURFTAB2
 70
     6
  9
$SURFTYPE
 70
     6
  9
$SURFU
 70
     6
  9
$SURFV
 70
     6
  9
$UCSBASE
  2

  9
$UCSNAME
  2

  9
$UCSORG
 10
0.0
 20
0.0
 30
0.0
  9
$UCSXDIR
 10
1.0
 20
0.0
 30
0.0
  9
$UCSYDIR
 10
0.0
 20
1.0
 30
0.0
  9
$UCSORTHOREF
  2

  9
$UCSORTHOVIEW
 70
     0
  9
$UCSORGTOP
 10
0.0
 20
0.0
 30
0.0
  9
$UCSORGBOTTOM
 10
0.0
 20
0.0
 30
0.0
  9
$UCSORGLEFT
 10
0.0
 20
0.0
 30
0.0
  9
$UCSORGRIGHT
 10
0.0
 20
0.0
 30
0.0
  9
$UCSORGFRONT
 10
0.0
 20
0.0
 30
0.0
  9
$UCSORGBACK
 10
0.0
 20
0.0
 30
0.0
  9
$PUCSBASE
  2

  9
$PUCSNAME
  2

  9
$PUCSORG
 10
0.0
 20
0.0
 30
0.0
  9
$PUCSXDIR
 10
1.0
 20
0.0
 30
0.0
  9
$PUCSYDIR
 10
0.0
 20
1.0
 30
0.0
  9
$PUCSORTHOREF
  2

  9
$PUCSORTHOVIEW
 70
     0
  9
$PUCSORGTOP
 10
0.0
 20
0.0
 30
0.0
  9
$PUCSORGBOTTOM
 10
0.0
 20
0.0
 30
0.0
  9
$PUCSORGLEFT
 10
0.0
 20
0.0
 30
0.0
  9
$PUCSORGRIGHT
 10
0.0
 20
0.0
 30
0.0
  9
$PUCSORGFRONT
 10
0.0
 20
0.0
 30
0.0
  9
$PUCSORGBACK
 10
0.0
 20
0.0
 30
0.0
  9
$USERI1
 70
     0
  9
$USERI2
 70
     0
  9
$USERI3
 70
     0
  9
$USERI4
 70
     0
  9
$USERI5
 70
     0
  9
$USERR1
 40
0.0
  9
$USERR2
 40
0.0
  9
$USERR3
 40
0.0
  9
$USERR4
 40
0.0
  9
$USERR5
 40
0.0
  9
$WORLDVIEW
 70
     1
  9
$SHADEDGE
 70
     3
  9
$SHADEDIF
 70
    70
  9
$TILEMODE
 70
     1
  9
$MAXACTVP
 70
    16
  9
$PINSBASE
 10
0.0
 20
0.0
 30
0.0
  9
$PLIMCHECK
 70
     0
  9
$PEXTMIN
 10
114.7487361907958
 20
78.54526405334468
 30
0.0
  9
$PEXTMAX
 10
1032.738625717163
 20
706.9073764801025
 30
0.0
  9
$PLIMMIN
 10
-20.1082763671875
 20
-27.22033309936524
  9
$PLIMMAX
 10
1167.765014648437
 20
812.6729774475098
  9
$UNITMODE
 70
     0
  9
$VISRETAIN
 70
     0
  9
$PLINEGEN
 70
     1
  9
$PSLTSCALE
 70
     0
  9
$TREEDEPTH
 70
  3020
  9
$CMLSTYLE
  2
STANDARD
  9
$CMLJUST
 70
     0
  9
$CMLSCALE
 40
1.0
  9
$PROXYGRAPHICS
 70
     1
  9
$MEASUREMENT
 70
     1
  9
$CELWEIGHT
370
    -1
  9
$ENDCAPS
280
     0
  9
$JOINSTYLE
280
     0
  9
$LWDISPLAY
290
     0
  9
$INSUNITS
 70
     0
  9
$HYPERLINKBASE
  1

  9
$STYLESHEET
  1
monochrome.ctb
  9
$XEDIT
290
     1
  9
$CEPSNTYPE
380
     0
  9
$PSTYLEMODE
290
     1
  9
$FINGERPRINTGUID
  2
{44CFACF6-FF42-4479-A730-8E27374F1164}
  9
$VERSIONGUID
  2
{669656A6-A754-483C-95E6-5F0ADD9B212D}
  9
$EXTNAMES
290
     1
  9
$PSVPSCALE
 40
0.0
  9
$OLESTARTUP
290
     0
  0
ENDSEC
  0
SECTION
  2
CLASSES
  0
CLASS
  1
IMAGE
  2
AcDbRasterImage
  3
ISM
 90
    32895
280
     0
281
     1
  0
CLASS
  1
DICTIONARYVAR
  2
AcDbDictionaryVar
  3
ObjectDBX Classes
 90
        0
280
     0
281
     0
  0
CLASS
  1
RASTERVARIABLES
  2
AcDbRasterVariables
  3
ISM
 90
    32768
280
     0
281
     0
  0
CLASS
  1
IMAGEDEF
  2
AcDbRasterImageDef
  3
ISM
 90
    32768
280
     0
281
     0
  0
CLASS
  1
IMAGEDEF_REACTOR
  2
AcDbRasterImageDefReactor
  3
ISM
 90
    32769
280
     0
281
     0
  0
CLASS
  1
IDBUFFER
  2
AcDbIdBuffer
  3
ObjectDBX Classes
 90
        0
280
     0
281
     0
  0
CLASS
  1
SPATIAL_FILTER
  2
AcDbSpatialFilter
  3
ObjectDBX Classes
 90
    32768
280
     0
281
     0
  0
CLASS
  1
SORTENTSTABLE
  2
AcDbSortentsTable
  3
ObjectDBX Classes
 90
        0
280
     0
281
     0
  0
CLASS
  1
LAYER_INDEX
  2
AcDbLayerIndex
  3
ObjectDBX Classes
 90
        0
280
     0
281
     0
  0
CLASS
  1
SPATIAL_INDEX
  2
AcDbSpatialIndex
  3
ObjectDBX Classes
 90
    32768
280
     0
281
     0
  0
CLASS
  1
OBJECT_PTR
  2
CAseDLPNTableRecord
  3
ASE-LPNTableRecord
 90
    32769
280
     0
281
     0
  0
CLASS
  1
LAYOUT
  2
AcDbLayout
  3
ObjectDBX Classes
 90
        0
280
     0
281
     0
  0
CLASS
  1
PLOTSETTINGS
  2
AcDbPlotSettings
  3
ObjectDBX Classes
 90
    32768
280
     0
281
     0
  0
CLASS
  1
ACDBDICTIONARYWDFLT
  2
AcDbDictionaryWithDefault
  3
ObjectDBX Classes
 90
        0
280
     0
281
     0
  0
CLASS
  1
ACDBPLACEHOLDER
  2
AcDbPlaceHolder
  3
ObjectDBX Classes
 90
        0
280
     0
281
     0
  0
CLASS
  1
VBA_PROJECT
  2
AcDbVbaProject
  3
acad
 90
    32768
280
     0
281
     0
  0
CLASS
  1
WIPEOUT
  2
AcDbWipeout
  3
WipeOut|AutoCAD Express Tool|expresstools@autodesk.com
 90
    32895
280
     0
281
     1
  0
CLASS
  1
WIPEOUTVARIABLES
  2
AcDbWipeoutVariables
  3
WipeOut|AutoCAD Express Tool|expresstools@autodesk.com
 90
    32768
280
     0
281
     0
  0
CLASS
  1
RTEXT
  2
RText
  3
RText|AutoCAD Express Tool|expresstools@autodesk.com
 90
    32768
280
     0
281
     1
  0
CLASS
  1
ARCALIGNEDTEXT
  2
AcDbArcAlignedText
  3
ATEXT|AutoCAD Express Tool|expresstools@autodesk.com
 90
    32768
280
     0
281
     1
  0
CLASS
  1
MATERIAL
  2
AcDbMaterial
  3
ObjectDBX Classes
 90
     1153
280
     0
281
     0
  0
CLASS
  1
VISUALSTYLE
  2
AcDbVisualStyle
  3
ObjectDBX Classes
 90
     4095
280
     0
281
     0
  0
CLASS
  1
TABLESTYLE
  2
AcDbTableStyle
  3
ObjectDBX Classes
 90
     4095
280
     0
281
     0
  0
CLASS
  1
SCALE
  2
AcDbScale
  3
ObjectDBX Classes
 90
     1153
280
     0
281
     0
  0
CLASS
  1
MLEADERSTYLE
  2
AcDbMLeaderStyle
  3
ACDB_MLEADERSTYLE_CLASS
 90
     4095
280
     0
281
     0
  0
CLASS
  1
ACME_DOCUMENT
  2
AcMeDbDoc
  3
AcMeServices
 90
     1024
280
     0
281
     0
  0
CLASS
  1
AMGSETTINGSOBJ
  2
AmgSettingsObj
  3
"AcadM|Product Description: AutoCAD Mechanical|Company: Autodesk, Inc."
 90
     1024
280
     0
281
     0
  0
CLASS
  1
ACMESCOPE
  2
AcMeScope
  3
AcMeServices
 90
     1024
280
     0
281
     0
  0
CLASS
  1
ACMECOMMANDHISTORY
  2
AcMeCommandHistory
  3
AcMeServices
 90
     1024
280
     0
281
     0
  0
CLASS
  1
ACIMSYSVARMAN
  2
AcImSysVarManager
  3
AcMeServices
 90
     1024
280
     0
281
     0
  0
CLASS
  1
ACIMREALSYSVAR
  2
AcImRealSysVar
  3
AcMeServices
 90
     1024
280
     0
281
     0
  0
CLASS
  1
ACIMINTSYSVAR
  2
AcImIntSysVar
  3
AcMeServices
 90
     1024
280
     0
281
     0
  0
CLASS
  1
ACMEDRAWINGMAN
  2
AcMeDrawingMan
  3
AcMeServices
 90
     1024
280
     0
281
     0
  0
CLASS
  1
ACMEVIEW
  2
AcMeView
  3
AcMeServices
 90
     1024
280
     0
281
     0
  0
CLASS
  1
ACDBENTITYCACHE
  2
AcMeEntityCache
  3
AcMeServices
 90
     1024
280
     0
281
     0
  0
CLASS
  1
GSMANAGER
  2
AcMeGSManager
  3
AcMeServices
 90
     1024
280
     0
281
     0
  0
CLASS
  1
AMDTINTERNALREACTOR
  2
AmdtInternalReactor
  3
AcMeServices
 90
     1024
280
     0
281
     0
  0
CLASS
  1
ACMESTATEMGR
  2
AcMeStateMgr
  3
AcMeServices
 90
     1024
280
     0
281
     0
  0
CLASS
  1
ACGREFMASTER
  2
AcGrefMaster
  3
AcAttribServices
 90
     1024
280
     0
281
     0
  0
CLASS
  1
AM_DRAWING_MGR
  2
AcDmDwgMgr
  3
AcMechDwgViewMgmt
 90
     1024
280
     0
281
     0
  0
CLASS
  1
AM_DWG_DOCUMENT
  2
AcDmDwgDocument
  3
AcMechDwgViewMgmt
 90
     1024
280
     0
281
     0
  0
CLASS
  1
AM_DWG_SHEET
  2
AcDmSheet
  3
AcMechDwgViewMgmt
 90
     1024
280
     0
281
     0
  0
CLASS
  1
AM_VIEWDIMPARMAP
  2
AcDmViewDimParMap
  3
AcMechDwgViewMgmt
 90
     1024
280
     0
281
     0
  0
CLASS
  1
AM_DWGMGR_NAME
  2
AcDmDwgMgrName
  3
AcMechDwgViewMgmt
 90
     1024
280
     0
281
     0
  0
CLASS
  1
ACME_DATABASE
  2
AcMeDbDatabase
  3
AcMeServices
 90
     1024
280
     0
281
     0
  0
CLASS
  1
ACRFINSADJUSTERMGR
  2
AcRfInsAdjusterMgr
  3
AcMeServices
 90
     1024
280
     0
281
     0
  0
CLASS
  1
ACGREFACADMASTER
  2
AcGrefacadMaster
  3
AcGrefServices
 90
     1024
280
     0
281
     0
  0
CLASS
  1
AMDTMENUSTATEMGR
  2
AmdtMenuStateMgr
  3
McadcomServices
 90
     1024
280
     0
281
     0
  0
CLASS
  1
AMDTMCOMMENUSTATE
  2
AmdtMcomMenuState
  3
McadcomServices
 90
     1024
280
     0
281
     0
  0
CLASS
  1
AMIMASTER
  2
AmiMaster
  3
AmiServices
 90
     1024
280
     0
281
     0
  0
CLASS
  1
ASAPP
  2
AcAsAppObject
  3
AutoSurfServices
 90
     1024
280
     0
281
     0
  0
CLASS
  1
IM_STATIC_MAN
  2
AcImStaticVarManager
  3
AcMeServices
 90
     1024
280
     0
281
     0
  0
CLASS
  1
ACIMSTRSYSVAR
  2
AcImStrSysVar
  3
AcMeServices
 90
     1024
280
     0
281
     0
  0
CLASS
  1
ACIMDBLSTATICVAR
  2
AcImDblStaticVar
  3
AcMeServices
 90
     1024
280
     0
281
     0
  0
CLASS
  1
ACIMSTRSTATICVAR
  2
AcImStrStaticVar
  3
AcMeServices
 90
     1024
280
     0
281
     0
  0
CLASS
  1
ACIMINTSTATICVAR
  2
AcImIntStaticVar
  3
AcMeServices
 90
     1024
280
     0
281
     0
  0
CLASS
  1
ACASGREFMASTER
  2
AcAsGrefMaster
  3
AutoSurfResolverServices
 90
     1024
280
     0
281
     0
  0
CLASS
  1
ACADGREFMODULE
  2
AcAdGrefModule
  3
AdGrefServices
 90
     1024
280
     0
281
     0
  0
CLASS
  1
AMDTMAPISURFMOUDULE
  2
AmdtMApiSurfModule
  3
MApiSurfServices
 90
     1024
280
     0
281
     0
  0
CLASS
  1
MAPIAMMOUDLE
  2
MApiAmModule
  3
MApiAmServices
 90
     1024
280
     0
281
     0
  0
CLASS
  1
AMDTADMENUSTATE
  2
AmdtAdMenuState
  3
DesignerServices
 90
     1024
280
     0
281
     0
  0
CLASS
  1
ADAPPL
  2
AcAdAppl
  3
DesignerServices
 90
     1024
280
     0
281
     0
  0
CLASS
  1
DEPMGR
  2
AcAdDepMgr
  3
DesignerServices
 90
     1024
280
     0
281
     0
  0
CLASS
  1
PARAMMGR
  2
AcAdParamMgr
  3
DesignerServices
 90
     1024
280
     0
281
     0
  0
CLASS
  1
PARAMSCOPE
  2
AcAdParamScope
  3
DesignerServices
 90
     1024
280
     0
281
     0
  0
CLASS
  1
NAMEDAPPL
  2
AcAdNamedAppl
  3
DesignerServices
 90
     1024
280
     0
281
     0
  0
CLASS
  1
AMDTDMMENUSTATE
  2
AmdtDmMenuState
  3
AcMechDwgViewMgmt
 90
     1024
280
     0
281
     0
  0
CLASS
  1
MAPIADMODULE
  2
MApiAdModule
  3
MApiAdServices
 90
     1024
280
     0
281
     0
  0
CLASS
  1
AMDTAMMENUSTATE
  2
AmdtAmMenuState
  3
DesignerAssemblies
 90
     1024
280
     0
281
     0
  0
CLASS
  1
ACAMPROJECT
  2
AcAmProject
  3
DesignerAssemblies
 90
     1024
280
     0
281
     0
  0
CLASS
  1
ACAMGRCOMPDEF
  2
AcAmGrCompDef
  3
DesignerAssemblies
 90
     1024
280
     0
281
     0
  0
CLASS
  1
ACCMCONTEXT
  2
AcCmContext
  3
DesignerAssemblies
 90
     1024
280
     0
281
     0
  0
CLASS
  1
ACAMCOMPDEF
  2
AcAmCompDef
  3
DesignerAssemblies
 90
     1024
280
     0
281
     0
  0
CLASS
  1
ACAMCOMPDEFMGR
  2
AcAmCompDefMgr
  3
DesignerAssemblies
 90
     1024
280
     0
281
     0
  0
CLASS
  1
AMCONTEXTMGR
  2
AcAmContextMgr
  3
DesignerAssemblies
 90
     1024
280
     0
281
     0
  0
CLASS
  1
ACAMCONTEXTMODELER
  2
AcAmContextModeler
  3
DesignerAssemblies
 90
     1024
280
     0
281
     0
  0
CLASS
  1
ACMDATADICTIONARY
  2
AcmDataDictionary
  3
"AcmSymBB|Product Description: AutoCAD Mechanical|Company: Autodesk, Inc."
 90
     1024
280
     0
281
     0
  0
CLASS
  1
ACMDATAENTRYBLOCK
  2
AcmDataEntryBlock
  3
AcmSymBB|Product Description: AutoCAD Mechanical|Company: Autodesk, Inc.
 90
     1024
280
     0
281
     0
  0
CLASS
  1
ACRFATTGENMGR
  2
AcRfAttGeneralMgr
  3
AcAttribServices
 90
     1024
280
     0
281
     0
  0
CLASS
  1
ACRFOBJATTMGR
  2
AcRfObjAttGroupMgr
  3
AcAttribServices
 90
     1024
280
     0
281
     0
  0
CLASS
  1
ACRFMCADAPIATTHOLDER
  2
AcRfMCADAPIAttHolder
  3
AcAttribServices
 90
     1024
280
     0
281
     0
  0
CLASS
  1
AMDTSYSATTR
  2
AmdtSystemAttribute
  3
AcAttribServices
 90
     1024
280
     0
281
     0
  0
CLASS
  1
CATALOGSTATE
  2
AcAmCatalogState
  3
DesignerAssemblies
 90
     1024
280
     0
281
     0
  0
CLASS
  1
ACAMGRCOMPDEFSET
  2
AcAmGrCompDefSet
  3
DesignerAssemblies
 90
     1024
280
     0
281
     0
  0
CLASS
  1
AMDTBROWSERDBTAB
  2
AmdtBrowserDbTab
  3
McadcomServices
 90
     1024
280
     0
281
     0
  0
CLASS
  1
CBROWSERAPPOBJECT
  2
CBrowserAppObject
  3
McadcomServices
 90
     1024
280
     0
281
     0
  0
CLASS
  1
DM_PLACEHOLDER
  2
AcDmSelsetPlaceholder
  3
AcMechDwgViewMgmt
 90
     1024
280
     0
281
     0
  0
CLASS
  1
ACMSTANDARDISO
  2
AcmStandardISO
  3
"Amdt_StdImp|Product Description: AutoCAD Mechanical|Company: Autodesk, Inc."
 90
     1024
280
     0
281
     0
  0
CLASS
  1
AMGOBJPROPCFG
  2
AmgObjPropCfg
  3
"AmgLay|Product Description: AutoCAD Mechanical|Company: Autodesk, Inc."
 90
     1025
280
     0
281
     0
  0
CLASS
  1
AMDTEDGESTANDARDISO13715
  2
AmdtEdgeStdISO13715
  3
"Amdt_StdImp|Product Description: AutoCAD Mechanical|Company: Autodesk, Inc."
 90
     1024
280
     0
281
     0
  0
CLASS
  1
ACMSURFSTANDARDISO2002
  2
AcmSurfTextStdISO2002
  3
"Amdt_StdImp|Product Description: AutoCAD Mechanical|Company: Autodesk, Inc."
 90
     1024
280
     0
281
     0
  0
CLASS
  1
ACMFCFSTANDARDISO
  2
AcmFCFStdISO
  3
"Amdt_StdImp|Product Description: AutoCAD Mechanical|Company: Autodesk, Inc."
 90
     1024
280
     0
281
     0
  0
CLASS
  1
ACMWELDSTANDARDISO
  2
AcmWeldingStdISO
  3
"Amdt_StdImp|Product Description: AutoCAD Mechanical|Company: Autodesk, Inc."
 90
     1024
280
     0
281
     0
  0
CLASS
  1
ACMIDSTANDARDISO
  2
AcmIdStdISO
  3
"Amdt_StdImp|Product Description: AutoCAD Mechanical|Company: Autodesk, Inc."
 90
     1024
280
     0
281
     0
  0
CLASS
  1
ACMDATUMSTANDARDISO
  2
AcmDatumStdISO
  3
"Amdt_StdImp|Product Description: AutoCAD Mechanical|Company: Autodesk, Inc."
 90
     1024
280
     0
281
     0
  0
CLASS
  1
ACMBOMSTANDARDISO
  2
AcmBOMStdISO
  3
"Amdt_StdImp|Product Description: AutoCAD Mechanical|Company: Autodesk, Inc."
 90
     1024
280
     0
281
     0
  0
CLASS
  1
ACMDETAILSTANDARDISO
  2
AmdtDetailSymStdISO
  3
"Amdt_StdImp|Product Description: AutoCAD Mechanical|Company: Autodesk, Inc."
 90
     1024
280
     0
281
     0
  0
CLASS
  1
ACMSECTIONSTANDARDISO2001
  2
AmdtSectionSymStdISO2001
  3
"Amdt_StdImp|Product Description: AutoCAD Mechanical|Company: Autodesk, Inc."
 90
     1024
280
     0
281
     0
  0
CLASS
  1
ACMCENTERLINESTANDARDISO
  2
AmdtCenterLineStdISO
  3
"Amdt_StdImp|Product Description: AutoCAD Mechanical|Company: Autodesk, Inc."
 90
     1024
280
     0
281
     0
  0
CLASS
  1
ACMTHREADLINESTANDARDISO
  2
AmdtThreadLineStdISO
  3
"Amdt_StdImp|Product Description: AutoCAD Mechanical|Company: Autodesk, Inc."
 90
     1024
280
     0
281
     0
  0
CLASS
  1
ACMNOTESTANDARDISO
  2
AmdtNoteStdISO
  3
"Amdt_StdImp|Product Description: AutoCAD Mechanical|Company: Autodesk, Inc."
 90
     1024
280
     0
281
     0
  0
CLASS
  1
ACMTAPERSTANDARDISO
  2
AcmTaperStdISO
  3
"Amdt_StdImp|Product Description: AutoCAD Mechanical|Company: Autodesk, Inc."
 90
     1024
280
     0
281
     0
  0
CLASS
  1
ACMANOOTATIONVIEWSTANDARDISO
  2
AmdtAnViewStdISO
  3
"Amdt_StdImp|Product Description: AutoCAD Mechanical|Company: Autodesk, Inc."
 90
     1024
280
     0
281
     0
  0
CLASS
  1
AMDTNOTETEMPLATEDB
  2
AmdtNoteTemplateDB
  3
AcmSymBB|Product Description: AutoCAD Mechanical|Company: Autodesk, Inc.
 90
     1024
280
     0
281
     0
  0
CLASS
  1
ACAMGLAYSTD
  2
AcAmgLayStd
  3
"AmgLay|Product Description: AutoCAD Mechanical|Company: Autodesk, Inc."
 90
     1024
280
     0
281
     0
  0
CLASS
  1
ACAMGDIMSTD
  2
AcAmgDimStd
  3
"AmgDim|Product Description: AutoCAD Mechanical|Company: Autodesk, Inc."
 90
     1024
280
     0
281
     0
  0
CLASS
  1
ACAMGHOLECHARTSTDISO
  2
AcAmgHoleChartStdISO
  3
AmgDim|Product Description: AutoCAD Mechanical|Company: Autodesk, Inc.
 90
     1024
280
     0
281
     0
  0
CLASS
  1
ACAMGTITLESTD
  2
AcAmgTitleStd
  3
"AmgTitle|Product Description: AutoCAD Mechanical|Company: Autodesk, Inc."
 90
     4095
280
     0
281
     0
  0
CLASS
  1
CELLSTYLEMAP
  2
AcDbCellStyleMap
  3
ObjectDBX Classes
 90
     1152
280
     0
281
     0
  0
CLASS
  1
ACAMGFILTERDAT
  2
AcAmgFilterDat
  3
"AcadM|Product Description: AutoCAD Mechanical|Company: Autodesk, Inc."
 90
     1024
280
     0
281
     0
  0
ENDSEC
  0
SECTION
  2
TABLES
  0
TABLE
  2
VPORT
  5
157
330
0
100
AcDbSymbolTable
 70
     1
  0
VPORT
  5
16BF
330
157
100
AcDbSymbolTableRecord
100
AcDbViewportTableRecord
  2
*Active
 70
     0
 10
0.0
 20
0.0
 11
1.0
 21
1.0
 12
-103.9496072072617
 22
-106.065504342583
 13
0.0
 23
0.0
 14
1.0
 24
1.0
 15
0.0
 25
0.0
 16
0.0
 26
0.0
 36
1.0
 17
653.5583218501953
 27
225.0691743274751
 37
0.0
 40
714.1226855161999
 41
1.5470737913486
 42
50.0
 43
0.0
 44
0.0
 50
0.0
 51
0.0
 71
     0
 72
   100
 73
     1
 74
     1
 75
     0
 76
     0
 77
     0
 78
     0
281
     0
 65
     0
110
0.0
120
0.0
130
0.0
111
1.0
121
0.0
131
0.0
112
0.0
122
1.0
132
0.0
 79
     0
146
0.0
  0
ENDTAB
  0
TABLE
  2
LTYPE
  5
152
330
0
100
AcDbSymbolTable
 70
    16
  0
LTYPE
  5
153
330
152
100
AcDbSymbolTableRecord
100
AcDbLinetypeTableRecord
  2
BYBLOCK
 70
     0
  3

 72
    65
 73
     0
 40
0.0
  0
LTYPE
  5
154
330
152
100
AcDbSymbolTableRecord
100
AcDbLinetypeTableRecord
  2
BYLAYER
 70
     0
  3

 72
    65
 73
     0
 40
0.0
  0
LTYPE
  5
A
330
152
100
AcDbSymbolTableRecord
100
AcDbLinetypeTableRecord
  2
CONTINUOUS
 70
     0
  3
Solid line
 72
    65
 73
     0
 40
0.0
  0
LTYPE
  5
174B
330
152
100
AcDbSymbolTableRecord
100
AcDbLinetypeTableRecord
  2
HIDDEN
 70
     0
  3
Hidden __ __ __ __ __ __ __ __ __ __ __ __ __ _
 72
    65
 73
     2
 40
9.524999999999998
 49
6.349999999999999
 74
     0
 49
-3.174999999999999
 74
     0
  0
LTYPE
  5
174C
330
152
100
AcDbSymbolTableRecord
100
AcDbLinetypeTableRecord
  2
PHANTOM2
 70
     0
  3
Phantom (.5x) ___ _ _ ___ _ _ ___ _ _ ___ _ _
 72
    65
 73
     6
 40
31.75
 49
15.875
 74
     0
 49
-3.174999999999999
 74
     0
 49
3.174999999999999
 74
     0
 49
-3.174999999999999
 74
     0
 49
3.174999999999999
 74
     0
 49
-3.174999999999999
 74
     0
  0
LTYPE
  5
174D
330
152
100
AcDbSymbolTableRecord
100
AcDbLinetypeTableRecord
  2
CENTER
 70
     0
  3
Center ____ _ ____ _ ____ _ ____ _ ____ _ ____
 72
    65
 73
     4
 40
50.8
 49
31.75
 74
     0
 49
-6.349999999999999
 74
     0
 49
6.349999999999999
 74
     0
 49
-6.349999999999999
 74
     0
  0
LTYPE
  5
17E8
330
152
100
AcDbSymbolTableRecord
100
AcDbLinetypeTableRecord
  2
AM_ISO02W050
 70
     0
  3
__ __ __ __ __ __ __ __ __ __ __ __ __ __ __
 72
    65
 73
     2
 40
7.5
 49
6.0
 74
     0
 49
-1.5
 74
     0
  0
LTYPE
  5
17E9
330
152
100
AcDbSymbolTableRecord
100
AcDbLinetypeTableRecord
  2
AM_ISO08W050
 70
     0
  3
____ . ____ . ____ . ____ . ____ . ____ . ____
 72
    65
 73
     4
 40
18.0
 49
12.0
 74
     0
 49
-1.5
 74
     0
 49
3.0
 74
     0
 49
-1.5
 74
     0
  0
LTYPE
  5
17EA
330
152
100
AcDbSymbolTableRecord
100
AcDbLinetypeTableRecord
  2
AM_ISO09W050
 70
     0
  3
_____ . . _____ . . _____ . . ____ .. ____
 72
    65
 73
     6
 40
22.5
 49
12.0
 74
     0
 49
-1.5
 74
     0
 49
3.0
 74
     0
 49
-1.5
 74
     0
 49
3.0
 74
     0
 49
-1.5
 74
     0
  0
LTYPE
  5
17EB
330
152
100
AcDbSymbolTableRecord
100
AcDbLinetypeTableRecord
  2
Amconstr
 70
     0
  3
_______________________
 72
    65
 73
     2
 40
9999.0
 49
9999.0
 74
     0
 49
0.0
 74
     0
  0
LTYPE
  5
17EC
330
152
100
AcDbSymbolTableRecord
100
AcDbLinetypeTableRecord
  2
AM_ISO08W050x2
 70
     0
  3
__ . __ . __ . __ . __ . __
 72
    65
 73
     4
 40
9.0
 49
6.0
 74
     0
 49
-0.75
 74
     0
 49
1.5
 74
     0
 49
-0.75
 74
     0
  0
LTYPE
  5
17ED
330
152
100
AcDbSymbolTableRecord
100
AcDbLinetypeTableRecord
  2
AM_ISO02W050x2
 70
     0
  3
 _ _ _ _ _ _ _ _ _ _ _ _
 72
    65
 73
     2
 40
3.75
 49
3.0
 74
     0
 49
-0.75
 74
     0
  0
LTYPE
  5
17F0
330
152
100
AcDbSymbolTableRecord
100
AcDbLinetypeTableRecord
  2
Amzigzag
 70
     0
  3
/\/-/\/-/\/-/\/-/\/-/\/
 72
    65
 73
     2
 40
11.0001
 49
0.0001
 74
     4
 75
   136
340
17EF
 46
0.04
 50
0.0
 44
0.0
 45
0.0
 49
-11.0
 74
     0
  0
LTYPE
  5
1801
330
152
100
AcDbSymbolTableRecord
100
AcDbLinetypeTableRecord
  2
ACISOWELD
 70
     0
  3
_ _ _ _ _
 72
    65
 73
     2
 40
2.0
 49
2.0
 74
     0
 49
-1.0
 74
     0
  0
LTYPE
  5
1802
330
152
100
AcDbSymbolTableRecord
100
AcDbLinetypeTableRecord
  2
ACISOTGB
 70
     0
  3
__ . . __ . .
 72
    65
 73
     6
 40
9.0
 49
4.0
 74
     0
 49
-1.0
 74
     0
 49
1.0
 74
     0
 49
-1.0
 74
     0
 49
1.0
 74
     0
 49
-1.0
 74
     0
  0
LTYPE
  5
1803
330
152
100
AcDbSymbolTableRecord
100
AcDbLinetypeTableRecord
  2
ACISOTGL
 70
     0
  3
_ _ _ _ _
 72
    65
 73
     2
 40
3.0
 49
2.0
 74
     0
 49
-1.0
 74
     0
  0
LTYPE
  5
2C18
330
152
100
AcDbSymbolTableRecord
100
AcDbLinetypeTableRecord
  2
ASULTYPE
 70
     0
  3
Solid line
 72
    65
 73
     2
 40
3.0
 49
2.5
 74
     0
 49
0.5
 74
     0
  0
LTYPE
  5
2C19
330
152
100
AcDbSymbolTableRecord
100
AcDbLinetypeTableRecord
  2
ASVLTYPE
 70
     0
  3
__ __ __ __ __ __ __ __ __ __ __ __ __ __ __ __ __ __ __ __ __
 72
    65
 73
     2
 40
0.75
 49
0.5
 74
     0
 49
-0.25
 74
     0
  0
ENDTAB
  0
TABLE
  2
LAYER
  5
14E
102
{ACAD_XDICTIONARY
360
1852
102
}
330
0
100
AcDbSymbolTable
 70
     6
  0
LAYER
  5
6
102
{ACAD_XDICTIONARY
360
181E
102
}
330
14E
100
AcDbSymbolTableRecord
100
AcDbLayerTableRecord
  2
0
 70
     0
 62
     7
  6
CONTINUOUS
370
    -3
390
7
  0
LAYER
  5
C
102
{ACAD_XDICTIONARY
360
1820
102
}
330
14E
100
AcDbSymbolTableRecord
100
AcDbLayerTableRecord
  2
mechanical
 70
     0
 62
     6
  6
CONTINUOUS
370
    -3
390
7
  0
LAYER
  5
174
102
{ACAD_XDICTIONARY
360
1822
102
}
330
14E
100
AcDbSymbolTableRecord
100
AcDbLayerTableRecord
  2
copper
 70
     0
 62
     1
  6
CONTINUOUS
370
    -3
390
7
  0
LAYER
  5
41F
330
14E
100
AcDbSymbolTableRecord
100
AcDbLayerTableRecord
  2
Defpoints
 70
     0
 62
     7
  6
CONTINUOUS
290
     0
370
    -3
390
7
  0
LAYER
  5
794
102
{ACAD_XDICTIONARY
360
1824
102
}
330
14E
100
AcDbSymbolTableRecord
100
AcDbLayerTableRecord
  2
kapton
 70
     0
 62
     2
  6
CONTINUOUS
370
    -3
390
7
  0
LAYER
  5
2BD5
330
14E
100
AcDbSymbolTableRecord
100
AcDbLayerTableRecord
  2
AM_5
 70
     0
 62
     3
  6
CONTINUOUS
370
    25
390
7
1001
AcAecLayerStandard
1000

1000

  0
ENDTAB
  0
TABLE
  2
STYLE
  5
14F
330
0
100
AcDbSymbolTable
 70
     4
  0
STYLE
  5
150
330
14F
100
AcDbSymbolTableRecord
100
AcDbTextStyleTableRecord
  2
STANDARD
 70
     0
 40
0.0
 41
1.0
 50
0.0
 71
     0
 42
10.0
  3
txt
  4

  0
STYLE
  5
17EF
330
14F
100
AcDbSymbolTableRecord
100
AcDbTextStyleTableRecord
  2

 70
     1
 40
0.0
 41
1.0
 50
0.0
 71
     0
 42
0.0
  3
genltshp.shx
  4

  0
STYLE
  5
17F1
330
14F
100
AcDbSymbolTableRecord
100
AcDbTextStyleTableRecord
  2
ACISOTS
 70
     0
 40
1.0
 41
1.0
 50
0.0
 71
     0
 42
0.0
  3
isocp.shx
  4

  0
STYLE
  5
1800
330
14F
100
AcDbSymbolTableRecord
100
AcDbTextStyleTableRecord
  2
ACISOGDT
 70
     0
 40
0.0
 41
1.0
 50
0.0
 71
     0
 42
0.0
  3
amgdt.shx
  4

  0
ENDTAB
  0
TABLE
  2
VIEW
  5
155
330
0
100
AcDbSymbolTable
 70
     0
  0
ENDTAB
  0
TABLE
  2
UCS
  5
156
330
0
100
AcDbSymbolTable
 70
     0
  0
ENDTAB
  0
TABLE
  2
APPID
  5
159
330
0
100
AcDbSymbolTable
 70
    22
  0
APPID
  5
15A
330
159
100
AcDbSymbolTableRecord
100
AcDbRegAppTableRecord
  2
ACAD
 70
     0
  0
APPID
  5
189
330
159
100
AcDbSymbolTableRecord
100
AcDbRegAppTableRecord
  2
DCO15
 70
     0
  0
APPID
  5
1710
330
159
100
AcDbSymbolTableRecord
100
AcDbRegAppTableRecord
  2
ACAD_MLEADERVER
 70
     0
  0
APPID
  5
1717
330
159
100
AcDbSymbolTableRecord
100
AcDbRegAppTableRecord
  2
GENIUS_GENDIM_13
 70
     0
  0
APPID
  5
1718
330
159
100
AcDbSymbolTableRecord
100
AcDbRegAppTableRecord
  2
GENIUS_GENDTOL_13
 70
     0
  0
APPID
  5
1719
330
159
100
AcDbSymbolTableRecord
100
AcDbRegAppTableRecord
  2
GENIUS_GE3DTOL_13
 70
     0
  0
APPID
  5
171C
330
159
100
AcDbSymbolTableRecord
100
AcDbRegAppTableRecord
  2
MCAD_NO_VIS
 70
     0
  0
APPID
  5
171D
330
159
100
AcDbSymbolTableRecord
100
AcDbRegAppTableRecord
  2
ACAD_TEMP_GRAPHIC
 70
     0
  0
APPID
  5
174F
330
159
100
AcDbSymbolTableRecord
100
AcDbRegAppTableRecord
  2
AD_DRAW
 70
     0
  0
APPID
  5
1752
330
159
100
AcDbSymbolTableRecord
100
AcDbRegAppTableRecord
  2
ACATTRIBSERVICES
 70
     0
  0
APPID
  5
179E
330
159
100
AcDbSymbolTableRecord
100
AcDbRegAppTableRecord
  2
ASURF_PCURVE_APPNAME
 70
     0
  0
APPID
  5
17A3
330
159
100
AcDbSymbolTableRecord
100
AcDbRegAppTableRecord
  2
AMG_3D2D_5.0
 70
     0
  0
APPID
  5
17D4
330
159
100
AcDbSymbolTableRecord
100
AcDbRegAppTableRecord
  2
DESIGNERASSEMBLIES
 70
     0
  0
APPID
  5
17DF
330
159
100
AcDbSymbolTableRecord
100
AcDbRegAppTableRecord
  2
ACADM_DIM_EDIT
 70
     0
  0
APPID
  5
17E0
330
159
100
AcDbSymbolTableRecord
100
AcDbRegAppTableRecord
  2
AMDT_DM_ADJ
 70
     0
  0
APPID
  5
181B
330
159
100
AcDbSymbolTableRecord
100
AcDbRegAppTableRecord
  2
GENIUS_GENSCREG_15
 70
     0
  0
APPID
  5
181C
330
159
100
AcDbSymbolTableRecord
100
AcDbRegAppTableRecord
  2
GENIUS_GENODEF_13
 70
     0
  0
APPID
  5
181D
330
159
100
AcDbSymbolTableRecord
100
AcDbRegAppTableRecord
  2
GENIUS_GENOBJ-N-SDF_13
 70
     0
  0
APPID
  5
183D
330
159
100
AcDbSymbolTableRecord
100
AcDbRegAppTableRecord
  2
ACAD_EXEMPT_FROM_CAD_STANDARDS
 70
     0
  0
APPID
  5
1850
330
159
100
AcDbSymbolTableRecord
100
AcDbRegAppTableRecord
  2
AcAecLayerStandard
 70
     0
  0
APPID
  5
18CC
330
159
100
AcDbSymbolTableRecord
100
AcDbRegAppTableRecord
  2
ACAD_DSTYLE_DIMINSPECT
 70
     0
  0
APPID
  5
2C34
330
159
100
AcDbSymbolTableRecord
100
AcDbRegAppTableRecord
  2
ACAD_DSTYLE_DIMARC_LENGTH_SYMBOL
 70
     0
  0
ENDTAB
  0
TABLE
  2
DIMSTYLE
  5
15B
330
0
100
AcDbSymbolTable
 70
     9
100
AcDbDimStyleTable
 71
     1
340
15C
  0
DIMSTYLE
105
15C
330
15B
100
AcDbSymbolTableRecord
100
AcDbDimStyleTableRecord
  2
STANDARD
 70
     0
140
10.0
179
     5
340
150
  0
DIMSTYLE
105
180E
330
15B
100
AcDbSymbolTableRecord
100
AcDbDimStyleTableRecord
  2
AM_ISO
 70
     0
  4
"
 41
2.5
 42
1.0
 43
10.0
 44
1.0
 47
0.1
 48
0.1
 73
     0
 74
     0
 77
     1
 78
     8
 79
     2
140
3.5
141
0.0
143
0.0393701
146
0.71
147
1.5
172
     1
176
   256
177
   256
178
     2
271
     2
272
     3
274
     4
283
     0
284
     8
340
150
371
    -1
372
    -1
1001
ACAD_DSTYLE_DIMARC_LENGTH_SYMBOL
1070
   379
1070
     1
  0
DIMSTYLE
105
180F
330
15B
100
AcDbSymbolTableRecord
100
AcDbDimStyleTableRecord
  2
AM_ISO$3
 70
     0
  4
"
 41
2.5
 42
1.0
 43
10.0
 44
1.0
 47
0.1
 48
0.1
 73
     0
 77
     1
 78
     8
 79
     2
140
3.5
141
0.0
143
0.0393701
146
0.71
147
1.5
176
   256
177
   256
178
     2
271
     2
272
     3
274
     4
283
     0
284
     8
288
     1
289
     0
340
150
371
    -1
372
    -1
1001
ACAD_DSTYLE_DIMARC_LENGTH_SYMBOL
1070
   379
1070
     1
  0
DIMSTYLE
105
1810
330
15B
100
AcDbSymbolTableRecord
100
AcDbDimStyleTableRecord
  2
AM_ISO$4
 70
     0
  4
"
 41
2.5
 42
1.0
 43
10.0
 44
1.0
 47
0.1
 48
0.1
 73
     0
 77
     1
 78
     8
 79
     2
140
3.5
141
0.0
143
0.0393701
146
0.71
147
1.5
176
   256
177
   256
178
     2
271
     2
272
     3
274
     4
283
     0
284
     8
288
     1
289
     0
340
150
371
    -1
372
    -1
1001
ACAD_DSTYLE_DIMARC_LENGTH_SYMBOL
1070
   379
1070
     1
  0
DIMSTYLE
105
1811
330
15B
100
AcDbSymbolTableRecord
100
AcDbDimStyleTableRecord
  2
AM_ISO$6
 70
     0
  4
"
 41
2.5
 42
1.0
 43
10.0
 44
1.0
 47
0.1
 48
0.1
 73
     0
 74
     0
 78
     8
 79
     2
140
3.5
141
0.0
143
0.0393701
146
0.71
147
1.5
172
     1
176
   256
177
   256
178
     2
271
     2
272
     3
274
     4
283
     0
284
     8
340
150
371
    -1
372
    -1
1001
ACAD_DSTYLE_DIMARC_LENGTH_SYMBOL
1070
   379
1070
     1
  0
DIMSTYLE
105
1812
330
15B
100
AcDbSymbolTableRecord
100
AcDbDimStyleTableRecord
  2
AM_ISO$7
 70
     0
  4
"
 41
2.5
 42
1.0
 43
10.0
 44
1.0
 47
0.1
 48
0.1
 73
     0
 74
     0
 77
     1
 78
     8
 79
     2
140
5.0
141
0.0
143
0.0393701
146
0.71
147
1.5
172
     1
176
   256
177
   256
178
     2
271
     2
272
     3
274
     4
283
     0
284
     8
340
150
371
    -1
372
    -1
1001
ACAD_DSTYLE_DIMARC_LENGTH_SYMBOL
1070
   379
1070
     1
  0
DIMSTYLE
105
1813
330
15B
100
AcDbSymbolTableRecord
100
AcDbDimStyleTableRecord
  2
AM_ISO$SF
 70
     0
  4
"
 41
2.5
 42
1.0
 43
10.0
 44
1.0
 47
0.1
 48
0.1
 73
     0
 74
     0
 75
     1
 76
     1
 77
     1
 78
     8
 79
     2
140
3.5
141
0.0
143
0.0393701
146
0.71
147
1.5
172
     1
176
   256
177
   256
178
     2
271
     2
272
     3
274
     4
283
     0
284
     8
340
150
371
    -1
372
    -1
1001
ACAD_DSTYLE_DIMARC_LENGTH_SYMBOL
1070
   379
1070
     1
  0
DIMSTYLE
105
1818
330
15B
100
AcDbSymbolTableRecord
100
AcDbDimStyleTableRecord
  2
AM_ISO$SH
 70
     0
  4
"
 41
2.5
 42
1.0
 43
10.0
 44
1.0
 47
0.1
 48
0.1
 73
     0
 74
     0
 75
     1
 76
     1
 77
     1
 78
     8
 79
     2
140
3.5
141
0.0
143
0.0393701
144
2.0
146
0.71
147
1.5
172
     1
173
     1
176
   256
177
   256
178
     2
271
     2
272
     3
274
     4
283
     0
284
     8
340
150
343
1814
371
    -1
372
    -1
1001
ACAD_DSTYLE_DIMARC_LENGTH_SYMBOL
1070
   379
1070
     1
  0
DIMSTYLE
105
18B0
330
15B
100
AcDbSymbolTableRecord
100
AcDbDimStyleTableRecord
  2
STANDARD$0
 70
     0
140
10.0
179
     5
340
150
  0
ENDTAB
  0
TABLE
  2
BLOCK_RECORD
  5
1
330
0
100
AcDbSymbolTable
 70
     3
  0
BLOCK_RECORD
  5
2
102
{ACAD_XDICTIONARY
360
3
102
}
330
1
100
AcDbSymbolTableRecord
100
AcDbBlockTableRecord
  2
*MODEL_SPACE
340
146
  0
BLOCK_RECORD
  5
148
102
{ACAD_XDICTIONARY
360
149
102
}
330
1
100
AcDbSymbolTableRecord
100
AcDbBlockTableRecord
  2
*PAPER_SPACE
340
14D
  0
BLOCK_RECORD
  5
1814
330
1
100
AcDbSymbolTableRecord
100
AcDbBlockTableRecord
  2
GENAXEH
340
0
  0
ENDTAB
  0
ENDSEC
  0
SECTION
  2
BLOCKS
  0
BLOCK
  5
5
330
2
100
AcDbEntity
  8
0
100
AcDbBlockBegin
  2
*MODEL_SPACE
 70
     0
 10
0.0
 20
0.0
 30
0.0
  3
*MODEL_SPACE
  1

  0
ENDBLK
  5
145
330
2
100
AcDbEntity
  8
0
100
AcDbBlockEnd
  0
BLOCK
  5
14B
330
148
100
AcDbEntity
 67
     1
  8
0
100
AcDbBlockBegin
  2
*PAPER_SPACE
 70
     0
 10
0.0
 20
0.0
 30
0.0
  3
*PAPER_SPACE
  1

  0
ENDBLK
  5
14C
330
148
100
AcDbEntity
 67
     1
  8
0
100
AcDbBlockEnd
  0
BLOCK
  5
1816
330
1814
100
AcDbEntity
  8
0
100
AcDbBlockBegin
  2
GENAXEH
 70
     0
 10
0.0
 20
0.0
 30
0.0
  3
GENAXEH
  1

  0
LINE
  5
1815
330
1814
100
AcDbEntity
  8
0
100
AcDbLine
 10
-1.0
 20
0.0
 30
0.0
 11
1.0
 21
0.0
 31
0.0
  0
ENDBLK
  5
1817
330
1814
100
AcDbEntity
  8
0
100
AcDbBlockEnd
  0
ENDSEC
  0
SECTION
  2
ENTITIES
  0
LWPOLYLINE
  5
1A4E
330
2
100
AcDbEntity
  8
copper
  6
Continuous
100
AcDbPolyline
 90
        2
 70
   129
 43
1.75
 10
546.1295025292811
 20
222.2500000000001
 42
1.0
 10
547.8795025292811
 20
222.2500000000001
 42
1.0
  0
LWPOLYLINE
  5
1A4F
330
2
100
AcDbEntity
  8
copper
  6
Continuous
100
AcDbPolyline
 90
        2
 70
   129
 43
1.75
 10
546.1295025292811
 20
223.7499999999999
 42
1.0
 10
547.8795025292811
 20
223.7499999999999
 42
1.0
  0
LWPOLYLINE
  5
1A50
330
2
100
AcDbEntity
  8
copper
  6
Continuous
100
AcDbPolyline
 90
        2
 70
   129
 43
1.75
 10
540.879502529281
 20
222.2500000000001
 42
1.0
 10
542.6295025292811
 20
222.2500000000001
 42
1.0
  0
LWPOLYLINE
  5
1A51
330
2
100
AcDbEntity
  8
copper
  6
Continuous
100
AcDbPolyline
 90
        2
 70
   129
 43
1.75
 10
540.879502529281
 20
223.7499999999999
 42
1.0
 10
542.6295025292811
 20
223.7499999999999
 42
1.0
  0
LWPOLYLINE
  5
1A52
330
2
100
AcDbEntity
  8
copper
  6
Continuous
100
AcDbPolyline
 90
        2
 70
   129
 43
1.75
 10
535.6295025292811
 20
221.2500000000001
 42
1.0
 10
537.3795025292811
 20
221.2500000000001
 42
1.0
  0
LWPOLYLINE
  5
1A53
330
2
100
AcDbEntity
  8
copper
  6
Continuous
100
AcDbPolyline
 90
        2
 70
   129
 43
1.75
 10
535.6295025292811
 20
223.75
 42
1.0
 10
537.3795025292811
 20
223.75
 42
1.0
  0
LWPOLYLINE
  5
1A56
330
2
100
AcDbEntity
  8
copper
  6
Continuous
100
AcDbPolyline
 90
        2
 70
   128
 43
3.5
 10
547.0045025292811
 20
222.2500000000001
 10
547.0045025292811
 20
223.7499999999999
  0
LWPOLYLINE
  5
1A57
330
2
100
AcDbEntity
  8
copper
  6
Continuous
100
AcDbPolyline
 90
        2
 70
   128
 43
3.5
 10
541.7545025292811
 20
222.2500000000001
 10
541.7545025292811
 20
223.7499999999999
  0
LWPOLYLINE
  5
1A58
330
2
100
AcDbEntity
  8
copper
  6
Continuous
100
AcDbPolyline
 90
        2
 70
   128
 43
3.5
 10
536.5045025292811
 20
221.2500000000001
 10
536.5045025292811
 20
223.75
  0
LWPOLYLINE
  5
1DC1
330
2
100
AcDbEntity
  8
copper
  6
Continuous
100
AcDbPolyline
 90
        2
 70
   129
 43
0.6
 10
166.729502529281
 20
80.4420400000002
 42
1.0
 10
167.3295025292814
 20
80.4420400000002
 42
1.0
  0
LWPOLYLINE
  5
1DC2
330
2
100
AcDbEntity
  8
copper
  6
Continuous
100
AcDbPolyline
 90
        2
 70
   129
 43
0.6
 10
162.9295025292808
 20
80.44204000000004
 42
1.0
 10
163.5295025292812
 20
80.44204000000004
 42
1.0
  0
LWPOLYLINE
  5
1DC3
330
2
100
AcDbEntity
  8
copper
  6
Continuous
100
AcDbPolyline
 90
        2
 70
   128
 43
1.199999999999999
 10
163.229502529281
 20
80.44204000000004
 10
167.0295025292812
 20
80.4420400000002
  0
LWPOLYLINE
  5
1DC4
330
2
100
AcDbEntity
  8
copper
  6
Continuous
100
AcDbPolyline
 90
        2
 70
   129
 43
0.6
 10
166.729502529281
 20
78.64204000000019
 42
1.0
 10
167.3295025292814
 20
78.64204000000019
 42
1.0
  0
LWPOLYLINE
  5
1DC5
330
2
100
AcDbEntity
  8
copper
  6
Continuous
100
AcDbPolyline
 90
        2
 70
   129
 43
0.6
 10
162.9295025292808
 20
78.64204000000007
 42
1.0
 10
163.5295025292812
 20
78.64204000000007
 42
1.0
  0
LWPOLYLINE
  5
1DC6
330
2
100
AcDbEntity
  8
copper
  6
Continuous
100
AcDbPolyline
 90
        2
 70
   128
 43
1.199999999999999
 10
163.229502529281
 20
78.64204000000007
 10
167.0295025292812
 20
78.64204000000019
  0
LWPOLYLINE
  5
1FE4
330
2
100
AcDbEntity
  8
copper
  6
Continuous
100
AcDbPolyline
 90
        2
 70
   129
 43
1.75
 10
530.3795025292811
 20
221.2500000000001
 42
1.0
 10
532.1295025292811
 20
221.2500000000001
 42
1.0
  0
LWPOLYLINE
  5
1FE5
330
2
100
AcDbEntity
  8
copper
  6
Continuous
100
AcDbPolyline
 90
        2
 70
   129
 43
1.75
 10
530.3795025292811
 20
223.75
 42
1.0
 10
532.1295025292811
 20
223.75
 42
1.0
  0
LWPOLYLINE
  5
1FE6
330
2
100
AcDbEntity
  8
copper
  6
Continuous
100
AcDbPolyline
 90
        2
 70
   128
 43
3.5
 10
531.2545025292811
 20
221.2500000000001
 10
531.2545025292811
 20
223.75
  0
LWPOLYLINE
  5
2635
330
2
100
AcDbEntity
  8
copper
  6
Continuous
100
AcDbPolyline
 90
        2
 70
   129
 43
1.75
 10
553.1295025292811
 20
222.2500000000001
 42
-1.0
 10
551.3795025292811
 20
222.2500000000001
 42
-1.0
  0
LWPOLYLINE
  5
2636
330
2
100
AcDbEntity
  8
copper
  6
Continuous
100
AcDbPolyline
 90
        2
 70
   129
 43
1.75
 10
553.1295025292811
 20
223.7499999999999
 42
-1.0
 10
551.3795025292811
 20
223.7499999999999
 42
-1.0
  0
LWPOLYLINE
  5
2637
330
2
100
AcDbEntity
  8
copper
  6
Continuous
100
AcDbPolyline
 90
        2
 70
   129
 43
1.75
 10
558.3795025292811
 20
222.2500000000001
 42
-1.0
 10
556.6295025292811
 20
222.2500000000001
 42
-1.0
  0
LWPOLYLINE
  5
2638
330
2
100
AcDbEntity
  8
copper
  6
Continuous
100
AcDbPolyline
 90
        2
 70
   129
 43
1.75
 10
558.3795025292811
 20
223.7499999999999
 42
-1.0
 10
556.6295025292811
 20
223.7499999999999
 42
-1.0
  0
LWPOLYLINE
  5
2639
330
2
100
AcDbEntity
  8
copper
  6
Continuous
100
AcDbPolyline
 90
        2
 70
   129
 43
1.75
 10
563.6295025292811
 20
221.2500000000001
 42
-1.0
 10
561.879502529281
 20
221.2500000000001
 42
-1.0
  0
LWPOLYLINE
  5
263A
330
2
100
AcDbEntity
  8
copper
  6
Continuous
100
AcDbPolyline
 90
        2
 70
   129
 43
1.75
 10
563.6295025292811
 20
223.75
 42
-1.0
 10
561.879502529281
 20
223.75
 42
-1.0
  0
LWPOLYLINE
  5
263B
330
2
100
AcDbEntity
  8
copper
  6
Continuous
100
AcDbPolyline
 90
        2
 70
   128
 43
3.5
 10
552.2545025292811
 20
222.2500000000001
 10
552.2545025292811
 20
223.7499999999999
  0
LWPOLYLINE
  5
263C
330
2
100
AcDbEntity
  8
copper
  6
Continuous
100
AcDbPolyline
 90
        2
 70
   128
 43
3.5
 10
557.5045025292811
 20
222.2500000000001
 10
557.5045025292811
 20
223.7499999999999
  0
LWPOLYLINE
  5
263D
330
2
100
AcDbEntity
  8
copper
  6
Continuous
100
AcDbPolyline
 90
        2
 70
   128
 43
3.5
 10
562.754502529281
 20
221.2500000000001
 10
562.754502529281
 20
223.75
  0
LWPOLYLINE
  5
2640
330
2
100
AcDbEntity
  8
copper
  6
Continuous
100
AcDbPolyline
 90
        2
 70
   129
 43
0.6
 10
932.5295025292811
 20
80.4420400000002
 42
-1.0
 10
931.9295025292808
 20
80.4420400000002
 42
-1.0
  0
LWPOLYLINE
  5
2641
330
2
100
AcDbEntity
  8
copper
  6
Continuous
100
AcDbPolyline
 90
        2
 70
   129
 43
0.6
 10
936.3295025292813
 20
80.44204000000004
 42
-1.0
 10
935.729502529281
 20
80.44204000000004
 42
-1.0
  0
LWPOLYLINE
  5
2642
330
2
100
AcDbEntity
  8
copper
  6
Continuous
100
AcDbPolyline
 90
        2
 70
   128
 43
1.199999999999999
 10
936.0295025292812
 20
80.44204000000004
 10
932.229502529281
 20
80.4420400000002
  0
LWPOLYLINE
  5
2643
330
2
100
AcDbEntity
  8
copper
  6
Continuous
100
AcDbPolyline
 90
        2
 70
   129
 43
0.6
 10
932.5295025292811
 20
78.64204000000019
 42
-1.0
 10
931.9295025292808
 20
78.64204000000019
 42
-1.0
  0
LWPOLYLINE
  5
2644
330
2
100
AcDbEntity
  8
copper
  6
Continuous
100
AcDbPolyline
 90
        2
 70
   129
 43
0.6
 10
936.3295025292813
 20
78.64204000000007
 42
-1.0
 10
935.729502529281
 20
78.64204000000007
 42
-1.0
  0
LWPOLYLINE
  5
2645
330
2
100
AcDbEntity
  8
copper
  6
Continuous
100
AcDbPolyline
 90
        2
 70
   128
 43
1.199999999999999
 10
936.0295025292812
 20
78.64204000000007
 10
932.229502529281
 20
78.64204000000019
  0
LWPOLYLINE
  5
2646
330
2
100
AcDbEntity
  8
copper
  6
Continuous
100
AcDbPolyline
 90
        2
 70
   129
 43
1.75
 10
568.8795025292811
 20
221.2500000000001
 42
-1.0
 10
567.1295025292811
 20
221.2500000000001
 42
-1.0
  0
LWPOLYLINE
  5
2647
330
2
100
AcDbEntity
  8
copper
  6
Continuous
100
AcDbPolyline
 90
        2
 70
   129
 43
1.75
 10
568.8795025292811
 20
223.75
 42
-1.0
 10
567.1295025292811
 20
223.75
 42
-1.0
  0
LWPOLYLINE
  5
2648
330
2
100
AcDbEntity
  8
copper
  6
Continuous
100
AcDbPolyline
 90
        2
 70
   128
 43
3.5
 10
568.0045025292811
 20
221.2500000000001
 10
568.0045025292811
 20
223.75
  0
LWPOLYLINE
  5
2795
330
2
100
AcDbEntity
  8
copper
  6
Continuous
100
AcDbPolyline
 90
      311
 70
   128
 43
1.655999999999999
 10
568.0045025292811
 20
222.2500000000001
 10
568.0045025292811
 20
219.7059600000001
 42
-0.4142135623730951
 10
562.609542529281
 20
214.311
 10
559.1735825292808
 20
214.311
 42
0.9999999999999998
 10
559.1735825292809
 20
210.71436
 10
570.6053425292812
 20
210.7143600000001
 42
0.4142135623730951
 10
572.4036625292812
 20
212.51268
 10
572.403662529281
 20
219.70596
 42
-0.4142135623730951
 10
577.7986225292811
 20
225.10092
 10
1029.156680869625
 20
225.1009200000001
 42
-0.9999999999999998
 10
1029.156680869625
 20
214.3110000000001
 10
584.9927425292807
 20
214.311
 42
0.9999999999999998
 10
584.9927425292807
 20
210.71436
 10
1035.786574688284
 20
210.7143600000001
 42
-0.9999999999999998
 10
1035.786574688284
 20
199.9244400000001
 10
559.1735825292809
 20
199.92444
 42
0.9999999999999998
 10
559.1735825292808
 20
196.3278
 10
1041.907002153333
 20
196.3278000000001
 42
-0.9999999999999998
 10
1041.907002153333
 20
185.5378800000001
 10
559.1735825292809
 20
185.53788
 42
0.9999999999999998
 10
559.1735825292808
 20
181.94124
 10
1047.536751165747
 20
181.9412400000001
 42
-0.9999999999999998
 10
1047.536751165747
 20
171.1513200000001
 10
559.1735825292809
 20
171.1513199999999
 42
0.9999999999999998
 10
559.1735825292808
 20
167.55468
 10
1052.692295464811
 20
167.5546800000001
 42
-0.9999999999999998
 10
1052.692295464811
 20
156.7647600000001
 10
559.1735825292809
 20
156.76476
 42
0.9999999999999998
 10
559.1735825292808
 20
153.16812
 10
1057.388079817926
 20
153.1681200000001
 42
-0.9999999999999998
 10
1057.388079817926
 20
142.3782000000001
 10
559.1735825292809
 20
142.3782
 42
0.9999999999999998
 10
559.1735825292808
 20
138.78156
 10
1061.636754203527
 20
138.78156
 42
-0.9999999999999998
 10
1061.636754203527
 20
127.99164
 10
559.1735825292809
 20
127.9916399999999
 42
0.9999999999999998
 10
559.1735825292808
 20
124.395
 10
1065.449366926313
 20
124.395
 42
-0.9999999999999998
 10
1065.449366926313
 20
113.60508
 10
559.1735825292809
 20
113.60508
 42
0.9999999999999998
 10
559.1735825292808
 20
110.00844
 10
1068.83552428641
 20
110.0084400000001
 42
-0.9999999999999998
 10
1068.83552428641
 20
99.21852000000008
 10
559.1735825292809
 20
99.21852000000001
 42
0.9999999999999998
 10
559.1735825292808
 20
95.62188000000002
 10
920.6395741616574
 20
95.62187999999997
 42
-0.3695270215212259
 10
925.9699059757192
 20
91.05947999999996
 42
0.855931705407881
 10
929.5234605184271
 20
91.05948000000003
 42
-0.8559317054079038
 10
940.1841241465506
 20
91.05948000000001
 42
0.855931705407881
 10
943.7376786892585
 20
91.05948000000008
 42
-0.8559317054079038
 10
954.398342317382
 20
91.05948000000001
 42
0.8559317054078865
 10
957.9518968600899
 20
91.05948000000008
 42
-0.3695270215212259
 10
963.2822286741516
 20
95.62188000000007
 10
1071.80352269295
 20
95.62188000000009
 42
-0.9999999999999998
 10
1071.80352269295
 20
84.83196000000006
 10
967.9236225292811
 20
84.83196000000004
 42
0.9999999999999998
 10
967.9236225292811
 20
81.23532000000004
 10
1074.360457802214
 20
81.23532000000006
 42
-0.9999999999999998
 10
1074.360457802214
 20
70.44540000000006
 10
920.3691025292883
 20
70.44539999999997
 42
-0.4142135623730951
 10
914.9741425292882
 20
75.84035999999994
 10
914.9741425292877
 20
81.10084000000041
 42
0.9999999999999998
 10
911.3775025292879
 20
81.10084000000041
 10
911.3775025292875
 20
75.84035999999994
 42
-0.9999999999999998
 10
900.5875825292879
 20
75.84035999999994
 10
900.5875825292873
 20
81.10084000000041
 42
0.9999999999999998
 10
896.9909425292875
 20
81.10084000000041
 10
896.9909425292875
 20
75.84035999999994
 42
-0.9999999999999998
 10
886.2010225292875
 20
75.84035999999994
 10
886.201022529287
 20
81.10084000000041
 42
0.9999999999999998
 10
882.6043825292872
 20
81.10084000000041
 10
882.6043825292869
 20
75.84035999999994
 42
-0.9999999999999998
 10
871.814462529287
 20
75.84035999999994
 10
871.8144625292866
 20
81.10084000000041
 42
0.9999999999999998
 10
868.2178225292869
 20
81.10084000000041
 10
868.2178225292869
 20
75.84035999999994
 42
-0.9999999999999998
 10
857.4279025292867
 20
75.84035999999994
 10
857.4279025292863
 20
81.10084000000041
 42
0.9999999999999998
 10
853.8312625292865
 20
81.10084000000041
 10
853.831262529286
 20
75.84035999999994
 42
-0.9999999999999998
 10
843.0413425292863
 20
75.84035999999994
 10
843.0413425292858
 20
81.10084000000041
 42
0.9999999999999998
 10
839.444702529286
 20
81.10084000000041
 10
839.4447025292857
 20
75.84035999999994
 42
-0.9999999999999998
 10
828.654782529286
 20
75.84035999999994
 10
828.6547825292855
 20
81.10084000000041
 42
0.9999999999999998
 10
825.0581425292857
 20
81.10084000000041
 10
825.0581425292853
 20
75.84035999999994
 42
-0.9999999999999998
 10
814.2682225292855
 20
75.84035999999994
 10
814.2682225292851
 20
81.10084000000041
 42
0.9999999999999998
 10
810.6715825292853
 20
81.10084000000041
 10
810.6715825292848
 20
75.84035999999994
 42
-0.9999999999999998
 10
799.8816625292852
 20
75.84035999999994
 10
799.8816625292847
 20
81.10084000000041
 42
0.9999999999999998
 10
796.285022529285
 20
81.10084000000041
 10
796.2850225292846
 20
75.84035999999994
 42
-0.9999999999999998
 10
785.4951025292848
 20
75.84035999999994
 10
785.4951025292844
 20
81.10084000000041
 42
0.9999999999999998
 10
781.8984625292846
 20
81.10084000000041
 10
781.8984625292841
 20
75.84035999999994
 42
-0.9999999999999998
 10
771.1085425292845
 20
75.84035999999994
 10
771.108542529284
 20
81.10084000000041
 42
0.9999999999999998
 10
767.5119025292842
 20
81.10084000000041
 10
767.5119025292838
 20
75.84035999999994
 42
-0.9999999999999998
 10
756.721982529284
 20
75.84035999999994
 10
756.7219825292836
 20
81.10084000000041
 42
0.9999999999999998
 10
753.1253425292838
 20
81.10084000000041
 10
753.1253425292834
 20
75.84035999999994
 42
-0.9999999999999998
 10
742.3354225292837
 20
75.84035999999994
 10
742.3354225292833
 20
81.10084000000041
 42
0.9999999999999998
 10
738.7387825292835
 20
81.10084000000041
 10
738.738782529283
 20
75.84035999999994
 42
-0.9999999999999998
 10
727.9488625292834
 20
75.84035999999994
 10
727.9488625292828
 20
81.10084000000041
 42
0.9999999999999998
 10
724.3522225292831
 20
81.10084000000041
 10
724.3522225292827
 20
75.84035999999994
 42
-0.9999999999999998
 10
713.5623025292829
 20
75.84035999999994
 10
713.5623025292825
 20
81.10084000000041
 42
0.9999999999999998
 10
709.9656625292827
 20
81.10084000000041
 10
709.9656625292823
 20
75.84035999999994
 42
-0.9999999999999998
 10
699.1757425292826
 20
75.84035999999994
 10
699.1757425292822
 20
81.10084000000041
 42
0.9999999999999998
 10
695.5791025292824
 20
81.10084000000041
 10
695.5791025292819
 20
75.84035999999994
 42
-0.9999999999999998
 10
684.7891825292822
 20
75.84035999999994
 10
684.7891825292817
 20
81.10084000000041
 42
0.9999999999999998
 10
681.192542529282
 20
81.10084000000041
 10
681.1925425292815
 20
75.84035999999994
 42
-0.9999999999999998
 10
670.4026225292818
 20
75.84035999999994
 10
670.4026225292814
 20
81.10084000000041
 42
0.9999999999999998
 10
666.8059825292816
 20
81.10084000000041
 10
666.8059825292812
 20
75.84035999999994
 42
-0.9999999999999998
 10
656.0160625292815
 20
75.84035999999994
 10
656.016062529281
 20
81.10084000000041
 42
0.9999999999999998
 10
652.4194225292813
 20
81.10084000000041
 10
652.4194225292813
 20
68.64708
 42
0.4142135623730951
 10
654.2177425292806
 20
66.84876000000001
 10
1076.512314255128
 20
66.84876000000008
 42
-0.9999999999999998
 10
1076.512314255128
 20
56.05884000000006
 10
654.2177425292812
 20
56.05883999999999
 42
0.9999999999999998
 10
654.2177425292809
 20
52.4622
 10
1078.264038806809
 20
52.46220000000005
 42
-0.9999999999999998
 10
1078.264038806809
 20
41.67228000000005
 10
654.2177425292812
 20
41.67228
 42
0.9999999999999998
 10
654.2177425292809
 20
38.07564000000001
 10
1079.619599022896
 20
38.07564000000008
 42
-0.9999999999999998
 10
1079.619599022896
 20
27.28572000000006
 10
654.2177425292812
 20
27.28572
 42
0.9999999999999998
 10
654.2177425292806
 20
23.68908000000001
 10
1080.582029220698
 20
23.68908000000005
 42
-0.9999999999999998
 10
1080.582029220698
 20
12.89916000000006
 10
647.9236225292815
 20
12.89916000000006
 42
-0.4142135623730942
 10
642.5286625292815
 20
18.29412000000002
 10
642.5286625292815
 20
81.10084000000036
 42
0.4142135623730951
 10
640.7303425292816
 20
82.89916000000035
 10
549.6295025292808
 20
82.89916000000037
 10
458.5286625292805
 20
82.89916000000035
 42
0.4142135623730951
 10
456.7303425292805
 20
81.10084000000036
 10
456.7303425292807
 20
18.29412000000002
 42
-0.4142135623730943
 10
451.3353825292815
 20
12.89916000000001
 10
18.67697583786412
 20
12.89916000000005
 42
-0.9999999999999998
 10
18.67697583786412
 20
23.68908000000006
 10
445.0412625292811
 20
23.68908000000002
 42
0.9999999999999998
 10
445.0412625292813
 20
27.28572000000002
 10
19.63940603566561
 20
27.28572000000009
 42
-0.9999999999999998
 10
19.63940603566561
 20
38.07564000000007
 10
445.0412625292811
 20
38.07564000000002
 42
0.9999999999999998
 10
445.0412625292813
 20
41.67228000000001
 10
20.99496625175334
 20
41.67228000000005
 42
-0.9999999999999998
 10
20.99496625175334
 20
52.46220000000005
 10
445.0412625292811
 20
52.4622
 42
0.9999999999999998
 10
445.0412625292815
 20
56.05883999999999
 10
22.74669080343392
 20
56.05884000000009
 42
-0.9999999999999998
 10
22.74669080343392
 20
66.84876000000008
 10
445.0412625292811
 20
66.84876000000001
 42
0.4142135623730951
 10
446.8395825292809
 20
68.64708
 10
446.8395825292809
 20
81.10084000000041
 42
0.9999999999999998
 10
443.2429425292808
 20
81.10084000000041
 10
443.2429425292808
 20
75.84035999999994
 42
-0.9999999999999998
 10
432.4530225292805
 20
75.84035999999994
 10
432.4530225292805
 20
81.10084000000041
 42
0.9999999999999998
 10
428.8563825292803
 20
81.10084000000041
 10
428.8563825292803
 20
75.84035999999994
 42
-0.9999999999999998
 10
418.0664625292802
 20
75.84035999999994
 10
418.0664625292802
 20
81.10084000000041
 42
0.9999999999999998
 10
414.46982252928
 20
81.10084000000041
 10
414.46982252928
 20
75.84035999999994
 42
-0.9999999999999998
 10
403.6799025292798
 20
75.84035999999994
 10
403.6799025292798
 20
81.10084000000041
 42
0.9999999999999998
 10
400.0832625292796
 20
81.10084000000041
 10
400.0832625292796
 20
75.84035999999994
 42
-0.9999999999999998
 10
389.2933425292795
 20
75.84035999999994
 10
389.2933425292795
 20
81.10084000000041
 42
0.9999999999999998
 10
385.6967025292793
 20
81.10084000000041
 10
385.6967025292793
 20
75.84035999999994
 42
-0.9999999999999998
 10
374.9067825292791
 20
75.84035999999994
 10
374.9067825292791
 20
81.10084000000041
 42
0.9999999999999998
 10
371.3101425292789
 20
81.10084000000041
 10
371.3101425292789
 20
75.84035999999994
 42
-0.9999999999999998
 10
360.5202225292787
 20
75.84035999999994
 10
360.5202225292787
 20
81.10084000000041
 42
0.9999999999999998
 10
356.9235825292785
 20
81.10084000000041
 10
356.9235825292785
 20
75.84035999999994
 42
-0.9999999999999998
 10
346.1336625292783
 20
75.84035999999994
 10
346.1336625292783
 20
81.10084000000041
 42
0.9999999999999998
 10
342.5370225292781
 20
81.10084000000041
 10
342.5370225292781
 20
75.84035999999994
 42
-0.9999999999999998
 10
331.747102529278
 20
75.84035999999994
 10
331.747102529278
 20
81.10084000000041
 42
0.9999999999999998
 10
328.1504625292778
 20
81.10084000000041
 10
328.1504625292778
 20
75.84035999999994
 42
-0.9999999999999998
 10
317.3605425292776
 20
75.84035999999994
 10
317.3605425292776
 20
81.10084000000041
 42
0.9999999999999998
 10
313.7639025292774
 20
81.10084000000041
 10
313.7639025292774
 20
75.84035999999994
 42
-0.9999999999999998
 10
302.9739825292772
 20
75.84035999999994
 10
302.9739825292772
 20
81.10084000000041
 42
0.9999999999999998
 10
299.377342529277
 20
81.10084000000041
 10
299.377342529277
 20
75.84035999999994
 42
-0.9999999999999998
 10
288.5874225292769
 20
75.84035999999994
 10
288.5874225292769
 20
81.10084000000041
 42
0.9999999999999998
 10
284.9907825292767
 20
81.10084000000041
 10
284.9907825292767
 20
75.84035999999994
 42
-0.9999999999999998
 10
274.2008625292765
 20
75.84035999999994
 10
274.2008625292765
 20
81.10084000000041
 42
0.9999999999999998
 10
270.6042225292763
 20
81.10084000000041
 10
270.6042225292763
 20
75.84035999999994
 42
-0.9999999999999998
 10
259.8143025292761
 20
75.84035999999994
 10
259.8143025292761
 20
81.10084000000041
 42
0.9999999999999998
 10
256.2176625292759
 20
81.10084000000041
 10
256.2176625292764
 20
75.84035999999994
 42
-0.9999999999999998
 10
245.4277425292758
 20
75.84035999999994
 10
245.4277425292758
 20
81.10084000000041
 42
0.9999999999999998
 10
241.8311025292755
 20
81.10084000000041
 10
241.8311025292755
 20
75.84035999999994
 42
-0.9999999999999998
 10
231.0411825292754
 20
75.84035999999994
 10
231.0411825292754
 20
81.10084000000041
 42
0.9999999999999998
 10
227.4445425292752
 20
81.10084000000041
 10
227.4445425292756
 20
75.84035999999994
 42
-0.9999999999999998
 10
216.654622529275
 20
75.84035999999994
 10
216.654622529275
 20
81.10084000000041
 42
0.9999999999999998
 10
213.0579825292748
 20
81.10084000000041
 10
213.0579825292748
 20
75.84035999999994
 42
-0.9999999999999998
 10
202.2680625292746
 20
75.84035999999994
 10
202.2680625292746
 20
81.10084000000041
 42
0.9999999999999998
 10
198.6714225292744
 20
81.10084000000041
 10
198.6714225292748
 20
75.84035999999994
 42
-0.9999999999999998
 10
187.8815025292743
 20
75.84035999999994
 10
187.8815025292743
 20
81.10084000000041
 42
0.9999999999999998
 10
184.284862529274
 20
81.10084000000041
 10
184.284862529274
 20
75.84035999999994
 42
-0.4142135623730951
 10
178.8899025292739
 20
70.44540000000004
 10
24.89854725634814
 20
70.44540000000006
 42
-0.9999999999999998
 10
24.89854725634814
 20
81.23532000000006
 10
131.3353825292811
 20
81.23532000000007
 42
0.9999999999999998
 10
131.3353825292811
 20
84.83196000000004
 10
27.45548236561217
 20
84.8319600000001
 42
-0.9999999999999998
 10
27.45548236561217
 20
95.62188000000006
 10
135.9767763844106
 20
95.62188000000004
 42
-0.3695270215212279
 10
141.3071081984722
 20
91.05948000000003
 42
0.8559317054078917
 10
144.86066274118
 20
91.05948000000005
 42
-0.8559317054079095
 10
155.5213263693035
 20
91.05948000000001
 42
0.8559317054078865
 10
159.0748809120114
 20
91.05948000000001
 42
-0.8559317054079095
 10
169.7355445401349
 20
91.05947999999996
 42
0.8559317054078865
 10
173.2890990828428
 20
91.05947999999996
 42
-0.3695270215212279
 10
178.6194308969047
 20
95.62188000000006
 10
540.0854225292812
 20
95.62188000000004
 42
0.9999999999999998
 10
540.0854225292814
 20
99.21852000000001
 10
30.42348077215229
 20
99.2185200000001
 42
-0.9999999999999998
 10
30.42348077215229
 20
110.00844
 10
540.0854225292812
 20
110.00844
 42
0.9999999999999998
 10
540.0854225292814
 20
113.60508
 10
33.8096381322489
 20
113.60508
 42
-0.9999999999999998
 10
33.8096381322489
 20
124.395
 10
540.0854225292812
 20
124.395
 42
0.9999999999999998
 10
540.0854225292814
 20
127.99164
 10
37.62225085503542
 20
127.99164
 42
-0.9999999999999998
 10
37.62225085503542
 20
138.78156
 10
540.0854225292812
 20
138.78156
 42
0.9999999999999998
 10
540.0854225292814
 20
142.3782
 10
41.87092524063655
 20
142.3782000000001
 42
-0.9999999999999998
 10
41.87092524063655
 20
153.1681200000001
 10
540.0854225292812
 20
153.16812
 42
0.9999999999999998
 10
540.0854225292814
 20
156.76476
 10
46.5667095937515
 20
156.7647600000001
 42
-0.9999999999999998
 10
46.5667095937515
 20
167.5546800000001
 10
540.0854225292812
 20
167.5546799999999
 42
0.9999999999999998
 10
540.0854225292814
 20
171.15132
 10
51.72225389281493
 20
171.1513200000001
 42
-0.9999999999999998
 10
51.72225389281493
 20
181.9412400000001
 10
540.0854225292812
 20
181.94124
 42
0.9999999999999998
 10
540.0854225292814
 20
185.53788
 10
57.35200290522925
 20
185.5378800000001
 42
-0.9999999999999998
 10
57.35200290522925
 20
196.3278000000001
 10
540.0854225292812
 20
196.3278
 42
0.9999999999999998
 10
540.0854225292814
 20
199.92444
 10
63.47243037027784
 20
199.92444
 42
-0.9999999999999998
 10
63.47243037027784
 20
210.7143600000001
 10
514.2662625292815
 20
210.7143600000001
 42
0.9999999999999998
 10
514.2662625292815
 20
214.311
 10
70.10232418893656
 20
214.3110000000001
 42
-0.9999999999999998
 10
70.10232418893656
 20
225.1009200000002
 10
521.4603825292811
 20
225.10092
 42
-0.4142135623730951
 10
526.8553425292812
 20
219.70596
 10
526.8553425292812
 20
212.51268
 42
0.4142135623730951
 10
528.653662529281
 20
210.71436
 10
540.0854225292814
 20
210.71436
 42
0.9999999999999998
 10
540.0854225292812
 20
214.311
 10
536.6494625292812
 20
214.311
 42
-0.4142135623730951
 10
531.2545025292811
 20
219.7059600000001
 10
531.2545025292811
 20
222.2500000000001
  0
LWPOLYLINE
  5
28CB
330
2
100
AcDbEntity
  8
copper
  6
Continuous
100
AcDbPolyline
 90
      311
 70
   128
 43
1.655999999999999
 10
536.5045025292811
 20
222.2500000000001
 10
536.5045025292813
 20
219.70596
 42
0.4142135623730951
 10
538.3028225292814
 20
217.90764
 10
540.0854225292814
 20
217.90764
 42
-0.9999999999999998
 10
540.0854225292812
 20
207.1177200000001
 10
528.653662529281
 20
207.1177200000001
 42
-0.4142135623730951
 10
523.258702529281
 20
212.51268
 10
523.258702529281
 20
219.70596
 42
0.4142135623730951
 10
521.4603825292811
 20
221.50428
 10
70.10232418893656
 20
221.5042800000001
 42
0.9999999999999998
 10
70.10232418893656
 20
217.9076400000002
 10
514.2662625292815
 20
217.90764
 42
-0.9999999999999998
 10
514.2662625292815
 20
207.1177200000001
 10
63.47243037027784
 20
207.1177200000001
 42
0.9999999999999998
 10
63.47243037027784
 20
203.5210800000001
 10
540.0854225292812
 20
203.52108
 42
-0.9999999999999998
 10
540.0854225292814
 20
192.73116
 10
57.35200290522925
 20
192.7311600000001
 42
0.9999999999999998
 10
57.35200290522925
 20
189.1345200000001
 10
540.0854225292812
 20
189.1345199999999
 42
-0.9999999999999998
 10
540.0854225292814
 20
178.3446
 10
51.72225389281493
 20
178.3446000000001
 42
0.9999999999999998
 10
51.72225389281493
 20
174.7479600000001
 10
540.0854225292812
 20
174.7479599999999
 42
-0.9999999999999998
 10
540.0854225292814
 20
163.95804
 10
46.5667095937515
 20
163.9580400000001
 42
0.9999999999999998
 10
46.5667095937515
 20
160.3614000000001
 10
540.0854225292812
 20
160.3614
 42
-0.9999999999999998
 10
540.0854225292814
 20
149.57148
 10
41.87092524063655
 20
149.5714800000001
 42
0.9999999999999998
 10
41.87092524063655
 20
145.9748400000001
 10
540.0854225292812
 20
145.97484
 42
-0.9999999999999998
 10
540.0854225292814
 20
135.18492
 10
37.62225085503542
 20
135.18492
 42
0.9999999999999998
 10
37.62225085503542
 20
131.5882800000001
 10
540.0854225292812
 20
131.5882799999999
 42
-0.9999999999999998
 10
540.0854225292814
 20
120.79836
 10
33.8096381322489
 20
120.7983600000001
 42
0.9999999999999998
 10
33.8096381322489
 20
117.2017200000001
 10
540.0854225292812
 20
117.20172
 42
-0.9999999999999998
 10
540.0854225292814
 20
106.4118
 10
30.42348077215229
 20
106.4118000000001
 42
0.9999999999999998
 10
30.42348077215229
 20
102.8151600000001
 10
540.0854225292812
 20
102.81516
 42
-0.9999999999999998
 10
540.0854225292814
 20
92.02524000000002
 10
178.6194308969047
 20
92.02523999999996
 42
0.3695270215212202
 10
176.842653625551
 20
90.50443999999998
 42
-0.8559317054079038
 10
166.1819899974275
 20
90.50444000000004
 42
0.8559317054078887
 10
162.6284354547197
 20
90.50444000000004
 42
-0.8559317054079038
 10
151.9677718265961
 20
90.50444000000009
 42
0.8559317054078887
 10
148.4142172838883
 20
90.50444000000007
 42
-0.8559317054079095
 10
137.7535536557648
 20
90.50444000000009
 42
0.3695270215212219
 10
135.9767763844106
 20
92.02524000000005
 10
27.45548236561217
 20
92.02524000000011
 42
0.9999999999999998
 10
27.45548236561217
 20
88.42860000000007
 10
131.3353825292811
 20
88.42860000000007
 42
-0.9999999999999998
 10
131.3353825292811
 20
77.63868000000006
 10
24.89854725634814
 20
77.63868000000008
 42
0.9999999999999998
 10
24.89854725634814
 20
74.04204000000007
 10
178.8899025292739
 20
74.04203999999996
 42
0.4142135623730951
 10
180.6882225292738
 20
75.84035999999994
 10
180.6882225292743
 20
81.10084000000041
 42
-0.9999999999999998
 10
191.4781425292744
 20
81.10084000000041
 10
191.4781425292749
 20
75.84035999999994
 42
0.9999999999999998
 10
195.0747825292742
 20
75.84035999999994
 10
195.0747825292746
 20
81.10084000000041
 42
-0.9999999999999998
 10
205.8647025292748
 20
81.10084000000041
 10
205.8647025292748
 20
75.84035999999994
 42
0.9999999999999998
 10
209.4613425292746
 20
75.84035999999994
 10
209.4613425292751
 20
81.10084000000041
 42
-0.9999999999999998
 10
220.2512625292752
 20
81.10084000000041
 10
220.2512625292757
 20
75.84035999999994
 42
0.9999999999999998
 10
223.847902529275
 20
75.84035999999994
 10
223.8479025292754
 20
81.10084000000041
 42
-0.9999999999999998
 10
234.6378225292756
 20
81.10084000000041
 10
234.6378225292756
 20
75.84035999999994
 42
0.9999999999999998
 10
238.2344625292753
 20
75.84035999999994
 10
238.2344625292758
 20
81.10084000000041
 42
-0.9999999999999998
 10
249.0243825292759
 20
81.10084000000041
 10
249.0243825292764
 20
75.84035999999994
 42
0.9999999999999998
 10
252.6210225292757
 20
75.84035999999994
 10
252.6210225292762
 20
81.10084000000041
 42
-0.9999999999999998
 10
263.4109425292763
 20
81.10084000000041
 10
263.4109425292763
 20
75.84035999999994
 42
0.9999999999999998
 10
267.0075825292761
 20
75.84035999999994
 10
267.0075825292765
 20
81.10084000000041
 42
-0.9999999999999998
 10
277.7975025292767
 20
81.10084000000041
 10
277.7975025292767
 20
75.84035999999994
 42
0.9999999999999998
 10
281.3941425292764
 20
75.84035999999994
 10
281.3941425292769
 20
81.10084000000041
 42
-0.9999999999999998
 10
292.1840625292771
 20
81.10084000000041
 10
292.1840625292771
 20
75.84035999999994
 42
0.9999999999999998
 10
295.7807025292768
 20
75.84035999999994
 10
295.7807025292773
 20
81.10084000000041
 42
-0.9999999999999998
 10
306.5706225292775
 20
81.10084000000041
 10
306.5706225292775
 20
75.84035999999994
 42
0.9999999999999998
 10
310.1672625292772
 20
75.84035999999994
 10
310.1672625292776
 20
81.10084000000041
 42
-0.9999999999999998
 10
320.9571825292778
 20
81.10084000000041
 10
320.9571825292778
 20
75.84035999999994
 42
0.9999999999999998
 10
324.5538225292776
 20
75.84035999999994
 10
324.553822529278
 20
81.10084000000041
 42
-0.9999999999999998
 10
335.3437425292782
 20
81.10084000000041
 10
335.3437425292782
 20
75.84035999999994
 42
0.9999999999999998
 10
338.940382529278
 20
75.84035999999994
 10
338.9403825292784
 20
81.10084000000041
 42
-0.9999999999999998
 10
349.7303025292786
 20
81.10084000000041
 10
349.7303025292786
 20
75.84035999999994
 42
0.9999999999999998
 10
353.3269425292783
 20
75.84035999999994
 10
353.3269425292788
 20
81.10084000000041
 42
-0.9999999999999998
 10
364.1168625292789
 20
81.10084000000041
 10
364.1168625292789
 20
75.84035999999994
 42
0.9999999999999998
 10
367.7135025292787
 20
75.84035999999994
 10
367.7135025292792
 20
81.10084000000041
 42
-0.9999999999999998
 10
378.5034225292793
 20
81.10084000000041
 10
378.5034225292793
 20
75.84035999999994
 42
0.9999999999999998
 10
382.1000625292791
 20
75.84035999999994
 10
382.1000625292795
 20
81.10084000000041
 42
-0.9999999999999998
 10
392.8899825292797
 20
81.10084000000041
 10
392.8899825292797
 20
75.84035999999994
 42
0.9999999999999998
 10
396.4866225292794
 20
75.84035999999994
 10
396.4866225292799
 20
81.10084000000041
 42
-0.9999999999999998
 10
407.27654252928
 20
81.10084000000041
 10
407.27654252928
 20
75.84035999999994
 42
0.9999999999999998
 10
410.8731825292798
 20
75.84035999999994
 10
410.8731825292802
 20
81.10084000000041
 42
-0.9999999999999998
 10
421.6631025292803
 20
81.10084000000041
 10
421.6631025292803
 20
75.84035999999994
 42
0.9999999999999998
 10
425.2597425292801
 20
75.84035999999994
 10
425.2597425292806
 20
81.10084000000041
 42
-0.9999999999999998
 10
436.0496625292808
 20
81.10084000000041
 10
436.0496625292808
 20
75.84035999999994
 42
0.9999999999999998
 10
439.6463025292805
 20
75.84035999999994
 10
439.646302529281
 20
81.10084000000041
 42
-0.9999999999999998
 10
450.4362225292811
 20
81.10084000000041
 10
450.4362225292811
 20
68.64708
 42
-0.4142135623730951
 10
445.0412625292815
 20
63.25211999999999
 10
22.74669080343392
 20
63.25212000000011
 42
0.9999999999999998
 10
22.74669080343392
 20
59.65548000000007
 10
445.0412625292811
 20
59.65547999999997
 42
-0.9999999999999998
 10
445.0412625292813
 20
48.86556000000002
 10
20.99496625175334
 20
48.86556000000007
 42
0.9999999999999998
 10
20.99496625175334
 20
45.26892000000006
 10
445.0412625292811
 20
45.26891999999998
 42
-0.9999999999999998
 10
445.0412625292813
 20
34.47900000000002
 10
19.63940603566561
 20
34.4790000000001
 42
0.9999999999999998
 10
19.63940603566561
 20
30.88236000000005
 10
445.0412625292811
 20
30.88235999999998
 42
-0.9999999999999998
 10
445.0412625292815
 20
20.09244000000001
 10
18.67697583786412
 20
20.09244000000007
 42
0.9999999999999998
 10
18.67697583786412
 20
16.49580000000006
 10
451.3353825292806
 20
16.49580000000004
 42
0.4142135623730927
 10
453.1337025292805
 20
18.29412000000002
 10
453.1337025292805
 20
81.10084000000036
 42
-0.4142135623730951
 10
458.5286625292805
 20
86.49580000000041
 10
549.6295025292813
 20
86.49580000000039
 10
640.7303425292816
 20
86.49580000000041
 42
-0.4142135623730951
 10
646.1253025292817
 20
81.10084000000036
 10
646.1253025292817
 20
18.29412000000002
 42
0.4142135623730926
 10
647.9236225292806
 20
16.49580000000001
 10
1080.582029220698
 20
16.49580000000003
 42
0.9999999999999998
 10
1080.582029220698
 20
20.09244000000007
 10
654.2177425292812
 20
20.09244000000004
 42
-0.9999999999999998
 10
654.2177425292809
 20
30.88236000000002
 10
1079.619599022896
 20
30.88236000000006
 42
0.9999999999999998
 10
1079.619599022896
 20
34.47900000000006
 10
654.2177425292812
 20
34.47900000000004
 42
-0.9999999999999998
 10
654.2177425292809
 20
45.26892
 10
1078.264038806809
 20
45.26892000000003
 42
0.9999999999999998
 10
1078.264038806809
 20
48.86556000000005
 10
654.2177425292812
 20
48.86556000000003
 42
-0.9999999999999998
 10
654.2177425292806
 20
59.65548000000001
 10
1076.512314255128
 20
59.65548000000007
 42
0.9999999999999998
 10
1076.512314255128
 20
63.25212000000006
 10
654.2177425292812
 20
63.25212000000004
 42
-0.4142135623730951
 10
648.8227825292811
 20
68.64708
 10
648.8227825292811
 20
81.10084000000041
 42
-0.9999999999999998
 10
659.6127025292816
 20
81.10084000000041
 10
659.6127025292812
 20
75.84035999999994
 42
0.9999999999999998
 10
663.2093425292814
 20
75.84035999999994
 10
663.2093425292814
 20
81.10084000000041
 42
-0.9999999999999998
 10
673.9992625292821
 20
81.10084000000041
 10
673.9992625292816
 20
75.84035999999994
 42
0.9999999999999998
 10
677.5959025292818
 20
75.84035999999994
 10
677.5959025292818
 20
81.10084000000041
 42
-0.9999999999999998
 10
688.3858225292824
 20
81.10084000000041
 10
688.3858225292819
 20
75.84035999999994
 42
0.9999999999999998
 10
691.9824625292822
 20
75.84035999999994
 10
691.9824625292822
 20
81.10084000000041
 42
-0.9999999999999998
 10
702.7723825292828
 20
81.10084000000041
 10
702.7723825292824
 20
75.84035999999994
 42
0.9999999999999998
 10
706.3690225292825
 20
75.84035999999994
 10
706.3690225292825
 20
81.10084000000041
 42
-0.9999999999999998
 10
717.1589425292832
 20
81.10084000000041
 10
717.1589425292827
 20
75.84035999999994
 42
0.9999999999999998
 10
720.7555825292829
 20
75.84035999999994
 10
720.7555825292829
 20
81.10084000000041
 42
-0.9999999999999998
 10
731.5455025292835
 20
81.10084000000041
 10
731.545502529283
 20
75.84035999999994
 42
0.9999999999999998
 10
735.1421425292833
 20
75.84035999999994
 10
735.1421425292833
 20
81.10084000000041
 42
-0.9999999999999998
 10
745.9320625292839
 20
81.10084000000041
 10
745.9320625292835
 20
75.84035999999994
 42
0.9999999999999998
 10
749.5287025292837
 20
75.84035999999994
 10
749.5287025292837
 20
81.10084000000041
 42
-0.9999999999999998
 10
760.3186225292843
 20
81.10084000000041
 10
760.3186225292838
 20
75.84035999999994
 42
0.9999999999999998
 10
763.915262529284
 20
75.84035999999994
 10
763.915262529284
 20
81.10084000000041
 42
-0.9999999999999998
 10
774.7051825292847
 20
81.10084000000041
 10
774.7051825292842
 20
75.84035999999994
 42
0.9999999999999998
 10
778.3018225292844
 20
75.84035999999994
 10
778.3018225292844
 20
81.10084000000041
 42
-0.9999999999999998
 10
789.091742529285
 20
81.10084000000041
 10
789.0917425292846
 20
75.84035999999994
 42
0.9999999999999998
 10
792.6883825292848
 20
75.84035999999994
 10
792.6883825292848
 20
81.10084000000041
 42
-0.9999999999999998
 10
803.4783025292854
 20
81.10084000000041
 10
803.4783025292849
 20
75.84035999999994
 42
0.9999999999999998
 10
807.0749425292852
 20
75.84035999999994
 10
807.0749425292852
 20
81.10084000000041
 42
-0.9999999999999998
 10
817.8648625292858
 20
81.10084000000041
 10
817.8648625292852
 20
75.84035999999994
 42
0.9999999999999998
 10
821.4615025292856
 20
75.84035999999994
 10
821.4615025292856
 20
81.10084000000041
 42
-0.9999999999999998
 10
832.2514225292861
 20
81.10084000000041
 10
832.2514225292858
 20
75.84035999999994
 42
0.9999999999999998
 10
835.8480625292859
 20
75.84035999999994
 10
835.8480625292859
 20
81.10084000000041
 42
-0.9999999999999998
 10
846.6379825292865
 20
81.10084000000041
 10
846.6379825292861
 20
75.84035999999994
 42
0.9999999999999998
 10
850.2346225292862
 20
75.84035999999994
 10
850.2346225292862
 20
81.10084000000041
 42
-0.9999999999999998
 10
861.024542529287
 20
81.10084000000041
 10
861.024542529287
 20
75.84035999999994
 42
0.9999999999999998
 10
864.6211825292866
 20
75.84035999999994
 10
864.6211825292866
 20
81.10084000000041
 42
-0.9999999999999998
 10
875.4111025292873
 20
81.10084000000041
 10
875.4111025292868
 20
75.84035999999994
 42
0.9999999999999998
 10
879.0077425292871
 20
75.84035999999994
 10
879.0077425292871
 20
81.10084000000041
 42
-0.9999999999999998
 10
889.7976625292876
 20
81.10084000000041
 10
889.7976625292876
 20
75.84035999999994
 42
0.9999999999999998
 10
893.3943025292874
 20
75.84035999999994
 10
893.3943025292874
 20
81.10084000000041
 42
-0.9999999999999998
 10
904.184222529288
 20
81.10084000000041
 10
904.1842225292876
 20
75.84035999999994
 42
0.9999999999999998
 10
907.7808625292878
 20
75.84035999999994
 10
907.7808625292878
 20
81.10084000000041
 42
-0.9999999999999998
 10
918.5707825292883
 20
81.10084000000041
 10
918.5707825292883
 20
75.84035999999994
 42
0.4142135623730951
 10
920.3691025292883
 20
74.04204000000006
 10
1074.360457802214
 20
74.04204000000004
 42
0.9999999999999998
 10
1074.360457802214
 20
77.63868000000006
 10
967.9236225292811
 20
77.63868000000006
 42
-0.9999999999999998
 10
967.9236225292811
 20
88.42860000000007
 10
1071.80352269295
 20
88.42860000000007
 42
0.9999999999999998
 10
1071.80352269295
 20
92.02524000000007
 10
963.2822286741516
 20
92.02524000000005
 42
0.3695270215212202
 10
961.5054514027976
 20
90.50444000000004
 42
-0.8559317054079038
 10
950.8447877746741
 20
90.50444000000011
 42
0.8559317054078833
 10
947.2912332319664
 20
90.50443999999998
 42
-0.8559317054078981
 10
936.6305696038427
 20
90.50444000000005
 42
0.8559317054078833
 10
933.077015061135
 20
90.50443999999997
 42
-0.8559317054078981
 10
922.4163514330113
 20
90.50444000000002
 42
0.3695270215212184
 10
920.6395741616574
 20
92.02524000000005
 10
559.1735825292809
 20
92.02524000000005
 42
-0.9999999999999998
 10
559.1735825292808
 20
102.81516
 10
1068.83552428641
 20
102.8151600000001
 42
0.9999999999999998
 10
1068.83552428641
 20
106.4118000000001
 10
559.1735825292809
 20
106.4118000000001
 42
-0.9999999999999998
 10
559.1735825292808
 20
117.20172
 10
1065.449366926313
 20
117.20172
 42
0.9999999999999998
 10
1065.449366926313
 20
120.7983600000001
 10
559.1735825292809
 20
120.79836
 42
-0.9999999999999998
 10
559.1735825292808
 20
131.58828
 10
1061.636754203527
 20
131.58828
 42
0.9999999999999998
 10
1061.636754203527
 20
135.18492
 10
559.1735825292809
 20
135.18492
 42
-0.9999999999999998
 10
559.1735825292808
 20
145.97484
 10
1057.388079817926
 20
145.9748400000001
 42
0.9999999999999998
 10
1057.388079817926
 20
149.57148
 10
559.1735825292809
 20
149.57148
 42
-0.9999999999999998
 10
559.1735825292808
 20
160.3614
 10
1052.692295464811
 20
160.3614000000001
 42
0.9999999999999998
 10
1052.692295464811
 20
163.95804
 10
559.1735825292809
 20
163.95804
 42
-0.9999999999999998
 10
559.1735825292808
 20
174.74796
 10
1047.536751165747
 20
174.7479600000001
 42
0.9999999999999998
 10
1047.536751165747
 20
178.3446000000001
 10
559.1735825292809
 20
178.3446
 42
-0.9999999999999998
 10
559.1735825292808
 20
189.13452
 10
1041.907002153333
 20
189.1345200000001
 42
0.9999999999999998
 10
1041.907002153333
 20
192.7311600000001
 10
559.1735825292809
 20
192.73116
 42
-0.9999999999999998
 10
559.1735825292808
 20
203.5210800000001
 10
1035.786574688284
 20
203.5210800000001
 42
0.9999999999999998
 10
1035.786574688284
 20
207.1177200000001
 10
584.9927425292807
 20
207.1177200000001
 42
-0.9999999999999998
 10
584.9927425292807
 20
217.9076400000001
 10
1029.156680869625
 20
217.9076400000001
 42
0.9999999999999998
 10
1029.156680869625
 20
221.5042800000001
 10
577.7986225292811
 20
221.50428
 42
0.4142135623730951
 10
576.0003025292812
 20
219.70596
 10
576.0003025292812
 20
212.51268
 42
-0.4142135623730951
 10
570.6053425292812
 20
207.1177200000001
 10
559.1735825292808
 20
207.1177200000001
 42
-0.9999999999999998
 10
559.1735825292809
 20
217.90764
 10
560.9561825292807
 20
217.90764
 42
0.4142135623730951
 10
562.7545025292809
 20
219.70596
 10
562.754502529281
 20
222.2500000000001
  0
LWPOLYLINE
  5
2A2E
330
2
100
AcDbEntity
  8
copper
  6
Continuous
100
AcDbPolyline
 90
       12
 70
   128
 43
0.5
 10
541.7545025292811
 20
222.2500000000001
 10
547.2508228728409
 20
216.7536796564407
 42
-0.1989123673796545
 10
548.1295025292811
 20
214.632359312881
 10
548.1295025292811
 20
92.76052000000017
 42
-0.4142135623730951
 10
545.1295025292811
 20
89.76052000000017
 10
183.634199470298
 20
89.76052000000024
 42
0.148512711964937
 10
180.8534734961563
 20
88.91594573712207
 42
0.2089396718024928
 10
176.7955632959738
 20
82.57252720545286
 42
-0.3688994050899152
 10
173.8325314473841
 20
80.04204000000006
 10
173.6882225292738
 20
80.04204000000006
 10
172.0295025292812
 20
80.04204000000006
 42
-0.039936203984467
 10
167.0295025292812
 20
80.44204000000021
  0
LWPOLYLINE
  5
2A2F
330
2
100
AcDbEntity
  8
copper
  6
Continuous
100
AcDbPolyline
 90
       12
 70
   128
 43
0.5
 10
547.0045025292811
 20
222.2500000000001
 10
548.2508228728407
 20
221.0036796564406
 42
-0.1989123673796632
 10
549.1295025292811
 20
218.8823593128809
 10
549.1295025292811
 20
92.76052000000017
 42
-0.4142135623730951
 10
545.1295025292811
 20
88.76052000000019
 10
183.634199470298
 20
88.76052000000024
 42
0.1485127119649362
 10
181.4096186909846
 20
88.08486058969778
 42
0.2089396718024945
 10
177.7832405788367
 20
82.41602294060374
 42
-0.3688994050899116
 10
173.8325314473841
 20
79.04204000000006
 10
173.6882225292738
 20
79.04204000000006
 10
172.0295025292812
 20
79.04204000000006
 42
0.0399362039844672
 10
167.0295025292812
 20
78.6420399999999
  0
LWPOLYLINE
  5
2A30
330
2
100
AcDbEntity
  8
copper
  6
Continuous
100
AcDbPolyline
 90
       12
 70
   128
 43
0.5
 10
552.2545025292811
 20
222.2500000000001
 10
551.0081821857215
 20
221.0036796564406
 42
0.1989123673796386
 10
550.1295025292811
 20
218.8823593128809
 10
550.1295025292811
 20
92.76052000000017
 42
0.4142135623730951
 10
554.1295025292811
 20
88.76052000000017
 10
915.6248055882642
 20
88.76052000000024
 42
-0.1485127119649412
 10
917.8493863675775
 20
88.08486058969767
 42
-0.2089396718024969
 10
921.4757644797252
 20
82.41602294060351
 42
0.3688994050899195
 10
925.4264736111782
 20
79.04204000000006
 10
925.5707825292883
 20
79.04204000000006
 10
927.2295025292811
 20
79.04204000000006
 42
-0.0399362039844232
 10
932.2295025292758
 20
78.64204000000078
  0
LWPOLYLINE
  5
2A31
330
2
100
AcDbEntity
  8
copper
  6
Continuous
100
AcDbPolyline
 90
       12
 70
   128
 43
0.5
 10
557.5045025292811
 20
222.2500000000001
 10
552.0081821857213
 20
216.7536796564407
 42
0.1989123673796343
 10
551.1295025292811
 20
214.632359312881
 10
551.1295025292811
 20
92.76052000000017
 42
0.4142135623730951
 10
554.1295025292811
 20
89.76052000000017
 10
915.6248055882642
 20
89.76052000000024
 42
-0.1485127119649415
 10
918.4055315624059
 20
88.91594573712202
 42
-0.2089396718024954
 10
922.4634417625887
 20
82.5725272054526
 42
0.368899405089923
 10
925.4264736111782
 20
80.04204000000006
 10
925.5707825292883
 20
80.04204000000006
 10
927.2295025292811
 20
80.04204000000006
 42
0.0399362039844231
 10
932.2295025292758
 20
80.44203999999934
  0
LWPOLYLINE
  5
2A32
330
2
100
AcDbEntity
  8
copper
  6
Continuous
100
AcDbPolyline
 90
        2
 70
   128
 43
0.5
 10
544.1262107744078
 20
219.8782917548739
 42
0.2134217652834271
 10
541.8379651631367
 20
220.7523238037714
  0
LWPOLYLINE
  5
2A33
330
2
100
AcDbEntity
  8
copper
  6
Continuous
100
AcDbPolyline
 90
        2
 70
   128
 43
0.5
 10
543.2521787255097
 20
222.1665373661446
 42
0.2134217652833963
 10
544.1262107744075
 20
219.8782917548737
  0
LWPOLYLINE
  5
2A34
330
2
100
AcDbEntity
  8
copper
  6
Continuous
100
AcDbPolyline
 90
        2
 70
   128
 43
0.5
 10
549.0087693101888
 20
219.7248691373697
 42
0.3865611629219874
 10
547.286819224508
 20
220.7768071125627
  0
LWPOLYLINE
  5
2A35
330
2
100
AcDbEntity
  8
copper
  6
Continuous
100
AcDbPolyline
 90
        2
 70
   128
 43
0.5
 10
548.4903255499363
 20
222.0442575607961
 42
0.1546638204980306
 10
548.7957370602644
 20
220.2575659976345
  0
LWPOLYLINE
  5
2A36
330
2
100
AcDbEntity
  8
copper
  6
Continuous
100
AcDbPolyline
 90
        2
 70
   128
 43
0.5
 10
550.4632679982978
 20
220.2575659976346
 42
0.1546638204980161
 10
550.7686795086258
 20
222.0442575607961
  0
LWPOLYLINE
  5
2A37
330
2
100
AcDbEntity
  8
copper
  6
Continuous
100
AcDbPolyline
 90
        2
 70
   128
 43
0.5
 10
551.972185834054
 20
220.7768071125628
 42
0.3865611629219576
 10
550.2502357483733
 20
219.7248691373696
  0
LWPOLYLINE
  5
2A38
330
2
100
AcDbEntity
  8
copper
  6
Continuous
100
AcDbPolyline
 90
        2
 70
   128
 43
0.5
 10
555.1327942841549
 20
219.8782917548739
 42
0.2134217652833702
 10
556.0068263330524
 20
222.1665373661445
  0
LWPOLYLINE
  5
2A39
330
2
100
AcDbEntity
  8
copper
  6
Continuous
100
AcDbPolyline
 90
        2
 70
   128
 43
0.5
 10
557.421039895425
 20
220.7523238037715
 42
0.2134217652834111
 10
555.1327942841542
 20
219.8782917548737
  0
LWPOLYLINE
  5
2A43
330
2
100
AcDbEntity
  8
mechanical
  6
Continuous
100
AcDbPolyline
 90
        2
 70
   128
 43
0.254
 10
64.90690144697146
 20
228.0
 10
1034.352103611591
 20
227.9999999999999
  0
LWPOLYLINE
  5
2A44
330
2
100
AcDbEntity
  8
mechanical
  6
Continuous
100
AcDbPolyline
 90
        2
 70
   128
 43
0.254
 10
1089.259005058562
 20
9.999999999999982
 10
639.6295025292811
 20
9.999999999999978
  0
LWPOLYLINE
  5
2A45
330
2
100
AcDbEntity
  8
mechanical
  6
Continuous
100
AcDbPolyline
 90
        2
 70
   128
 43
0.254
 10
64.90690144697146
 20
228.0000000000002
 42
0.1052304131328541
 10
9.999999999999545
 20
10.00000000000011
  0
LWPOLYLINE
  5
2A46
330
2
100
AcDbEntity
  8
mechanical
  6
Continuous
100
AcDbPolyline
 90
        2
 70
   128
 43
0.254
 10
459.629502529281
 20
9.999999999999982
 10
9.999999999999545
 20
9.999999999999996
  0
LWPOLYLINE
  5
2A47
330
2
100
AcDbEntity
  8
mechanical
  6
Continuous
100
AcDbPolyline
 90
        2
 70
   128
 43
0.254
 10
639.6295025292811
 20
9.999999999999978
 10
639.6295025292811
 20
79.99999999999999
  0
LWPOLYLINE
  5
2A48
330
2
100
AcDbEntity
  8
mechanical
  6
Continuous
100
AcDbPolyline
 90
        2
 70
   128
 43
0.254
 10
459.629502529281
 20
79.99999999999997
 10
459.629502529281
 20
9.999999999999982
  0
LWPOLYLINE
  5
2A49
330
2
100
AcDbEntity
  8
mechanical
  6
Continuous
100
AcDbPolyline
 90
        2
 70
   128
 43
0.254
 10
639.6295025292811
 20
79.99999999999999
 10
459.629502529281
 20
79.99999999999997
  0
LWPOLYLINE
  5
2A4A
330
2
100
AcDbEntity
  8
mechanical
  6
Continuous
100
AcDbPolyline
 90
        2
 70
   128
 43
0.254
 10
1089.259005058562
 20
9.999999999999978
 42
0.1052304131328541
 10
1034.352103611591
 20
227.9999999999999
  0
LWPOLYLINE
  5
2A4B
330
2
100
AcDbEntity
  8
mechanical
  6
Continuous
100
AcDbPolyline
 90
        2
 70
   129
 43
0.127
 10
64.84340144697125
 20
228.0
 42
1.0
 10
64.97040144697166
 20
228.0
 42
1.0
  0
LWPOLYLINE
  5
2A4C
330
2
100
AcDbEntity
  8
mechanical
  6
Continuous
100
AcDbPolyline
 90
        2
 70
   129
 43
0.127
 10
1034.288603611591
 20
227.9999999999999
 42
1.0
 10
1034.415603611591
 20
227.9999999999999
 42
1.0
  0
LWPOLYLINE
  5
2A4D
330
2
100
AcDbEntity
  8
mechanical
  6
Continuous
100
AcDbPolyline
 90
        2
 70
   129
 43
0.127
 10
1089.195505058563
 20
9.999999999999982
 42
1.0
 10
1089.322505058563
 20
9.999999999999982
 42
1.0
  0
LWPOLYLINE
  5
2A4E
330
2
100
AcDbEntity
  8
mechanical
  6
Continuous
100
AcDbPolyline
 90
        2
 70
   129
 43
0.127
 10
639.5660025292811
 20
9.999999999999978
 42
1.0
 10
639.693002529281
 20
9.999999999999978
 42
1.0
  0
LWPOLYLINE
  5
2A4F
330
2
100
AcDbEntity
  8
mechanical
  6
Continuous
100
AcDbPolyline
 90
        2
 70
   129
 43
0.127
 10
639.5660025292811
 20
79.99999999999997
 42
1.0
 10
639.693002529281
 20
79.99999999999997
 42
1.0
  0
LWPOLYLINE
  5
2A50
330
2
100
AcDbEntity
  8
mechanical
  6
Continuous
100
AcDbPolyline
 90
        2
 70
   129
 43
0.127
 10
459.5660025292811
 20
79.99999999999997
 42
1.0
 10
459.693002529281
 20
79.99999999999997
 42
1.0
  0
LWPOLYLINE
  5
2A51
330
2
100
AcDbEntity
  8
mechanical
  6
Continuous
100
AcDbPolyline
 90
        2
 70
   129
 43
0.127
 10
459.5660025292811
 20
9.999999999999982
 42
1.0
 10
459.693002529281
 20
9.999999999999982
 42
1.0
  0
LWPOLYLINE
  5
2A52
330
2
100
AcDbEntity
  8
mechanical
  6
Continuous
100
AcDbPolyline
 90
        2
 70
   129
 43
0.127
 10
9.936499999999796
 20
9.999999999999996
 42
1.0
 10
10.0635000000002
 20
9.999999999999996
 42
1.0
  0
LWPOLYLINE
  5
2A53
330
2
100
AcDbEntity
  8
kapton
  6
Continuous
100
AcDbPolyline
 90
        2
 70
   128
 43
0.254
 10
639.6295025292811
 20
10.0
 10
639.6295025292811
 20
80.0
  0
LWPOLYLINE
  5
2A54
330
2
100
AcDbEntity
  8
kapton
  6
Continuous
100
AcDbPolyline
 90
        2
 70
   128
 43
0.254
 10
639.6295025292811
 20
80.0
 10
459.629502529281
 20
80.0
  0
LWPOLYLINE
  5
2A55
330
2
100
AcDbEntity
  8
kapton
  6
Continuous
100
AcDbPolyline
 90
        2
 70
   128
 43
0.254
 10
459.629502529281
 20
80.0
 10
459.629502529281
 20
10.0
  0
LWPOLYLINE
  5
2A56
330
2
100
AcDbEntity
  8
kapton
  6
Continuous
100
AcDbPolyline
 90
        2
 70
   128
 43
0.254
 10
459.629502529281
 20
10.0
 10
9.999999999999545
 20
10.0
  0
LWPOLYLINE
  5
2A57
330
2
100
AcDbEntity
  8
kapton
  6
Continuous
100
AcDbPolyline
 90
        2
 70
   128
 43
0.254
 10
64.90690144697146
 20
228.0000000000001
 42
0.1052304131328541
 10
9.999999999999545
 20
10.00000000000011
  0
LWPOLYLINE
  5
2A58
330
2
100
AcDbEntity
  8
kapton
  6
Continuous
100
AcDbPolyline
 90
        2
 70
   128
 43
0.254
 10
64.90690144697146
 20
228.0
 10
1034.352103611591
 20
227.9999999999999
  0
LWPOLYLINE
  5
2A59
330
2
100
AcDbEntity
  8
kapton
  6
Continuous
100
AcDbPolyline
 90
        2
 70
   128
 43
0.254
 10
1089.259005058562
 20
10.0
 42
0.1052304131328541
 10
1034.352103611591
 20
227.9999999999999
  0
LWPOLYLINE
  5
2A5A
330
2
100
AcDbEntity
  8
kapton
  6
Continuous
100
AcDbPolyline
 90
        2
 70
   128
 43
0.254
 10
1089.259005058562
 20
10.0
 10
639.6295025292811
 20
10.0
  0
LWPOLYLINE
  5
2A5B
330
2
100
AcDbEntity
  8
kapton
  6
Continuous
100
AcDbPolyline
 90
        2
 70
   129
 43
0.127
 10
64.84340144697125
 20
228.0
 42
1.0
 10
64.97040144697166
 20
228.0
 42
1.0
  0
LWPOLYLINE
  5
2A5C
330
2
100
AcDbEntity
  8
kapton
  6
Continuous
100
AcDbPolyline
 90
        2
 70
   129
 43
0.127
 10
1034.288603611591
 20
227.9999999999999
 42
1.0
 10
1034.415603611591
 20
227.9999999999999
 42
1.0
  0
LWPOLYLINE
  5
2A5D
330
2
100
AcDbEntity
  8
kapton
  6
Continuous
100
AcDbPolyline
 90
        2
 70
   129
 43
0.127
 10
1089.195505058563
 20
10.0
 42
1.0
 10
1089.322505058563
 20
10.0
 42
1.0
  0
LWPOLYLINE
  5
2A5E
330
2
100
AcDbEntity
  8
kapton
  6
Continuous
100
AcDbPolyline
 90
        2
 70
   129
 43
0.127
 10
639.5660025292811
 20
10.0
 42
1.0
 10
639.693002529281
 20
10.0
 42
1.0
  0
LWPOLYLINE
  5
2A5F
330
2
100
AcDbEntity
  8
kapton
  6
Continuous
100
AcDbPolyline
 90
        2
 70
   129
 43
0.127
 10
639.5660025292811
 20
80.0
 42
1.0
 10
639.693002529281
 20
80.0
 42
1.0
  0
LWPOLYLINE
  5
2A60
330
2
100
AcDbEntity
  8
kapton
  6
Continuous
100
AcDbPolyline
 90
        2
 70
   129
 43
0.127
 10
459.5660025292811
 20
80.0
 42
1.0
 10
459.693002529281
 20
80.0
 42
1.0
  0
LWPOLYLINE
  5
2A61
330
2
100
AcDbEntity
  8
kapton
  6
Continuous
100
AcDbPolyline
 90
        2
 70
   129
 43
0.127
 10
459.5660025292811
 20
10.0
 42
1.0
 10
459.693002529281
 20
10.0
 42
1.0
  0
LWPOLYLINE
  5
2A62
330
2
100
AcDbEntity
  8
kapton
  6
Continuous
100
AcDbPolyline
 90
        2
 70
   129
 43
0.127
 10
9.936499999999796
 20
10.0
 42
1.0
 10
10.0635000000002
 20
10.0
 42
1.0
  0
LWPOLYLINE
  5
2A71
330
2
100
AcDbEntity
  8
kapton
  6
Continuous
100
AcDbPolyline
 90
        4
 70
     1
 43
0.254
 10
530.0045025292811
 20
225.0
 10
569.2545025292811
 20
225.0
 10
569.2545025292811
 20
220.0000000000001
 10
530.0045025292811
 20
220.0000000000001
  0
HATCH
  5
2A77
330
2
100
AcDbEntity
  8
kapton
  6
Continuous
100
AcDbHatch
 10
0.0
 20
0.0
 30
0.0
210
0.0
220
0.0
230
1.0
  2
ANSI37
 70
     0
 71
     0
 91
        1
 92
        7
 72
     0
 73
     1
 93
        4
 10
530.0045025292813
 20
225.0
 10
530.0045025292809
 20
220.0000000000001
 10
569.2545025292808
 20
220.0000000000001
 10
569.2545025292814
 20
225.0
 97
        0
 75
     0
 76
     1
 52
0.0
 41
0.5
 77
     0
 78
     2
 53
45.0
 43
2308.957358258751
 44
-310.0000000000004
 45
-1.122532015133643
 46
1.122532015133644
 79
     0
 53
135.0
 43
2308.957358258751
 44
-310.0000000000004
 45
-1.122532015133644
 46
-1.122532015133643
 79
     0
 47
0.1100430533196564
 98
        1
 10
549.4133374058438
 20
223.4293658987218
1001
ACAD
1010
0.0
1020
0.0
1030
0.0
  0
LWPOLYLINE
  5
2B38
330
2
100
AcDbEntity
  8
mechanical
  6
Continuous
100
AcDbPolyline
 90
        2
 70
   128
 43
2.0
 10
0.0
 20
1.0
 10
2.0
 20
1.0
  0
LWPOLYLINE
  5
2B65
330
2
100
AcDbEntity
  8
mechanical
  6
Continuous
100
AcDbPolyline
 90
        2
 70
   128
 43
2.0
 10
100.0
 20
1.0
 10
102.0
 20
1.0
  0
LWPOLYLINE
  5
2B66
330
2
100
AcDbEntity
  8
mechanical
  6
Continuous
100
AcDbPolyline
 90
        2
 70
   128
 43
2.0
 10
200.0
 20
1.0
 10
202.0
 20
1.0
  0
LWPOLYLINE
  5
2B67
330
2
100
AcDbEntity
  8
mechanical
  6
Continuous
100
AcDbPolyline
 90
        2
 70
   128
 43
2.0
 10
300.0
 20
1.0
 10
302.0
 20
1.0
  0
LWPOLYLINE
  5
2B68
330
2
100
AcDbEntity
  8
mechanical
  6
Continuous
100
AcDbPolyline
 90
        2
 70
   128
 43
2.0
 10
400.0
 20
1.0
 10
402.0
 20
1.0
  0
LWPOLYLINE
  5
2B69
330
2
100
AcDbEntity
  8
mechanical
  6
Continuous
100
AcDbPolyline
 90
        2
 70
   128
 43
2.0
 10
500.0
 20
1.0
 10
502.0
 20
1.0
  0
LWPOLYLINE
  5
2B6A
330
2
100
AcDbEntity
  8
mechanical
  6
Continuous
100
AcDbPolyline
 90
        2
 70
   128
 43
2.0
 10
600.0
 20
1.0
 10
602.0
 20
1.0
  0
LWPOLYLINE
  5
2B6B
330
2
100
AcDbEntity
  8
mechanical
  6
Continuous
100
AcDbPolyline
 90
        2
 70
   128
 43
2.0
 10
700.0
 20
1.0
 10
702.0
 20
1.0
  0
LWPOLYLINE
  5
2B6C
330
2
100
AcDbEntity
  8
mechanical
  6
Continuous
100
AcDbPolyline
 90
        2
 70
   128
 43
2.0
 10
800.0
 20
1.0
 10
802.0
 20
1.0
  0
LWPOLYLINE
  5
2B6D
330
2
100
AcDbEntity
  8
mechanical
  6
Continuous
100
AcDbPolyline
 90
        2
 70
   128
 43
2.0
 10
900.0
 20
1.0
 10
902.0
 20
1.0
  0
LWPOLYLINE
  5
2B6E
330
2
100
AcDbEntity
  8
mechanical
  6
Continuous
100
AcDbPolyline
 90
        2
 70
   128
 43
2.0
 10
1000.0
 20
1.0
 10
1002.0
 20
1.0
  0
LWPOLYLINE
  5
2B6F
330
2
100
AcDbEntity
  8
mechanical
  6
Continuous
100
AcDbPolyline
 90
        2
 70
   128
 43
2.0
 10
1097.257592481358
 20
1.0
 10
1099.257592481358
 20
1.0
  0
LWPOLYLINE
  5
2BAB
330
2
100
AcDbEntity
  8
mechanical
  6
Continuous
100
AcDbPolyline
 90
        2
 70
   128
 43
2.0
 10
0.0
 20
237.0
 10
2.0
 20
237.0
  0
LWPOLYLINE
  5
2BAC
330
2
100
AcDbEntity
  8
mechanical
  6
Continuous
100
AcDbPolyline
 90
        2
 70
   128
 43
2.0
 10
100.0
 20
237.0
 10
102.0
 20
237.0
  0
LWPOLYLINE
  5
2BAD
330
2
100
AcDbEntity
  8
mechanical
  6
Continuous
100
AcDbPolyline
 90
        2
 70
   128
 43
2.0
 10
200.0
 20
237.0
 10
202.0
 20
237.0
  0
LWPOLYLINE
  5
2BAE
330
2
100
AcDbEntity
  8
mechanical
  6
Continuous
100
AcDbPolyline
 90
        2
 70
   128
 43
2.0
 10
300.0
 20
237.0
 10
302.0
 20
237.0
  0
LWPOLYLINE
  5
2BAF
330
2
100
AcDbEntity
  8
mechanical
  6
Continuous
100
AcDbPolyline
 90
        2
 70
   128
 43
2.0
 10
400.0
 20
237.0
 10
402.0
 20
237.0
  0
LWPOLYLINE
  5
2BB0
330
2
100
AcDbEntity
  8
mechanical
  6
Continuous
100
AcDbPolyline
 90
        2
 70
   128
 43
2.0
 10
500.0
 20
237.0
 10
502.0
 20
237.0
  0
LWPOLYLINE
  5
2BB1
330
2
100
AcDbEntity
  8
mechanical
  6
Continuous
100
AcDbPolyline
 90
        2
 70
   128
 43
2.0
 10
600.0
 20
237.0
 10
602.0
 20
237.0
  0
LWPOLYLINE
  5
2BB2
330
2
100
AcDbEntity
  8
mechanical
  6
Continuous
100
AcDbPolyline
 90
        2
 70
   128
 43
2.0
 10
700.0
 20
237.0
 10
702.0
 20
237.0
  0
LWPOLYLINE
  5
2BB3
330
2
100
AcDbEntity
  8
mechanical
  6
Continuous
100
AcDbPolyline
 90
        2
 70
   128
 43
2.0
 10
800.0
 20
237.0
 10
802.0
 20
237.0
  0
LWPOLYLINE
  5
2BB4
330
2
100
AcDbEntity
  8
mechanical
  6
Continuous
100
AcDbPolyline
 90
        2
 70
   128
 43
2.0
 10
900.0
 20
237.0
 10
902.0
 20
237.0
  0
LWPOLYLINE
  5
2BB5
330
2
100
AcDbEntity
  8
mechanical
  6
Continuous
100
AcDbPolyline
 90
        2
 70
   128
 43
2.0
 10
1000.0
 20
237.0
 10
1002.0
 20
237.0
  0
LWPOLYLINE
  5
2BB6
330
2
100
AcDbEntity
  8
mechanical
  6
Continuous
100
AcDbPolyline
 90
        2
 70
   128
 43
2.0
 10
1097.257592481358
 20
237.0
 10
1099.257592481358
 20
237.0
  0
TEXT
  5
2BB8
330
2
100
AcDbEntity
  8
mechanical
  6
Continuous
100
AcDbText
 10
506.5637104141406
 20
46.83994656320566
 30
0.0
 40
10.0
  1
CP INNER
100
AcDbText
  0
TEXT
  5
2BB9
330
2
100
AcDbEntity
  8
mechanical
  6
Continuous
100
AcDbText
 10
506.5637104141406
 20
30.17327989653901
 30
0.0
 40
10.0
  1
ATLICE-0001
100
AcDbText
  0
VIEWPORT
  5
17F
102
{ACAD_XDICTIONARY
360
2C2C
102
}
330
148
100
AcDbEntity
 67
     1
  8
0
  6
Continuous
100
AcDbViewport
 10
539.4629528462933
 20
436.6083350012517
 30
0.0
 40
1387.054359180414
 41
867.4927515749562
 68
     1
 69
     1
 12
539.4629528462933
 22
436.6083350012517
 13
0.0
 23
0.0
 14
10.0
 24
10.0
 15
10.0
 25
10.0
 16
0.0
 26
0.0
 36
1.0
 17
0.0
 27
0.0
 37
0.0
 42
50.0
 43
0.0
 44
0.0
 45
867.4927515749562
 50
0.0
 51
0.0
 72
   100
 90
    32800
  1

281
     0
 71
     1
 74
     0
110
0.0
120
0.0
130
0.0
111
1.0
121
0.0
131
0.0
112
0.0
122
1.0
132
0.0
 79
     0
146
0.0
1001
GENIUS_GENSCREG_15
1000
PF
1040
1.0
1000
DF
1040
1.0
1000
MIN
1011
-154.0642267439139
1021
2.861959213773616
1031
0.0
1000
MAX
1011
1232.9901324365
1021
870.3547107887297
1031
0.0
1000
FLAGS
1070
     4
1001
GENIUS_GENODEF_13
1002
{
1000
HIER
1070
     0
1002
}
1002
{
1000
MANEDIT
1070
     0
1002
}
1002
{
1000
NOSEL
1070
     0
1002
}
1002
{
1000
BEHIND
1070
     0
1002
}
1002
{
1000
OTHER
1070
     0
1002
}
1002
{
1000
REACTOR
1002
}
1001
GENIUS_GENOBJ-N-SDF_13
1002
{
1000
OWNER
1000
GEN
1002
}
  0
VIEWPORT
  5
181
102
{ACAD_XDICTIONARY
360
2C2E
102
}
330
148
100
AcDbEntity
 67
     1
  8
0
  6
Continuous
100
AcDbViewport
 10
573.7436809539794
 20
392.7263202667236
 30
0.0
 40
917.9898895263672
 41
628.3621124267579
 68
     2
 69
     2
 12
454.7134502953538
 22
167.0708391774632
 13
0.0
 23
0.0
 14
1.0
 24
1.0
 15
0.0
 25
0.0
 16
0.0
 26
0.0
 36
1.0
 17
0.0
 27
0.0
 37
0.0
 42
50.0
 43
0.0
 44
0.0
 45
558.6397812350369
 50
0.0
 51
0.0
 72
   100
 90
    32800
  1

281
     0
 71
     1
 74
     0
110
0.0
120
0.0
130
0.0
111
1.0
121
0.0
131
0.0
112
0.0
122
1.0
132
0.0
 79
     1
146
0.0
1001
GENIUS_GENSCREG_15
1000
PF
1040
0.0
1000
DF
1040
0.0
1000
MIN
1011
114.7487361907958
1021
78.54526405334468
1031
0.0
1000
MAX
1011
1032.738625717163
1021
706.9073764801025
1031
0.0
1000
FLAGS
1070
     4
1001
GENIUS_GENODEF_13
1002
{
1000
HIER
1070
     0
1002
}
1002
{
1000
MANEDIT
1070
     0
1002
}
1002
{
1000
NOSEL
1070
     0
1002
}
1002
{
1000
BEHIND
1070
     0
1002
}
1002
{
1000
OTHER
1070
     0
1002
}
1002
{
1000
REACTOR
1002
}
1001
GENIUS_GENOBJ-N-SDF_13
1002
{
1000
OWNER
1000
GEN
1002
}
  0
ENDSEC
  0
SECTION
  2
OBJECTS
  0
DICTIONARY
  5
9
330
0
100
AcDbDictionary
281
     1
  3
ACAD_COLOR
350
162
  3
ACAD_GROUP
350
15E
  3
ACAD_LAYOUT
350
147
  3
ACAD_MATERIAL
350
161
  3
ACAD_MLEADERSTYLE
350
170E
  3
ACAD_MLINESTYLE
350
15F
  3
ACAD_PLOTSETTINGS
350
160
  3
ACAD_PLOTSTYLENAME
350
8
  3
ACAD_SCALELIST
350
16EC
  3
ACAD_TABLESTYLE
350
16EA
  3
ACAD_VISUALSTYLE
350
16D9
  3
ACDB_RECOMPOSE_DATA
350
1926
  3
AcDbVariableDictionary
350
16B
  3
AcmDictionary
350
17D5
  3
AMG
350
1714
  3
AMGSNAPSETTINGS
350
1835
  3
ASE_INDEX_DICTIONARY
350
6DB
  3
DWGPROPS
350
2C27
  3
MAPISURF_MODULE
350
17A1
  0
DICTIONARY
  5
1852
330
14E
100
AcDbDictionary
280
     1
281
     1
  3
ACAD_LAYERFILTERS
360
1854
  3
ACLYDICTIONARY
360
1853
  0
DICTIONARY
  5
181E
330
6
100
AcDbDictionary
280
     1
281
     1
  3
ADSK_XREC_LAYER_RECONCILED
360
181F
  0
DICTIONARY
  5
1820
330
C
100
AcDbDictionary
280
     1
281
     1
  3
ADSK_XREC_LAYER_RECONCILED
360
1821
  0
DICTIONARY
  5
1822
330
174
100
AcDbDictionary
280
     1
281
     1
  3
ADSK_XREC_LAYER_RECONCILED
360
1823
  0
DICTIONARY
  5
1824
330
794
100
AcDbDictionary
280
     1
281
     1
  3
ADSK_XREC_LAYER_RECONCILED
360
1825
  0
DICTIONARY
  5
3
330
2
100
AcDbDictionary
280
     1
281
     1
  3
ACAD_INDEX
360
2BCC
  3
ACAD_LAYOUTSELFREF
360
4
  3
ACAD_SORTENTS
360
1846
  0
DICTIONARY
  5
149
330
148
100
AcDbDictionary
280
     1
281
     1
  3
ACAD_LAYOUTSELFREF
360
14A
  0
DICTIONARY
  5
2C2C
330
17F
100
AcDbDictionary
280
     1
281
     1
  3
ACAD_XREC_ROUNDTRIP
360
2C2D
  0
DICTIONARY
  5
2C2E
330
181
100
AcDbDictionary
280
     1
281
     1
  3
ACAD_XREC_ROUNDTRIP
360
2C2F
  0
DICTIONARY
  5
162
102
{ACAD_REACTORS
330
9
102
}
330
9
100
AcDbDictionary
281
     1
  0
DICTIONARY
  5
15E
102
{ACAD_REACTORS
330
9
102
}
330
9
100
AcDbDictionary
281
     1
  0
DICTIONARY
  5
147
102
{ACAD_REACTORS
330
9
102
}
330
9
100
AcDbDictionary
281
     1
  3
Layout1
350
14D
  3
Model
350
146
  0
DICTIONARY
  5
161
102
{ACAD_REACTORS
330
9
102
}
330
9
100
AcDbDictionary
281
     1
  3
ByBlock
350
16C9
  3
ByLayer
350
16C1
  3
Global
350
16D1
  0
DICTIONARY
  5
170E
102
{ACAD_REACTORS
330
9
102
}
330
9
100
AcDbDictionary
281
     1
  3
Standard
350
170F
  0
DICTIONARY
  5
15F
102
{ACAD_REACTORS
330
9
102
}
330
9
100
AcDbDictionary
281
     1
  3
STANDARD
350
163
  0
DICTIONARY
  5
160
102
{ACAD_REACTORS
330
9
102
}
330
9
100
AcDbDictionary
281
     1
  0
ACDBDICTIONARYWDFLT
  5
8
102
{ACAD_REACTORS
330
9
102
}
330
9
100
AcDbDictionary
281
     1
  3
Normal
350
7
100
AcDbDictionaryWithDefault
340
7
  0
DICTIONARY
  5
16EC
102
{ACAD_REACTORS
330
9
102
}
330
9
100
AcDbDictionary
281
     1
  3
A0
350
16ED
  3
A1
350
16EE
  3
A2
350
16EF
  3
A3
350
16F0
  3
A4
350
16F1
  3
A5
350
16F2
  3
A6
350
16F3
  3
A7
350
16F4
  3
A8
350
16F5
  3
A9
350
16F6
  3
B0
350
16F7
  3
B1
350
16F8
  3
B2
350
16F9
  3
B3
350
16FA
  3
B4
350
16FB
  3
B5
350
16FC
  3
B6
350
16FD
  3
B7
350
16FE
  3
B8
350
16FF
  3
B9
350
1700
  3
C0
350
1701
  3
C1
350
1702
  3
C2
350
1703
  3
C3
350
1704
  3
C4
350
1705
  3
C5
350
1706
  3
C6
350
1707
  3
C7
350
1708
  3
C8
350
1709
  3
C9
350
170A
  3
D0
350
170B
  3
D1
350
170C
  3
D2
350
170D
  0
DICTIONARY
  5
16EA
102
{ACAD_REACTORS
330
9
102
}
330
9
100
AcDbDictionary
281
     1
  3
Standard
350
16EB
  0
DICTIONARY
  5
16D9
102
{ACAD_REACTORS
330
9
102
}
330
9
100
AcDbDictionary
281
     1
  3
2dWireframe
350
16DF
  3
3D Hidden
350
16E1
  3
3dWireframe
350
16E0
  3
Basic
350
16DE
  3
Brighten
350
16E5
  3
ColorChange
350
16E9
  3
Conceptual
350
16E2
  3
Dim
350
16E4
  3
Facepattern
350
16E8
  3
Flat
350
16DA
  3
FlatWithEdges
350
16DB
  3
Gouraud
350
16DC
  3
GouraudWithEdges
350
16DD
  3
Linepattern
350
16E7
  3
Realistic
350
16E3
  3
Thicken
350
16E6
  0
XRECORD
  5
1926
102
{ACAD_REACTORS
330
9
102
}
330
9
100
AcDbXrecord
280
     1
 90
        1
330
16EB
  0
DICTIONARY
  5
16B
102
{ACAD_REACTORS
330
9
102
}
330
9
100
AcDbDictionary
281
     1
  3
CANNOSCALE
350
192A
  3
CMLEADERSTYLE
350
1928
  3
CTABLESTYLE
350
1927
  3
DIMASSOC
350
16D
  3
HIDETEXT
350
16C
  3
INDEXCTL
350
2C25
  3
LIGHTINGUNITS
350
192B
  3
MSLTSCALE
350
1929
  3
PROJECTNAME
350
16E
  3
SORTENTS
350
7B5
  0
DICTIONARY
  5
17D5
102
{ACAD_REACTORS
330
9
102
}
330
9
100
AcDbDictionary
281
     1
  3
AcmStdDictionary
350
17E5
  3
AMDTSECTSYM_ARROWCOLOR
350
1805
  0
DICTIONARY
  5
1714
102
{ACAD_REACTORS
330
9
102
}
330
9
100
AcDbDictionary
281
     1
  3
AcMgSettings
350
1715
  0
DICTIONARY
  5
1835
102
{ACAD_REACTORS
330
9
102
}
330
9
100
AcDbDictionary
281
     1
  3
DIMENSION
350
183A
  3
FEA
350
1839
  3
HATCH (1)
350
1836
  3
HATCH (2)
350
1837
  3
SIMPLE WELD
350
183B
  3
SYMBOLS
350
1838
  0
DICTIONARY
  5
6DB
102
{ACAD_REACTORS
330
9
102
}
330
9
100
AcDbDictionary
281
     1
  3
ASEBlockHierarchyIndexRecord
350
6DC
1001
DCO15
1040
1546756179.546
  0
XRECORD
  5
2C27
102
{ACAD_REACTORS
330
9
102
}
330
9
100
AcDbXrecord
280
     1
  1
DWGPROPS COOKIE
  2

  3

  4

  6

  7

  8
eglangusj
  9

300
AmdtFileType=84
301
=
302
=
303
=
304
=
305
=
306
=
307
=
308
=
309
=
 40
1.025018831018518
 41
2311946.475710706
 42
2454389.677284364
  1

 90
        1
  0
DICTIONARY
  5
1854
102
{ACAD_REACTORS
330
1852
102
}
330
1852
100
AcDbDictionary
281
     1
  0
DICTIONARY
  5
1853
102
{ACAD_REACTORS
330
1852
102
}
330
1852
100
AcDbDictionary
281
     1
1001
ACAD
1000
<All
  0
XRECORD
  5
181F
102
{ACAD_REACTORS
330
181E
102
}
330
181E
100
AcDbXrecord
280
     1
290
     1
  0
XRECORD
  5
1821
102
{ACAD_REACTORS
330
1820
102
}
330
1820
100
AcDbXrecord
280
     1
290
     1
  0
XRECORD
  5
1823
102
{ACAD_REACTORS
330
1822
102
}
330
1822
100
AcDbXrecord
280
     1
290
     1
  0
XRECORD
  5
1825
102
{ACAD_REACTORS
330
1824
102
}
330
1824
100
AcDbXrecord
280
     1
290
     1
  0
DICTIONARY
  5
2BCC
102
{ACAD_REACTORS
330
3
102
}
330
3
100
AcDbDictionary
281
     1
  3
*A1
350
2BCD
  0
XRECORD
  5
4
102
{ACAD_REACTORS
330
3
102
}
330
3
100
AcDbXrecord
280
     1
340
2
  0
SORTENTSTABLE
  5
1846
102
{ACAD_REACTORS
330
3
102
}
330
3
100
AcDbSortentsTable
330
2
331
1FE4
  5
28B3
331
1A4E
  5
1FF3
331
1FE5
  5
28B4
331
1A4F
  5
1FF4
331
1FE6
  5
28B6
331
1A50
  5
2074
331
1A51
  5
22E4
331
1A52
  5
2713
331
1A53
  5
286C
331
1A56
  5
287C
331
1A57
  5
2886
331
2A38
  5
2A48
331
2A58
  5
2A58
331
2A39
  5
2A47
331
2A59
  5
2A59
331
2A5A
  5
2A5A
331
2635
  5
2A2E
331
2795
  5
28BA
331
2A5B
  5
2A5B
331
2636
  5
2A2F
331
2A5C
  5
2A5C
331
2637
  5
2A30
331
2638
  5
2A31
331
2A5D
  5
2A5D
331
2639
  5
2A35
331
2A5E
  5
2A5E
331
263A
  5
2A37
331
2A5F
  5
2A5F
331
2A60
  5
2A60
331
263B
  5
2A38
331
2A61
  5
2A61
331
28CB
  5
28BE
331
263C
  5
2A39
331
2A62
  5
2A62
331
263D
  5
2A3B
331
2A43
  5
1FED
331
2A44
  5
1FF0
331
2A45
  5
1FE6
331
2640
  5
2A3D
331
2A46
  5
1FE5
331
2641
  5
2A3E
331
2A47
  5
1C4F
331
2642
  5
2A3F
331
2A48
  5
1FE4
331
2643
  5
2A40
331
2A49
  5
1E1F
331
2644
  5
2A41
331
2A4A
  5
1FEF
331
2A71
  5
2A73
331
2645
  5
2A42
331
2A4B
  5
2A4B
331
2646
  5
2A43
331
2A4C
  5
2A4C
331
2A2E
  5
28C2
331
2647
  5
2A44
331
2A4D
  5
2A4D
331
2A4E
  5
2A4E
331
2648
  5
2A45
331
2A2F
  5
289C
331
2A4F
  5
2A4F
331
2A30
  5
2A46
331
2A50
  5
2A50
331
2A77
  5
2A72
331
2A31
  5
2A3C
331
2A51
  5
2A51
331
2A32
  5
2963
331
2A52
  5
2A52
331
2A33
  5
29E0
331
2A34
  5
2A2D
331
2A53
  5
2A53
331
2A35
  5
29EB
331
2A54
  5
2A54
331
2A36
  5
2A49
331
2A55
  5
2A55
331
1A58
  5
2896
331
2A37
  5
2A4A
331
2A56
  5
2A56
331
2A57
  5
2A57
331
1DC1
  5
289E
331
1DC2
  5
28A1
331
1DC3
  5
28A5
331
1DC4
  5
28A9
331
1DC5
  5
28AD
331
1DC6
  5
28B0
  0
XRECORD
  5
14A
102
{ACAD_REACTORS
330
149
102
}
330
149
100
AcDbXrecord
280
     1
340
148
  0
XRECORD
  5
2C2D
102
{ACAD_REACTORS
330
2C2C
102
}
330
2C2C
100
AcDbXrecord
280
     1
102
SHADEPLOT
 70
     0
  0
XRECORD
  5
2C2F
102
{ACAD_REACTORS
330
2C2E
102
}
330
2C2E
100
AcDbXrecord
280
     1
102
SHADEPLOT
 70
     0
  0
LAYOUT
  5
14D
102
{ACAD_XDICTIONARY
360
2C2A
102
}
102
{ACAD_REACTORS
330
147
102
}
330
147
100
AcDbPlotSettings
  1

  2
\\ris\laserc
  4
A4
  6

 40
6.805083274841308
 41
5.069413185119628
 42
6.805084228515625
 43
5.027069091796875
 44
209.9733276367187
 45
296.9683227539062
 46
0.0
 47
0.0
 48
0.0
 49
0.0
140
0.0
141
0.0
142
1.0
143
4.0
 70
   688
 72
     1
 73
     1
 74
     5
  7
monochrome.ctb
 75
    18
147
0.25
148
0.0
149
0.0
100
AcDbLayout
  1
Layout1
 70
     0
 71
     1
 10
-20.1082763671875
 20
-27.22033309936524
 11
1167.765014648437
 21
812.6729774475098
 12
0.0
 22
0.0
 32
0.0
 14
114.7487361907958
 24
78.54526405334468
 34
0.0
 15
1032.738625717163
 25
706.9073764801025
 35
0.0
146
0.0
 13
0.0
 23
0.0
 33
0.0
 16
1.0
 26
0.0
 36
0.0
 17
0.0
 27
1.0
 37
0.0
 76
     0
330
148
331
17F
  0
LAYOUT
  5
146
102
{ACAD_XDICTIONARY
360
2C28
102
}
102
{ACAD_REACTORS
330
147
102
}
330
147
100
AcDbPlotSettings
  1

  2
\\ris\laserc
  4
A4
  6

 40
6.805083274841308
 41
5.069413185119628
 42
6.805084228515625
 43
5.027069091796875
 44
209.9733276367187
 45
296.9683227539062
 46
11.4
 47
35.65
 48
36.08173645326978
 49
39.13963998603622
140
251.6490471755318
141
212.6978016188405
142
1.0
143
1.0
 70
 11956
 72
     1
 73
     1
 74
     4
  7
monochrome.ctb
 75
    16
147
1.0
148
-36.08173645326978
149
-39.13963998603622
100
AcDbLayout
  1
Model
 70
     1
 71
     0
 10
0.0
 20
0.0
 11
12.0
 21
9.0
 12
0.0
 22
0.0
 32
0.0
 14
0.0
 24
0.0
 34
0.0
 15
0.0
 25
0.0
 35
0.0
146
0.0
 13
0.0
 23
0.0
 33
0.0
 16
1.0
 26
0.0
 36
0.0
 17
0.0
 27
1.0
 37
0.0
 76
     0
330
2
331
16BF
  0
MATERIAL
  5
16C9
102
{ACAD_XDICTIONARY
360
16CA
102
}
102
{ACAD_REACTORS
330
161
102
}
330
161
100
AcDbMaterial
  1
ByBlock
 72
     0
 43
0.0208333333333333
 43
0.0
 43
0.0
 43
0.0
 43
0.0
 43
0.0208333333333333
 43
0.0
 43
0.0
 43
0.0
 43
0.0
 43
1.0
 43
0.0
 43
0.0
 43
0.0
 43
0.0
 43
1.0
 77
     0
 47
0.0208333333333333
 47
0.0
 47
0.0
 47
0.0
 47
0.0
 47
0.0208333333333333
 47
0.0
 47
0.0
 47
0.0
 47
0.0
 47
1.0
 47
0.0
 47
0.0
 47
0.0
 47
0.0
 47
1.0
171
     0
 49
0.0208333333333333
 49
0.0
 49
0.0
 49
0.0
 49
0.0
 49
0.0208333333333333
 49
0.0
 49
0.0
 49
0.0
 49
0.0
 49
1.0
 49
0.0
 49
0.0
 49
0.0
 49
0.0
 49
1.0
175
     0
142
0.0208333333333333
142
0.0
142
0.0
142
0.0
142
0.0
142
0.0208333333333333
142
0.0
142
0.0
142
0.0
142
0.0
142
1.0
142
0.0
142
0.0
142
0.0
142
0.0
142
1.0
179
     0
144
0.0208333333333333
144
0.0
144
0.0
144
0.0
144
0.0
144
0.0208333333333333
144
0.0
144
0.0
144
0.0
144
0.0
144
1.0
144
0.0
144
0.0
144
0.0
144
0.0
144
1.0
147
0.0208333333333333
147
0.0
147
0.0
147
0.0
147
0.0
147
0.0208333333333333
147
0.0
147
0.0
147
0.0
147
0.0
147
1.0
147
0.0
147
0.0
147
0.0
147
0.0
147
1.0
  0
MATERIAL
  5
16C1
102
{ACAD_XDICTIONARY
360
16C2
102
}
102
{ACAD_REACTORS
330
161
102
}
330
161
100
AcDbMaterial
  1
ByLayer
 72
     0
 43
0.0208333333333333
 43
0.0
 43
0.0
 43
0.0
 43
0.0
 43
0.0208333333333333
 43
0.0
 43
0.0
 43
0.0
 43
0.0
 43
1.0
 43
0.0
 43
0.0
 43
0.0
 43
0.0
 43
1.0
 77
     0
 47
0.0208333333333333
 47
0.0
 47
0.0
 47
0.0
 47
0.0
 47
0.0208333333333333
 47
0.0
 47
0.0
 47
0.0
 47
0.0
 47
1.0
 47
0.0
 47
0.0
 47
0.0
 47
0.0
 47
1.0
171
     0
 49
0.0208333333333333
 49
0.0
 49
0.0
 49
0.0
 49
0.0
 49
0.0208333333333333
 49
0.0
 49
0.0
 49
0.0
 49
0.0
 49
1.0
 49
0.0
 49
0.0
 49
0.0
 49
0.0
 49
1.0
175
     0
142
0.0208333333333333
142
0.0
142
0.0
142
0.0
142
0.0
142
0.0208333333333333
142
0.0
142
0.0
142
0.0
142
0.0
142
1.0
142
0.0
142
0.0
142
0.0
142
0.0
142
1.0
179
     0
144
0.0208333333333333
144
0.0
144
0.0
144
0.0
144
0.0
144
0.0208333333333333
144
0.0
144
0.0
144
0.0
144
0.0
144
1.0
144
0.0
144
0.0
144
0.0
144
0.0
144
1.0
147
0.0208333333333333
147
0.0
147
0.0
147
0.0
147
0.0
147
0.0208333333333333
147
0.0
147
0.0
147
0.0
147
0.0
147
1.0
147
0.0
147
0.0
147
0.0
147
0.0
147
1.0
  0
MATERIAL
  5
16D1
102
{ACAD_XDICTIONARY
360
16D2
102
}
102
{ACAD_REACTORS
330
161
102
}
330
161
100
AcDbMaterial
  1
Global
 72
     0
 43
0.0208333333333333
 43
0.0
 43
0.0
 43
0.0
 43
0.0
 43
0.0208333333333333
 43
0.0
 43
0.0
 43
0.0
 43
0.0
 43
1.0
 43
0.0
 43
0.0
 43
0.0
 43
0.0
 43
1.0
 77
     0
 47
0.0208333333333333
 47
0.0
 47
0.0
 47
0.0
 47
0.0
 47
0.0208333333333333
 47
0.0
 47
0.0
 47
0.0
 47
0.0
 47
1.0
 47
0.0
 47
0.0
 47
0.0
 47
0.0
 47
1.0
171
     0
 49
0.0208333333333333
 49
0.0
 49
0.0
 49
0.0
 49
0.0
 49
0.0208333333333333
 49
0.0
 49
0.0
 49
0.0
 49
0.0
 49
1.0
 49
0.0
 49
0.0
 49
0.0
 49
0.0
 49
1.0
175
     0
142
0.0208333333333333
142
0.0
142
0.0
142
0.0
142
0.0
142
0.0208333333333333
142
0.0
142
0.0
142
0.0
142
0.0
142
1.0
142
0.0
142
0.0
142
0.0
142
0.0
142
1.0
179
     0
144
0.0208333333333333
144
0.0
144
0.0
144
0.0
144
0.0
144
0.0208333333333333
144
0.0
144
0.0
144
0.0
144
0.0
144
1.0
144
0.0
144
0.0
144
0.0
144
0.0
144
1.0
147
0.0208333333333333
147
0.0
147
0.0
147
0.0
147
0.0
147
0.0208333333333333
147
0.0
147
0.0
147
0.0
147
0.0
147
1.0
147
0.0
147
0.0
147
0.0
147
0.0
147
1.0
  0
MLEADERSTYLE
  5
170F
102
{ACAD_REACTORS
330
170E
102
}
330
170E
100
AcDbMLeaderStyle
170
     2
171
     1
172
     0
 90
        2
 40
0.0
 41
0.0
173
     1
 91
-1056964608
340
153
 92
       -2
290
     1
 42
2.0
291
     1
 43
0.36
  3
Standard
 44
4.0
300

342
150
174
     1
178
     6
175
     1
176
     0
 93
-1056964608
 45
4.0
292
     0
297
     0
 46
4.0
 94
-1056964608
 47
1.0
 49
1.0
140
1.0
293
     1
141
0.0
294
     1
177
     0
142
1.0
295
     0
296
     0
143
0.125
1001
ACAD_MLEADERVER
1070
     2
  0
MLINESTYLE
  5
163
102
{ACAD_REACTORS
330
15F
102
}
330
15F
100
AcDbMlineStyle
  2
STANDARD
 70
     0
  3

 62
     0
 51
90.0
 52
90.0
 71
     2
 49
0.5
 62
   256
  6
BYLAYER
 49
-0.5
 62
   256
  6
BYLAYER
  0
ACDBPLACEHOLDER
  5
7
102
{ACAD_REACTORS
330
8
102
}
330
8
  0
SCALE
  5
16ED
102
{ACAD_REACTORS
330
16EC
102
}
330
16EC
100
AcDbScale
 70
     0
300
1:1
140
1.0
141
1.0
290
     1
  0
SCALE
  5
16EE
102
{ACAD_REACTORS
330
16EC
102
}
330
16EC
100
AcDbScale
 70
     0
300
1:2
140
1.0
141
2.0
290
     0
  0
SCALE
  5
16EF
102
{ACAD_REACTORS
330
16EC
102
}
330
16EC
100
AcDbScale
 70
     0
300
1:4
140
1.0
141
4.0
290
     0
  0
SCALE
  5
16F0
102
{ACAD_REACTORS
330
16EC
102
}
330
16EC
100
AcDbScale
 70
     0
300
1:5
140
1.0
141
5.0
290
     0
  0
SCALE
  5
16F1
102
{ACAD_REACTORS
330
16EC
102
}
330
16EC
100
AcDbScale
 70
     0
300
1:8
140
1.0
141
8.0
290
     0
  0
SCALE
  5
16F2
102
{ACAD_REACTORS
330
16EC
102
}
330
16EC
100
AcDbScale
 70
     0
300
1:10
140
1.0
141
10.0
290
     0
  0
SCALE
  5
16F3
102
{ACAD_REACTORS
330
16EC
102
}
330
16EC
100
AcDbScale
 70
     0
300
1:16
140
1.0
141
16.0
290
     0
  0
SCALE
  5
16F4
102
{ACAD_REACTORS
330
16EC
102
}
330
16EC
100
AcDbScale
 70
     0
300
1:20
140
1.0
141
20.0
290
     0
  0
SCALE
  5
16F5
102
{ACAD_REACTORS
330
16EC
102
}
330
16EC
100
AcDbScale
 70
     0
300
1:30
140
1.0
141
30.0
290
     0
  0
SCALE
  5
16F6
102
{ACAD_REACTORS
330
16EC
102
}
330
16EC
100
AcDbScale
 70
     0
300
1:40
140
1.0
141
40.0
290
     0
  0
SCALE
  5
16F7
102
{ACAD_REACTORS
330
16EC
102
}
330
16EC
100
AcDbScale
 70
     0
300
1:50
140
1.0
141
50.0
290
     0
  0
SCALE
  5
16F8
102
{ACAD_REACTORS
330
16EC
102
}
330
16EC
100
AcDbScale
 70
     0
300
1:100
140
1.0
141
100.0
290
     0
  0
SCALE
  5
16F9
102
{ACAD_REACTORS
330
16EC
102
}
330
16EC
100
AcDbScale
 70
     0
300
2:1
140
2.0
141
1.0
290
     0
  0
SCALE
  5
16FA
102
{ACAD_REACTORS
330
16EC
102
}
330
16EC
100
AcDbScale
 70
     0
300
4:1
140
4.0
141
1.0
290
     0
  0
SCALE
  5
16FB
102
{ACAD_REACTORS
330
16EC
102
}
330
16EC
100
AcDbScale
 70
     0
300
8:1
140
8.0
141
1.0
290
     0
  0
SCALE
  5
16FC
102
{ACAD_REACTORS
330
16EC
102
}
330
16EC
100
AcDbScale
 70
     0
300
10:1
140
10.0
141
1.0
290
     0
  0
SCALE
  5
16FD
102
{ACAD_REACTORS
330
16EC
102
}
330
16EC
100
AcDbScale
 70
     0
300
100:1
140
100.0
141
1.0
290
     0
  0
SCALE
  5
16FE
102
{ACAD_REACTORS
330
16EC
102
}
330
16EC
100
AcDbScale
 70
     0
300
1/128" = 1'-0"
140
0.0078125
141
12.0
290
     0
  0
SCALE
  5
16FF
102
{ACAD_REACTORS
330
16EC
102
}
330
16EC
100
AcDbScale
 70
     0
300
1/64" = 1'-0"
140
0.015625
141
12.0
290
     0
  0
SCALE
  5
1700
102
{ACAD_REACTORS
330
16EC
102
}
330
16EC
100
AcDbScale
 70
     0
300
1/32" = 1'-0"
140
0.03125
141
12.0
290
     0
  0
SCALE
  5
1701
102
{ACAD_REACTORS
330
16EC
102
}
330
16EC
100
AcDbScale
 70
     0
300
1/16" = 1'-0"
140
0.0625
141
12.0
290
     0
  0
SCALE
  5
1702
102
{ACAD_REACTORS
330
16EC
102
}
330
16EC
100
AcDbScale
 70
     0
300
3/32" = 1'-0"
140
0.09375
141
12.0
290
     0
  0
SCALE
  5
1703
102
{ACAD_REACTORS
330
16EC
102
}
330
16EC
100
AcDbScale
 70
     0
300
1/8" = 1'-0"
140
0.125
141
12.0
290
     0
  0
SCALE
  5
1704
102
{ACAD_REACTORS
330
16EC
102
}
330
16EC
100
AcDbScale
 70
     0
300
3/16" = 1'-0"
140
0.1875
141
12.0
290
     0
  0
SCALE
  5
1705
102
{ACAD_REACTORS
330
16EC
102
}
330
16EC
100
AcDbScale
 70
     0
300
1/4" = 1'-0"
140
0.25
141
12.0
290
     0
  0
SCALE
  5
1706
102
{ACAD_REACTORS
330
16EC
102
}
330
16EC
100
AcDbScale
 70
     0
300
3/8" = 1'-0"
140
0.375
141
12.0
290
     0
  0
SCALE
  5
1707
102
{ACAD_REACTORS
330
16EC
102
}
330
16EC
100
AcDbScale
 70
     0
300
1/2" = 1'-0"
140
0.5
141
12.0
290
     0
  0
SCALE
  5
1708
102
{ACAD_REACTORS
330
16EC
102
}
330
16EC
100
AcDbScale
 70
     0
300
3/4" = 1'-0"
140
0.75
141
12.0
290
     0
  0
SCALE
  5
1709
102
{ACAD_REACTORS
330
16EC
102
}
330
16EC
100
AcDbScale
 70
     0
300
1" = 1'-0"
140
1.0
141
12.0
290
     0
  0
SCALE
  5
170A
102
{ACAD_REACTORS
330
16EC
102
}
330
16EC
100
AcDbScale
 70
     0
300
1-1/2" = 1'-0"
140
1.5
141
12.0
290
     0
  0
SCALE
  5
170B
102
{ACAD_REACTORS
330
16EC
102
}
330
16EC
100
AcDbScale
 70
     0
300
3" = 1'-0"
140
3.0
141
12.0
290
     0
  0
SCALE
  5
170C
102
{ACAD_REACTORS
330
16EC
102
}
330
16EC
100
AcDbScale
 70
     0
300
6" = 1'-0"
140
6.0
141
12.0
290
     0
  0
SCALE
  5
170D
102
{ACAD_REACTORS
330
16EC
102
}
330
16EC
100
AcDbScale
 70
     0
300
1'-0" = 1'-0"
140
12.0
141
12.0
290
     0
  0
TABLESTYLE
  5
16EB
102
{ACAD_XDICTIONARY
360
1924
102
}
102
{ACAD_REACTORS
330
16EA
102
}
330
16EA
100
AcDbTableStyle
  3
Standard
 70
     0
 71
     0
 40
1.5
 41
1.5
280
     0
281
     0
  7
STANDARD
140
4.5
170
     2
 62
     0
 63
     7
283
     0
274
    -2
284
     1
 64
     0
275
    -2
285
     1
 65
     0
276
    -2
286
     1
 66
     0
277
    -2
287
     1
 67
     0
278
    -2
288
     1
 68
     0
279
    -2
289
     1
 69
     0
  7
STANDARD
140
6.0
170
     5
 62
     0
 63
     7
283
     0
274
    -2
284
     1
 64
     0
275
    -2
285
     1
 65
     0
276
    -2
286
     1
 66
     0
277
    -2
287
     1
 67
     0
278
    -2
288
     1
 68
     0
279
    -2
289
     1
 69
     0
  7
STANDARD
140
4.5
170
     5
 62
     0
 63
     7
283
     0
274
    -2
284
     1
 64
     0
275
    -2
285
     1
 65
     0
276
    -2
286
     1
 66
     0
277
    -2
287
     1
 67
     0
278
    -2
288
     1
 68
     0
279
    -2
289
     1
 69
     0
  0
VISUALSTYLE
  5
16DF
102
{ACAD_REACTORS
330
16D9
102
}
330
16D9
100
AcDbVisualStyle
  2
2dWireframe
 70
     4
 71
     0
 72
     2
 73
     0
 90
        0
 40
-0.6
 41
-30.0
 62
     5
 63
     7
 74
     1
 91
        4
 64
     7
 65
   257
 75
     1
175
     1
 42
1.0
 92
        0
 66
   257
 43
1.0
 76
     1
 77
     6
 78
     2
 67
     7
 79
     5
170
     0
171
     0
290
     0
174
     0
 93
        1
 44
0.0
173
     0
291
     0
 45
0.0
1001
ACAD
1000
AcDbSavedByObjectVersion
1070
     0
  0
VISUALSTYLE
  5
16E1
102
{ACAD_REACTORS
330
16D9
102
}
330
16D9
100
AcDbVisualStyle
  2
3D Hidden
 70
     6
 71
     1
 72
     2
 73
     2
 90
        0
 40
-0.6
 41
-30.0
 62
     5
 63
     7
 74
     2
 91
        2
 64
     7
 65
   257
 75
     2
175
     1
 42
40.0
 92
        0
 66
   257
 43
1.0
 76
     1
 77
     6
 78
     2
 67
     7
 79
     3
170
     0
171
     0
290
     0
174
     0
 93
        1
 44
0.0
173
     0
291
     0
 45
0.0
1001
ACAD
1000
AcDbSavedByObjectVersion
1070
     0
  0
VISUALSTYLE
  5
16E0
102
{ACAD_REACTORS
330
16D9
102
}
330
16D9
100
AcDbVisualStyle
  2
3dWireframe
 70
     5
 71
     0
 72
     2
 73
     0
 90
        0
 40
-0.6
 41
-30.0
 62
     5
 63
     7
 74
     1
 91
        4
 64
     7
 65
   257
 75
     1
175
     1
 42
1.0
 92
        0
 66
   257
 43
1.0
 76
     1
 77
     6
 78
     2
 67
     7
 79
     5
170
     0
171
     0
290
     0
174
     0
 93
        1
 44
0.0
173
     0
291
     0
 45
0.0
1001
ACAD
1000
AcDbSavedByObjectVersion
1070
     0
  0
VISUALSTYLE
  5
16DE
102
{ACAD_REACTORS
330
16D9
102
}
330
16D9
100
AcDbVisualStyle
  2
Basic
 70
     7
 71
     1
 72
     0
 73
     1
 90
        0
 40
-0.6
 41
-30.0
 62
     5
 63
     7
 74
     0
 91
        4
 64
     7
 65
   257
 75
     1
175
     1
 42
1.0
 92
        8
 66
     7
 43
1.0
 76
     1
 77
     6
 78
     2
 67
     7
 79
     5
170
     0
171
     0
290
     0
174
     0
 93
        1
 44
0.0
173
     0
291
     1
 45
0.0
1001
ACAD
1000
AcDbSavedByObjectVersion
1070
     0
  0
VISUALSTYLE
  5
16E5
102
{ACAD_REACTORS
330
16D9
102
}
330
16D9
100
AcDbVisualStyle
  2
Brighten
 70
    12
 71
     2
 72
     2
 73
     0
 90
        0
 40
-0.6
 41
-30.0
 62
     5
 63
     7
 74
     1
 91
        4
 64
     7
 65
   257
 75
     1
175
     1
 42
1.0
 92
        8
 66
     7
 43
1.0
 76
     1
 77
     6
 78
     2
 67
     7
 79
     5
170
     0
171
     0
290
     0
174
     0
 93
        1
 44
50.0
173
     0
291
     1
 45
0.0
1001
ACAD
1000
AcDbSavedByObjectVersion
1070
     0
  0
VISUALSTYLE
  5
16E9
102
{ACAD_REACTORS
330
16D9
102
}
330
16D9
100
AcDbVisualStyle
  2
ColorChange
 70
    16
 71
     2
 72
     2
 73
     3
 90
        0
 40
-0.6
 41
-30.0
 62
     5
 63
     8
 74
     1
 91
        4
 64
     7
 65
   257
 75
     1
175
     1
 42
1.0
 92
        8
 66
     8
 43
1.0
 76
     1
 77
     6
 78
     2
 67
     7
 79
     5
170
     0
171
     0
290
     0
174
     0
 93
        1
 44
0.0
173
     0
291
     1
 45
0.0
1001
ACAD
1000
AcDbSavedByObjectVersion
1070
     0
  0
VISUALSTYLE
  5
16E2
102
{ACAD_REACTORS
330
16D9
102
}
330
16D9
100
AcDbVisualStyle
  2
Conceptual
 70
     9
 71
     3
 72
     2
 73
     0
 90
        0
 40
-0.6
 41
-30.0
 62
     5
 63
     7
 74
     2
 91
        2
 64
     7
 65
   257
 75
     1
175
     1
 42
40.0
 92
        8
 66
     7
 43
1.0
 76
     1
 77
     6
 78
     2
 67
     7
 79
     3
170
     0
171
     0
290
     0
174
     0
 93
        1
 44
0.0
173
     0
291
     0
 45
0.0
1001
ACAD
1000
AcDbSavedByObjectVersion
1070
     0
  0
VISUALSTYLE
  5
16E4
102
{ACAD_REACTORS
330
16D9
102
}
330
16D9
100
AcDbVisualStyle
  2
Dim
 70
    11
 71
     2
 72
     2
 73
     0
 90
        0
 40
-0.6
 41
-30.0
 62
     5
 63
     7
 74
     1
 91
        4
 64
     7
 65
   257
 75
     1
175
     1
 42
1.0
 92
        8
 66
     7
 43
1.0
 76
     1
 77
     6
 78
     2
 67
     7
 79
     5
170
     0
171
     0
290
     0
174
     0
 93
        1
 44
-50.0
173
     0
291
     1
 45
0.0
1001
ACAD
1000
AcDbSavedByObjectVersion
1070
     0
  0
VISUALSTYLE
  5
16E8
102
{ACAD_REACTORS
330
16D9
102
}
330
16D9
100
AcDbVisualStyle
  2
Facepattern
 70
    15
 71
     2
 72
     2
 73
     0
 90
        0
 40
-0.6
 41
-30.0
 62
     5
 63
     7
 74
     1
 91
        4
 64
     7
 65
   257
 75
     1
175
     1
 42
1.0
 92
        8
 66
     7
 43
1.0
 76
     1
 77
     6
 78
     2
 67
     7
 79
     5
170
     0
171
     0
290
     0
174
     0
 93
        1
 44
0.0
173
     0
291
     1
 45
0.0
1001
ACAD
1000
AcDbSavedByObjectVersion
1070
     0
  0
VISUALSTYLE
  5
16DA
102
{ACAD_REACTORS
330
16D9
102
}
330
16D9
100
AcDbVisualStyle
  2
Flat
 70
     0
 71
     2
 72
     1
 73
     1
 90
        2
 40
-0.6
 41
30.0
 62
     5
 63
     7
 74
     0
 91
        4
 64
     7
 65
   257
 75
     1
175
     1
 42
1.0
 92
        8
 66
     7
 43
1.0
 76
     1
 77
     6
 78
     2
 67
     7
 79
     5
170
     0
171
     0
290
     0
174
     0
 93
       13
 44
0.0
173
     0
291
     1
 45
0.0
1001
ACAD
1000
AcDbSavedByObjectVersion
1070
     0
  0
VISUALSTYLE
  5
16DB
102
{ACAD_REACTORS
330
16D9
102
}
330
16D9
100
AcDbVisualStyle
  2
FlatWithEdges
 70
     1
 71
     2
 72
     1
 73
     1
 90
        2
 40
-0.6
 41
30.0
 62
     5
 63
     7
 74
     1
 91
        4
 64
     7
 65
   257
 75
     1
175
     1
 42
1.0
 92
        0
 66
   257
 43
1.0
 76
     1
 77
     6
 78
     2
 67
     7
 79
     5
170
     0
171
     0
290
     0
174
     0
 93
       13
 44
0.0
173
     0
291
     1
 45
0.0
1001
ACAD
1000
AcDbSavedByObjectVersion
1070
     0
  0
VISUALSTYLE
  5
16DC
102
{ACAD_REACTORS
330
16D9
102
}
330
16D9
100
AcDbVisualStyle
  2
Gouraud
 70
     2
 71
     2
 72
     2
 73
     1
 90
        2
 40
-0.6
 41
30.0
 62
     5
 63
     7
 74
     0
 91
        4
 64
     7
 65
   257
 75
     1
175
     1
 42
1.0
 92
        0
 66
     7
 43
1.0
 76
     1
 77
     6
 78
     2
 67
     7
 79
     5
170
     0
171
     0
290
     0
174
     0
 93
       13
 44
0.0
173
     0
291
     1
 45
0.0
1001
ACAD
1000
AcDbSavedByObjectVersion
1070
     0
  0
VISUALSTYLE
  5
16DD
102
{ACAD_REACTORS
330
16D9
102
}
330
16D9
100
AcDbVisualStyle
  2
GouraudWithEdges
 70
     3
 71
     2
 72
     2
 73
     1
 90
        2
 40
-0.6
 41
30.0
 62
     5
 63
     7
 74
     1
 91
        4
 64
     7
 65
   257
 75
     1
175
     1
 42
1.0
 92
        0
 66
   257
 43
1.0
 76
     1
 77
     6
 78
     2
 67
     7
 79
     5
170
     0
171
     0
290
     0
174
     0
 93
       13
 44
0.0
173
     0
291
     1
 45
0.0
1001
ACAD
1000
AcDbSavedByObjectVersion
1070
     0
  0
VISUALSTYLE
  5
16E7
102
{ACAD_REACTORS
330
16D9
102
}
330
16D9
100
AcDbVisualStyle
  2
Linepattern
 70
    14
 71
     2
 72
     2
 73
     0
 90
        0
 40
-0.6
 41
-30.0
 62
     5
 63
     7
 74
     1
 91
        4
 64
     7
 65
   257
 75
     7
175
     7
 42
1.0
 92
        8
 66
     7
 43
1.0
 76
     1
 77
     6
 78
     2
 67
     7
 79
     5
170
     0
171
     0
290
     0
174
     0
 93
        1
 44
0.0
173
     0
291
     1
 45
0.0
1001
ACAD
1000
AcDbSavedByObjectVersion
1070
     0
  0
VISUALSTYLE
  5
16E3
102
{ACAD_REACTORS
330
16D9
102
}
330
16D9
100
AcDbVisualStyle
  2
Realistic
 70
     8
 71
     2
 72
     2
 73
     0
 90
        0
 40
-0.6
 41
-30.0
 62
     5
 63
     7
 74
     1
 91
        0
 64
     7
 65
   257
 75
     1
175
     1
 42
1.0
 92
        8
 66
     8
 43
1.0
 76
     1
 77
     6
 78
     2
 67
     7
 79
     5
170
     0
171
     0
290
     0
174
     0
 93
       13
 44
0.0
173
     0
291
     0
 45
0.0
1001
ACAD
1000
AcDbSavedByObjectVersion
1070
     0
  0
VISUALSTYLE
  5
16E6
102
{ACAD_REACTORS
330
16D9
102
}
330
16D9
100
AcDbVisualStyle
  2
Thicken
 70
    13
 71
     2
 72
     2
 73
     0
 90
        0
 40
-0.6
 41
-30.0
 62
     5
 63
     7
 74
     1
 91
        4
 64
     7
 65
   257
 75
     1
175
     1
 42
1.0
 92
       12
 66
     7
 43
1.0
 76
     1
 77
     6
 78
     2
 67
     7
 79
     5
170
     0
171
     0
290
     0
174
     0
 93
        1
 44
0.0
173
     0
291
     1
 45
0.0
1001
ACAD
1000
AcDbSavedByObjectVersion
1070
     0
  0
DICTIONARYVAR
  5
192A
102
{ACAD_REACTORS
330
16B
102
}
330
16B
100
DictionaryVariables
280
     0
  1
1:1
  0
DICTIONARYVAR
  5
1928
102
{ACAD_REACTORS
330
16B
102
}
330
16B
100
DictionaryVariables
280
     0
  1
STANDARD
  0
DICTIONARYVAR
  5
1927
102
{ACAD_REACTORS
330
16B
102
}
330
16B
100
DictionaryVariables
280
     0
  1
STANDARD
  0
DICTIONARYVAR
  5
16D
102
{ACAD_REACTORS
330
16B
102
}
330
16B
100
DictionaryVariables
280
     0
  1
1
  0
DICTIONARYVAR
  5
16C
102
{ACAD_REACTORS
330
16B
102
}
330
16B
100
DictionaryVariables
280
     0
  1
1
  0
DICTIONARYVAR
  5
2C25
102
{ACAD_REACTORS
330
16B
102
}
330
16B
100
DictionaryVariables
280
     0
  1
1
  0
DICTIONARYVAR
  5
192B
102
{ACAD_REACTORS
330
16B
102
}
330
16B
100
DictionaryVariables
280
     0
  1
0
  0
DICTIONARYVAR
  5
1929
102
{ACAD_REACTORS
330
16B
102
}
330
16B
100
DictionaryVariables
280
     0
  1
0
  0
DICTIONARYVAR
  5
16E
102
{ACAD_REACTORS
330
16B
102
}
330
16B
100
DictionaryVariables
280
     0
  1

  0
DICTIONARYVAR
  5
7B5
102
{ACAD_REACTORS
330
16B
102
}
330
16B
100
DictionaryVariables
280
     0
  1
96
  0
DICTIONARY
  5
17E5
102
{ACAD_REACTORS
330
17D5
102
}
330
17D5
100
AcDbDictionary
281
     1
  0
XRECORD
  5
1805
102
{ACAD_REACTORS
330
17D5
102
}
330
17D5
100
AcDbXrecord
280
     1
 90
-1023410169
  0
DICTIONARY
  5
1715
102
{ACAD_REACTORS
330
1714
102
}
330
1714
100
AcDbDictionary
281
     1
  3
DWGSETTINGS
350
1716
  3
TRANSSETTINGS
350
171A
  0
ACAMGFILTERDAT
  5
183A
102
{ACAD_REACTORS
330
1835
102
}
330
1835
100
AcAmgFilterDat
 70
    15
  1
DIMENSION,AMDT_*_DIM
  2
*
  3
*
  4
*
  5
*
290
     1
  0
ACAMGFILTERDAT
  5
1839
102
{ACAD_REACTORS
330
1835
102
}
330
1835
100
AcAmgFilterDat
 70
    15
  1
*
  2
AM_FEA-AM_*
  3
*
  4
*
  5
*
290
     1
  0
ACAMGFILTERDAT
  5
1836
102
{ACAD_REACTORS
330
1835
102
}
330
1835
100
AcAmgFilterDat
 70
    15
  1
HATCH
  2
*
  3
*
  4
*
  5
*
290
     1
  0
ACAMGFILTERDAT
  5
1837
102
{ACAD_REACTORS
330
1835
102
}
330
1835
100
AcAmgFilterDat
 70
    15
  1
LINE
  2
8,8N,*-8,*-8N,AM_8,AM_8N,*-AM_8,*-AM_8N
  3
*
  4
*
  5
INSERT,STDPART2D
290
     1
  0
ACAMGFILTERDAT
  5
183B
102
{ACAD_REACTORS
330
1835
102
}
330
1835
100
AcAmgFilterDat
 70
    15
  1
ARC
  2
AM_5
  3
*
  4
2
  5
INSERT
290
     0
  0
ACAMGFILTERDAT
  5
1838
102
{ACAD_REACTORS
330
1835
102
}
330
1835
100
AcAmgFilterDat
 70
    15
  1
ACMFCFRAME,ACMDATUMTARGET,ACMDATUMID,ACMWELDSYM,ACMSURFSYM,ACMFEATID,ACMPARTREF,ACMBALLOON,AMDTEDGESYM,AMGSCREWCALCTABLE
  2
*
  3
*
  4
*
  5
*
290
     1
  0
XRECORD
  5
6DC
102
{ACAD_REACTORS
330
6DB
102
}
330
6DB
100
AcDbXrecord
280
     1
  0
LAYER_INDEX
  5
2BCD
102
{ACAD_REACTORS
330
2BCC
102
}
330
2BCC
100
AcDbIndex
 40
2454389.677284364
100
AcDbLayerIndex
  8
0
360
2BCE
 90
        0
  8
mechanical
360
2BCF
 90
       42
  8
copper
360
2BD0
 90
       50
  8
Defpoints
360
2BD1
 90
        0
  8
kapton
360
2BD2
 90
       18
  8
AM_5
360
2C02
 90
        0
  0
DICTIONARY
  5
2C2A
330
14D
100
AcDbDictionary
280
     1
281
     1
  3
ACAD_XREC_ROUNDTRIP
360
2C2B
  0
DICTIONARY
  5
2C28
330
146
100
AcDbDictionary
280
     1
281
     1
  3
ACAD_XREC_ROUNDTRIP
360
2C29
  0
DICTIONARY
  5
16CA
330
16C9
100
AcDbDictionary
280
     1
281
     1
  3
ACAD_XREC_ROUNDTRIP
360
2C31
  3
BUMPTILE
360
16CC
  3
DIFFUSETILE
360
16CB
  3
OPACITYTILE
360
16CF
  3
REFLECTIONTILE
360
16CE
  3
REFRACTIONTILE
360
16D0
  3
SPECULARTILE
360
16CD
  0
DICTIONARY
  5
16C2
330
16C1
100
AcDbDictionary
280
     1
281
     1
  3
ACAD_XREC_ROUNDTRIP
360
2C30
  3
BUMPTILE
360
16C4
  3
DIFFUSETILE
360
16C3
  3
OPACITYTILE
360
16C7
  3
REFLECTIONTILE
360
16C6
  3
REFRACTIONTILE
360
16C8
  3
SPECULARTILE
360
16C5
  0
DICTIONARY
  5
16D2
330
16D1
100
AcDbDictionary
280
     1
281
     1
  3
ACAD_XREC_ROUNDTRIP
360
2C32
  3
BUMPTILE
360
16D4
  3
DIFFUSETILE
360
16D3
  3
OPACITYTILE
360
16D7
  3
REFLECTIONTILE
360
16D6
  3
REFRACTIONTILE
360
16D8
  3
SPECULARTILE
360
16D5
  0
DICTIONARY
  5
1924
330
16EB
100
AcDbDictionary
280
     1
281
     1
  3
ACAD_ROUNDTRIP_2008_TABLESTYLE_CELLSTYLEMAP
360
2C26
  3
ACAD_XREC_ROUNDTRIP
360
2C33
  0
IDBUFFER
  5
2BCE
330
0
100
AcDbIdBuffer
  0
IDBUFFER
  5
2BCF
330
0
100
AcDbIdBuffer
330
2A43
330
2A44
330
2A45
330
2A46
330
2A47
330
2A48
330
2A49
330
2A4A
330
2A4B
330
2A4C
330
2A4D
330
2A4E
330
2A4F
330
2A50
330
2A51
330
2A52
330
2B38
330
2B65
330
2B66
330
2B67
330
2B68
330
2B69
330
2B6A
330
2B6B
330
2B6C
330
2B6D
330
2B6E
330
2B6F
330
2BAB
330
2BAC
330
2BAD
330
2BAE
330
2BAF
330
2BB0
330
2BB1
330
2BB2
330
2BB3
330
2BB4
330
2BB5
330
2BB6
330
2BB8
330
2BB9
  0
IDBUFFER
  5
2BD0
330
0
100
AcDbIdBuffer
330
1A4E
330
1A4F
330
1A50
330
1A51
330
1A52
330
1A53
330
1A56
330
1A57
330
1A58
330
1DC1
330
1DC2
330
1DC3
330
1DC4
330
1DC5
330
1DC6
330
1FE4
330
1FE5
330
1FE6
330
2635
330
2636
330
2637
330
2638
330
2639
330
263A
330
263B
330
263C
330
263D
330
2640
330
2641
330
2642
330
2643
330
2644
330
2645
330
2646
330
2647
330
2648
330
2795
330
28CB
330
2A2E
330
2A2F
330
2A30
330
2A31
330
2A32
330
2A33
330
2A34
330
2A35
330
2A36
330
2A37
330
2A38
330
2A39
  0
IDBUFFER
  5
2BD1
330
0
100
AcDbIdBuffer
  0
IDBUFFER
  5
2BD2
330
0
100
AcDbIdBuffer
330
2A53
330
2A54
330
2A55
330
2A56
330
2A57
330
2A58
330
2A59
330
2A5A
330
2A5B
330
2A5C
330
2A5D
330
2A5E
330
2A5F
330
2A60
330
2A61
330
2A62
330
2A71
330
2A77
  0
IDBUFFER
  5
2C02
330
0
100
AcDbIdBuffer
  0
XRECORD
  5
2C2B
102
{ACAD_REACTORS
330
2C2A
102
}
330
2C2A
100
AcDbXrecord
280
     1
102
SHADEPLOT
 70
     0
102
SHADEPLOTRESLEVEL
 70
     2
102
SHADEPLOTCUSTOMDPI
 70
   300
  0
XRECORD
  5
2C29
102
{ACAD_REACTORS
330
2C28
102
}
330
2C28
100
AcDbXrecord
280
     1
102
SHADEPLOT
 70
     0
102
SHADEPLOTRESLEVEL
 70
     2
102
SHADEPLOTCUSTOMDPI
 70
   300
  0
XRECORD
  5
2C31
102
{ACAD_REACTORS
330
16CA
102
}
330
16CA
100
AcDbXrecord
280
     1
102
MATERIAL
148
0.0
149
0.0
149
0.0
 93
        0
 94
      127
282
     0
 72
     0
 77
     0
171
     0
175
     0
179
     0
273
     0
  0
XRECORD
  5
16CC
102
{ACAD_REACTORS
330
16CA
102
}
330
16CA
100
AcDbXrecord
280
     1
270
     1
271
     1
  0
XRECORD
  5
16CB
102
{ACAD_REACTORS
330
16CA
102
}
330
16CA
100
AcDbXrecord
280
     1
270
     1
271
     1
  0
XRECORD
  5
16CF
102
{ACAD_REACTORS
330
16CA
102
}
330
16CA
100
AcDbXrecord
280
     1
270
     1
271
     1
  0
XRECORD
  5
16CE
102
{ACAD_REACTORS
330
16CA
102
}
330
16CA
100
AcDbXrecord
280
     1
270
     1
271
     1
  0
XRECORD
  5
16D0
102
{ACAD_REACTORS
330
16CA
102
}
330
16CA
100
AcDbXrecord
280
     1
270
     1
271
     1
  0
XRECORD
  5
16CD
102
{ACAD_REACTORS
330
16CA
102
}
330
16CA
100
AcDbXrecord
280
     1
270
     1
271
     1
  0
XRECORD
  5
2C30
102
{ACAD_REACTORS
330
16C2
102
}
330
16C2
100
AcDbXrecord
280
     1
102
MATERIAL
148
0.0
149
0.0
149
0.0
 93
        0
 94
      127
282
     0
 72
     0
 77
     0
171
     0
175
     0
179
     0
273
     0
  0
XRECORD
  5
16C4
102
{ACAD_REACTORS
330
16C2
102
}
330
16C2
100
AcDbXrecord
280
     1
270
     1
271
     1
  0
XRECORD
  5
16C3
102
{ACAD_REACTORS
330
16C2
102
}
330
16C2
100
AcDbXrecord
280
     1
270
     1
271
     1
  0
XRECORD
  5
16C7
102
{ACAD_REACTORS
330
16C2
102
}
330
16C2
100
AcDbXrecord
280
     1
270
     1
271
     1
  0
XRECORD
  5
16C6
102
{ACAD_REACTORS
330
16C2
102
}
330
16C2
100
AcDbXrecord
280
     1
270
     1
271
     1
  0
XRECORD
  5
16C8
102
{ACAD_REACTORS
330
16C2
102
}
330
16C2
100
AcDbXrecord
280
     1
270
     1
271
     1
  0
XRECORD
  5
16C5
102
{ACAD_REACTORS
330
16C2
102
}
330
16C2
100
AcDbXrecord
280
     1
270
     1
271
     1
  0
XRECORD
  5
2C32
102
{ACAD_REACTORS
330
16D2
102
}
330
16D2
100
AcDbXrecord
280
     1
102
MATERIAL
148
0.0
149
0.0
149
0.0
 93
        0
 94
      127
282
     0
 72
     0
 77
     0
171
     0
175
     0
179
     0
273
     0
  0
XRECORD
  5
16D4
102
{ACAD_REACTORS
330
16D2
102
}
330
16D2
100
AcDbXrecord
280
     1
270
     1
271
     1
  0
XRECORD
  5
16D3
102
{ACAD_REACTORS
330
16D2
102
}
330
16D2
100
AcDbXrecord
280
     1
270
     1
271
     1
  0
XRECORD
  5
16D7
102
{ACAD_REACTORS
330
16D2
102
}
330
16D2
100
AcDbXrecord
280
     1
270
     1
271
     1
  0
XRECORD
  5
16D6
102
{ACAD_REACTORS
330
16D2
102
}
330
16D2
100
AcDbXrecord
280
     1
270
     1
271
     1
  0
XRECORD
  5
16D8
102
{ACAD_REACTORS
330
16D2
102
}
330
16D2
100
AcDbXrecord
280
     1
270
     1
271
     1
  0
XRECORD
  5
16D5
102
{ACAD_REACTORS
330
16D2
102
}
330
16D2
100
AcDbXrecord
280
     1
270
     1
271
     1
  0
CELLSTYLEMAP
  5
2C26
102
{ACAD_REACTORS
330
1924
102
}
330
1924
100
AcDbCellStyleMap
 90
        3
300
CELLSTYLE
  1
TABLEFORMAT_BEGIN
 90
        5
170
     1
 91
        0
 92
    32768
 62
   257
 93
        1
300
CONTENTFORMAT
  1
CONTENTFORMAT_BEGIN
 90
        0
 91
        0
 92
      512
 93
        0
300

 40
0.0
140
1.0
 94
        5
 62
     0
340
150
144
6.0
309
CONTENTFORMAT_END
171
     1
301
MARGIN
  1
CELLMARGIN_BEGIN
 40
1.5
 40
1.5
 40
1.5
 40
1.5
 40
4.5
 40
4.5
309
CELLMARGIN_END
 94
        6
 95
        1
302
GRIDFORMAT
  1
GRIDFORMAT_BEGIN
 90
        0
 91
        1
 62
     0
 92
       -2
340
0
 93
        0
 40
1.125
309
GRIDFORMAT_END
 95
        2
302
GRIDFORMAT
  1
GRIDFORMAT_BEGIN
 90
        0
 91
        1
 62
     0
 92
       -2
340
0
 93
        0
 40
1.125
309
GRIDFORMAT_END
 95
        4
302
GRIDFORMAT
  1
GRIDFORMAT_BEGIN
 90
        0
 91
        1
 62
     0
 92
       -2
340
0
 93
        0
 40
1.125
309
GRIDFORMAT_END
 95
        8
302
GRIDFORMAT
  1
GRIDFORMAT_BEGIN
 90
        0
 91
        1
 62
     0
 92
       -2
340
0
 93
        0
 40
1.125
309
GRIDFORMAT_END
 95
       16
302
GRIDFORMAT
  1
GRIDFORMAT_BEGIN
 90
        0
 91
        1
 62
     0
 92
       -2
340
0
 93
        0
 40
1.125
309
GRIDFORMAT_END
 95
       32
302
GRIDFORMAT
  1
GRIDFORMAT_BEGIN
 90
        0
 91
        1
 62
     0
 92
       -2
340
0
 93
        0
 40
1.125
309
GRIDFORMAT_END
309
TABLEFORMAT_END
  1
CELLSTYLE_BEGIN
 90
        1
 91
        1
300
_TITLE
309
CELLSTYLE_END
300
CELLSTYLE
  1
TABLEFORMAT_BEGIN
 90
        5
170
     1
 91
        0
 92
        0
 62
   257
 93
        1
300
CONTENTFORMAT
  1
CONTENTFORMAT_BEGIN
 90
        0
 91
        0
 92
      512
 93
        0
300

 40
0.0
140
1.0
 94
        5
 62
     0
340
150
144
4.5
309
CONTENTFORMAT_END
171
     1
301
MARGIN
  1
CELLMARGIN_BEGIN
 40
1.5
 40
1.5
 40
1.5
 40
1.5
 40
4.5
 40
4.5
309
CELLMARGIN_END
 94
        6
 95
        1
302
GRIDFORMAT
  1
GRIDFORMAT_BEGIN
 90
        0
 91
        1
 62
     0
 92
       -2
340
0
 93
        0
 40
1.125
309
GRIDFORMAT_END
 95
        2
302
GRIDFORMAT
  1
GRIDFORMAT_BEGIN
 90
        0
 91
        1
 62
     0
 92
       -2
340
0
 93
        0
 40
1.125
309
GRIDFORMAT_END
 95
        4
302
GRIDFORMAT
  1
GRIDFORMAT_BEGIN
 90
        0
 91
        1
 62
     0
 92
       -2
340
0
 93
        0
 40
1.125
309
GRIDFORMAT_END
 95
        8
302
GRIDFORMAT
  1
GRIDFORMAT_BEGIN
 90
        0
 91
        1
 62
     0
 92
       -2
340
0
 93
        0
 40
1.125
309
GRIDFORMAT_END
 95
       16
302
GRIDFORMAT
  1
GRIDFORMAT_BEGIN
 90
        0
 91
        1
 62
     0
 92
       -2
340
0
 93
        0
 40
1.125
309
GRIDFORMAT_END
 95
       32
302
GRIDFORMAT
  1
GRIDFORMAT_BEGIN
 90
        0
 91
        1
 62
     0
 92
       -2
340
0
 93
        0
 40
1.125
309
GRIDFORMAT_END
309
TABLEFORMAT_END
  1
CELLSTYLE_BEGIN
 90
        2
 91
        1
300
_HEADER
309
CELLSTYLE_END
300
CELLSTYLE
  1
TABLEFORMAT_BEGIN
 90
        5
170
     1
 91
        0
 92
        0
 62
   257
 93
        1
300
CONTENTFORMAT
  1
CONTENTFORMAT_BEGIN
 90
        0
 91
        0
 92
      512
 93
        0
300

 40
0.0
140
1.0
 94
        2
 62
     0
340
150
144
4.5
309
CONTENTFORMAT_END
171
     1
301
MARGIN
  1
CELLMARGIN_BEGIN
 40
1.5
 40
1.5
 40
1.5
 40
1.5
 40
4.5
 40
4.5
309
CELLMARGIN_END
 94
        6
 95
        1
302
GRIDFORMAT
  1
GRIDFORMAT_BEGIN
 90
        0
 91
        1
 62
     0
 92
       -2
340
0
 93
        0
 40
1.125
309
GRIDFORMAT_END
 95
        2
302
GRIDFORMAT
  1
GRIDFORMAT_BEGIN
 90
        0
 91
        1
 62
     0
 92
       -2
340
0
 93
        0
 40
1.125
309
GRIDFORMAT_END
 95
        4
302
GRIDFORMAT
  1
GRIDFORMAT_BEGIN
 90
        0
 91
        1
 62
     0
 92
       -2
340
0
 93
        0
 40
1.125
309
GRIDFORMAT_END
 95
        8
302
GRIDFORMAT
  1
GRIDFORMAT_BEGIN
 90
        0
 91
        1
 62
     0
 92
       -2
340
0
 93
        0
 40
1.125
309
GRIDFORMAT_END
 95
       16
302
GRIDFORMAT
  1
GRIDFORMAT_BEGIN
 90
        0
 91
        1
 62
     0
 92
       -2
340
0
 93
        0
 40
1.125
309
GRIDFORMAT_END
 95
       32
302
GRIDFORMAT
  1
GRIDFORMAT_BEGIN
 90
        0
 91
        1
 62
     0
 92
       -2
340
0
 93
        0
 40
1.125
309
GRIDFORMAT_END
309
TABLEFORMAT_END
  1
CELLSTYLE_BEGIN
 90
        3
 91
        2
300
_DATA
309
CELLSTYLE_END
  0
XRECORD
  5
2C33
102
{ACAD_REACTORS
330
1924
102
}
330
1924
100
AcDbXrecord
280
     1
102
ACAD_ROUNDTRIP_PRE2007_TABLESTYLE
 90
      512
 91
        0
  1

 92
      512
 93
        0
  2

 94
      512
 95
        0
  3

  0
ENDSEC
  0
EOF
