  0
SECTION
  2
HEADER
  9
$ACADVER
  1
AC1015
  9
$ACADMAINTVER
 70
    20
  9
$DWGCODEPAGE
  3
ANSI_1252
  9
$INSBASE
 10
0.0
 20
0.0
 30
0.0
  9
$EXTMIN
 10
-479.5003859420262
 20
9.986254086709436
 30
-0.0000000349181948
  9
$EXTMAX
 10
619.8103643665549
 20
248.0020572033266
 30
0.0000000814935746
  9
$LIMMIN
 10
0.0
 20
0.0
  9
$LIMMAX
 10
0.0
 20
0.0
  9
$ORTHOMODE
 70
     1
  9
$REGENMODE
 70
     1
  9
$FILLMODE
 70
     1
  9
$QTEXTMODE
 70
     0
  9
$MIRRTEXT
 70
     1
  9
$LTSCALE
 40
1.0
  9
$ATTMODE
 70
     1
  9
$TEXTSIZE
 40
0.0
  9
$TRACEWID
 40
0.05
  9
$TEXTSTYLE
  7
STANDARD
  9
$CLAYER
  8
copper
  9
$CELTYPE
  6
CONTINUOUS
  9
$CECOLOR
 62
   256
  9
$CELTSCALE
 40
1.0
  9
$DISPSILH
 70
     0
  9
$DIMSCALE
 40
1.0
  9
$DIMASZ
 40
0.18
  9
$DIMEXO
 40
0.0625
  9
$DIMDLI
 40
0.38
  9
$DIMRND
 40
0.0
  9
$DIMDLE
 40
0.0
  9
$DIMEXE
 40
0.18
  9
$DIMTP
 40
0.0
  9
$DIMTM
 40
0.0
  9
$DIMTXT
 40
10.0
  9
$DIMCEN
 40
0.09
  9
$DIMTSZ
 40
0.0
  9
$DIMTOL
 70
     0
  9
$DIMLIM
 70
     0
  9
$DIMTIH
 70
     1
  9
$DIMTOH
 70
     1
  9
$DIMSE1
 70
     0
  9
$DIMSE2
 70
     0
  9
$DIMTAD
 70
     0
  9
$DIMZIN
 70
     0
  9
$DIMBLK
  1

  9
$DIMASO
 70
     1
  9
$DIMSHO
 70
     1
  9
$DIMPOST
  1

  9
$DIMAPOST
  1

  9
$DIMALT
 70
     0
  9
$DIMALTD
 70
     2
  9
$DIMALTF
 40
25.4
  9
$DIMLFAC
 40
1.0
  9
$DIMTOFL
 70
     0
  9
$DIMTVP
 40
0.0
  9
$DIMTIX
 70
     0
  9
$DIMSOXD
 70
     0
  9
$DIMSAH
 70
     0
  9
$DIMBLK1
  1

  9
$DIMBLK2
  1

  9
$DIMSTYLE
  2
STANDARD
  9
$DIMCLRD
 70
     0
  9
$DIMCLRE
 70
     0
  9
$DIMCLRT
 70
     0
  9
$DIMTFAC
 40
1.0
  9
$DIMGAP
 40
0.09
  9
$DIMJUST
 70
     0
  9
$DIMSD1
 70
     0
  9
$DIMSD2
 70
     0
  9
$DIMTOLJ
 70
     1
  9
$DIMTZIN
 70
     0
  9
$DIMALTZ
 70
     0
  9
$DIMALTTZ
 70
     0
  9
$DIMUPT
 70
     0
  9
$DIMDEC
 70
     4
  9
$DIMTDEC
 70
     4
  9
$DIMALTU
 70
     2
  9
$DIMALTTD
 70
     2
  9
$DIMTXSTY
  7
STANDARD
  9
$DIMAUNIT
 70
     0
  9
$DIMADEC
 70
     5
  9
$DIMALTRND
 40
0.0
  9
$DIMAZIN
 70
     0
  9
$DIMDSEP
 70
    46
  9
$DIMATFIT
 70
     3
  9
$DIMFRAC
 70
     0
  9
$DIMLDRBLK
  1

  9
$DIMLUNIT
 70
     2
  9
$DIMLWD
 70
    -2
  9
$DIMLWE
 70
    -2
  9
$DIMTMOVE
 70
     0
  9
$LUNITS
 70
     2
  9
$LUPREC
 70
     4
  9
$SKETCHINC
 40
0.1
  9
$FILLETRAD
 40
0.0
  9
$AUNITS
 70
     0
  9
$AUPREC
 70
     0
  9
$MENU
  1
acad
  9
$ELEVATION
 40
0.0
  9
$PELEVATION
 40
0.0
  9
$THICKNESS
 40
0.0
  9
$LIMCHECK
 70
     0
  9
$CHAMFERA
 40
0.0
  9
$CHAMFERB
 40
0.0
  9
$CHAMFERC
 40
0.0
  9
$CHAMFERD
 40
0.0
  9
$SKPOLY
 70
     0
  9
$TDCREATE
 40
2311946.475710706
  9
$TDUCREATE
 40
2311946.434044039
  9
$TDUPDATE
 40
2454389.677988912
  9
$TDUUPDATE
 40
2454389.636322245
  9
$TDINDWG
 40
1.0098670486
  9
$TDUSRTIMER
 40
1.0098669329
  9
$USRTIMER
 70
     1
  9
$ANGBASE
 50
0.0
  9
$ANGDIR
 70
     0
  9
$PDMODE
 70
     0
  9
$PDSIZE
 40
0.0
  9
$PLINEWID
 40
1.199999999999999
  9
$SPLFRAME
 70
     0
  9
$SPLINETYPE
 70
     6
  9
$SPLINESEGS
 70
     8
  9
$HANDSEED
  5
27D2
  9
$SURFTAB1
 70
     6
  9
$SURFTAB2
 70
     6
  9
$SURFTYPE
 70
     6
  9
$SURFU
 70
     6
  9
$SURFV
 70
     6
  9
$UCSBASE
  2

  9
$UCSNAME
  2

  9
$UCSORG
 10
0.0
 20
0.0
 30
0.0
  9
$UCSXDIR
 10
1.0
 20
0.0
 30
0.0
  9
$UCSYDIR
 10
0.0
 20
1.0
 30
0.0
  9
$UCSORTHOREF
  2

  9
$UCSORTHOVIEW
 70
     0
  9
$UCSORGTOP
 10
0.0
 20
0.0
 30
0.0
  9
$UCSORGBOTTOM
 10
0.0
 20
0.0
 30
0.0
  9
$UCSORGLEFT
 10
0.0
 20
0.0
 30
0.0
  9
$UCSORGRIGHT
 10
0.0
 20
0.0
 30
0.0
  9
$UCSORGFRONT
 10
0.0
 20
0.0
 30
0.0
  9
$UCSORGBACK
 10
0.0
 20
0.0
 30
0.0
  9
$PUCSBASE
  2

  9
$PUCSNAME
  2

  9
$PUCSORG
 10
0.0
 20
0.0
 30
0.0
  9
$PUCSXDIR
 10
1.0
 20
0.0
 30
0.0
  9
$PUCSYDIR
 10
0.0
 20
1.0
 30
0.0
  9
$PUCSORTHOREF
  2

  9
$PUCSORTHOVIEW
 70
     0
  9
$PUCSORGTOP
 10
0.0
 20
0.0
 30
0.0
  9
$PUCSORGBOTTOM
 10
0.0
 20
0.0
 30
0.0
  9
$PUCSORGLEFT
 10
0.0
 20
0.0
 30
0.0
  9
$PUCSORGRIGHT
 10
0.0
 20
0.0
 30
0.0
  9
$PUCSORGFRONT
 10
0.0
 20
0.0
 30
0.0
  9
$PUCSORGBACK
 10
0.0
 20
0.0
 30
0.0
  9
$USERI1
 70
     0
  9
$USERI2
 70
     0
  9
$USERI3
 70
     0
  9
$USERI4
 70
     0
  9
$USERI5
 70
     0
  9
$USERR1
 40
0.0
  9
$USERR2
 40
0.0
  9
$USERR3
 40
0.0
  9
$USERR4
 40
0.0
  9
$USERR5
 40
0.0
  9
$WORLDVIEW
 70
     1
  9
$SHADEDGE
 70
     3
  9
$SHADEDIF
 70
    70
  9
$TILEMODE
 70
     1
  9
$MAXACTVP
 70
    16
  9
$PINSBASE
 10
0.0
 20
0.0
 30
0.0
  9
$PLIMCHECK
 70
     0
  9
$PEXTMIN
 10
114.7487361907958
 20
78.54526405334468
 30
0.0
  9
$PEXTMAX
 10
1032.738625717163
 20
706.9073764801025
 30
0.0
  9
$PLIMMIN
 10
-20.1082763671875
 20
-27.22033309936524
  9
$PLIMMAX
 10
1167.765014648437
 20
812.6729774475098
  9
$UNITMODE
 70
     0
  9
$VISRETAIN
 70
     0
  9
$PLINEGEN
 70
     1
  9
$PSLTSCALE
 70
     0
  9
$TREEDEPTH
 70
  3020
  9
$CMLSTYLE
  2
STANDARD
  9
$CMLJUST
 70
     0
  9
$CMLSCALE
 40
1.0
  9
$PROXYGRAPHICS
 70
     1
  9
$MEASUREMENT
 70
     1
  9
$CELWEIGHT
370
    -1
  9
$ENDCAPS
280
     0
  9
$JOINSTYLE
280
     0
  9
$LWDISPLAY
290
     0
  9
$INSUNITS
 70
     0
  9
$HYPERLINKBASE
  1

  9
$STYLESHEET
  1
monochrome.ctb
  9
$XEDIT
290
     1
  9
$CEPSNTYPE
380
     0
  9
$PSTYLEMODE
290
     1
  9
$FINGERPRINTGUID
  2
{44CFACF6-FF42-4479-A730-8E27374F1164}
  9
$VERSIONGUID
  2
{D16E43AB-08F8-400B-81B5-CD0CD0D305E1}
  9
$EXTNAMES
290
     1
  9
$PSVPSCALE
 40
0.0
  9
$OLESTARTUP
290
     0
  0
ENDSEC
  0
SECTION
  2
CLASSES
  0
CLASS
  1
IMAGE
  2
AcDbRasterImage
  3
ISM
 90
    32895
280
     0
281
     1
  0
CLASS
  1
DICTIONARYVAR
  2
AcDbDictionaryVar
  3
ObjectDBX Classes
 90
        0
280
     0
281
     0
  0
CLASS
  1
RASTERVARIABLES
  2
AcDbRasterVariables
  3
ISM
 90
    32768
280
     0
281
     0
  0
CLASS
  1
IMAGEDEF
  2
AcDbRasterImageDef
  3
ISM
 90
    32768
280
     0
281
     0
  0
CLASS
  1
IMAGEDEF_REACTOR
  2
AcDbRasterImageDefReactor
  3
ISM
 90
    32769
280
     0
281
     0
  0
CLASS
  1
IDBUFFER
  2
AcDbIdBuffer
  3
ObjectDBX Classes
 90
        0
280
     0
281
     0
  0
CLASS
  1
SPATIAL_FILTER
  2
AcDbSpatialFilter
  3
ObjectDBX Classes
 90
    32768
280
     0
281
     0
  0
CLASS
  1
SORTENTSTABLE
  2
AcDbSortentsTable
  3
ObjectDBX Classes
 90
        0
280
     0
281
     0
  0
CLASS
  1
LAYER_INDEX
  2
AcDbLayerIndex
  3
ObjectDBX Classes
 90
        0
280
     0
281
     0
  0
CLASS
  1
SPATIAL_INDEX
  2
AcDbSpatialIndex
  3
ObjectDBX Classes
 90
    32768
280
     0
281
     0
  0
CLASS
  1
OBJECT_PTR
  2
CAseDLPNTableRecord
  3
ASE-LPNTableRecord
 90
    32769
280
     0
281
     0
  0
CLASS
  1
LAYOUT
  2
AcDbLayout
  3
ObjectDBX Classes
 90
        0
280
     0
281
     0
  0
CLASS
  1
PLOTSETTINGS
  2
AcDbPlotSettings
  3
ObjectDBX Classes
 90
    32768
280
     0
281
     0
  0
CLASS
  1
ACDBDICTIONARYWDFLT
  2
AcDbDictionaryWithDefault
  3
ObjectDBX Classes
 90
        0
280
     0
281
     0
  0
CLASS
  1
ACDBPLACEHOLDER
  2
AcDbPlaceHolder
  3
ObjectDBX Classes
 90
        0
280
     0
281
     0
  0
CLASS
  1
VBA_PROJECT
  2
AcDbVbaProject
  3
acad
 90
    32768
280
     0
281
     0
  0
CLASS
  1
WIPEOUT
  2
AcDbWipeout
  3
WipeOut|AutoCAD Express Tool|expresstools@autodesk.com
 90
    32895
280
     0
281
     1
  0
CLASS
  1
WIPEOUTVARIABLES
  2
AcDbWipeoutVariables
  3
WipeOut|AutoCAD Express Tool|expresstools@autodesk.com
 90
    32768
280
     0
281
     0
  0
CLASS
  1
RTEXT
  2
RText
  3
RText|AutoCAD Express Tool|expresstools@autodesk.com
 90
    32768
280
     0
281
     1
  0
CLASS
  1
ARCALIGNEDTEXT
  2
AcDbArcAlignedText
  3
ATEXT|AutoCAD Express Tool|expresstools@autodesk.com
 90
    32768
280
     0
281
     1
  0
CLASS
  1
MATERIAL
  2
AcDbMaterial
  3
ObjectDBX Classes
 90
     1153
280
     0
281
     0
  0
CLASS
  1
VISUALSTYLE
  2
AcDbVisualStyle
  3
ObjectDBX Classes
 90
     4095
280
     0
281
     0
  0
CLASS
  1
TABLESTYLE
  2
AcDbTableStyle
  3
ObjectDBX Classes
 90
     4095
280
     0
281
     0
  0
CLASS
  1
SCALE
  2
AcDbScale
  3
ObjectDBX Classes
 90
     1153
280
     0
281
     0
  0
CLASS
  1
MLEADERSTYLE
  2
AcDbMLeaderStyle
  3
ACDB_MLEADERSTYLE_CLASS
 90
     4095
280
     0
281
     0
  0
CLASS
  1
ACME_DOCUMENT
  2
AcMeDbDoc
  3
AcMeServices
 90
     1024
280
     0
281
     0
  0
CLASS
  1
AMGSETTINGSOBJ
  2
AmgSettingsObj
  3
"AcadM|Product Description: AutoCAD Mechanical|Company: Autodesk, Inc."
 90
     1024
280
     0
281
     0
  0
CLASS
  1
ACMESCOPE
  2
AcMeScope
  3
AcMeServices
 90
     1024
280
     0
281
     0
  0
CLASS
  1
ACMECOMMANDHISTORY
  2
AcMeCommandHistory
  3
AcMeServices
 90
     1024
280
     0
281
     0
  0
CLASS
  1
ACIMSYSVARMAN
  2
AcImSysVarManager
  3
AcMeServices
 90
     1024
280
     0
281
     0
  0
CLASS
  1
ACIMREALSYSVAR
  2
AcImRealSysVar
  3
AcMeServices
 90
     1024
280
     0
281
     0
  0
CLASS
  1
ACIMINTSYSVAR
  2
AcImIntSysVar
  3
AcMeServices
 90
     1024
280
     0
281
     0
  0
CLASS
  1
ACMEDRAWINGMAN
  2
AcMeDrawingMan
  3
AcMeServices
 90
     1024
280
     0
281
     0
  0
CLASS
  1
ACMEVIEW
  2
AcMeView
  3
AcMeServices
 90
     1024
280
     0
281
     0
  0
CLASS
  1
ACDBENTITYCACHE
  2
AcMeEntityCache
  3
AcMeServices
 90
     1024
280
     0
281
     0
  0
CLASS
  1
GSMANAGER
  2
AcMeGSManager
  3
AcMeServices
 90
     1024
280
     0
281
     0
  0
CLASS
  1
AMDTINTERNALREACTOR
  2
AmdtInternalReactor
  3
AcMeServices
 90
     1024
280
     0
281
     0
  0
CLASS
  1
ACMESTATEMGR
  2
AcMeStateMgr
  3
AcMeServices
 90
     1024
280
     0
281
     0
  0
CLASS
  1
ACGREFMASTER
  2
AcGrefMaster
  3
AcAttribServices
 90
     1024
280
     0
281
     0
  0
CLASS
  1
AM_DRAWING_MGR
  2
AcDmDwgMgr
  3
AcMechDwgViewMgmt
 90
     1024
280
     0
281
     0
  0
CLASS
  1
AM_DWG_DOCUMENT
  2
AcDmDwgDocument
  3
AcMechDwgViewMgmt
 90
     1024
280
     0
281
     0
  0
CLASS
  1
AM_DWG_SHEET
  2
AcDmSheet
  3
AcMechDwgViewMgmt
 90
     1024
280
     0
281
     0
  0
CLASS
  1
AM_VIEWDIMPARMAP
  2
AcDmViewDimParMap
  3
AcMechDwgViewMgmt
 90
     1024
280
     0
281
     0
  0
CLASS
  1
AM_DWGMGR_NAME
  2
AcDmDwgMgrName
  3
AcMechDwgViewMgmt
 90
     1024
280
     0
281
     0
  0
CLASS
  1
ACME_DATABASE
  2
AcMeDbDatabase
  3
AcMeServices
 90
     1024
280
     0
281
     0
  0
CLASS
  1
ACRFINSADJUSTERMGR
  2
AcRfInsAdjusterMgr
  3
AcMeServices
 90
     1024
280
     0
281
     0
  0
CLASS
  1
ACGREFACADMASTER
  2
AcGrefacadMaster
  3
AcGrefServices
 90
     1024
280
     0
281
     0
  0
CLASS
  1
AMDTMENUSTATEMGR
  2
AmdtMenuStateMgr
  3
McadcomServices
 90
     1024
280
     0
281
     0
  0
CLASS
  1
AMDTMCOMMENUSTATE
  2
AmdtMcomMenuState
  3
McadcomServices
 90
     1024
280
     0
281
     0
  0
CLASS
  1
AMIMASTER
  2
AmiMaster
  3
AmiServices
 90
     1024
280
     0
281
     0
  0
CLASS
  1
ASAPP
  2
AcAsAppObject
  3
AutoSurfServices
 90
     1024
280
     0
281
     0
  0
CLASS
  1
IM_STATIC_MAN
  2
AcImStaticVarManager
  3
AcMeServices
 90
     1024
280
     0
281
     0
  0
CLASS
  1
ACIMSTRSYSVAR
  2
AcImStrSysVar
  3
AcMeServices
 90
     1024
280
     0
281
     0
  0
CLASS
  1
ACIMDBLSTATICVAR
  2
AcImDblStaticVar
  3
AcMeServices
 90
     1024
280
     0
281
     0
  0
CLASS
  1
ACIMSTRSTATICVAR
  2
AcImStrStaticVar
  3
AcMeServices
 90
     1024
280
     0
281
     0
  0
CLASS
  1
ACIMINTSTATICVAR
  2
AcImIntStaticVar
  3
AcMeServices
 90
     1024
280
     0
281
     0
  0
CLASS
  1
ACASGREFMASTER
  2
AcAsGrefMaster
  3
AutoSurfResolverServices
 90
     1024
280
     0
281
     0
  0
CLASS
  1
ACADGREFMODULE
  2
AcAdGrefModule
  3
AdGrefServices
 90
     1024
280
     0
281
     0
  0
CLASS
  1
AMDTMAPISURFMOUDULE
  2
AmdtMApiSurfModule
  3
MApiSurfServices
 90
     1024
280
     0
281
     0
  0
CLASS
  1
MAPIAMMOUDLE
  2
MApiAmModule
  3
MApiAmServices
 90
     1024
280
     0
281
     0
  0
CLASS
  1
AMDTADMENUSTATE
  2
AmdtAdMenuState
  3
DesignerServices
 90
     1024
280
     0
281
     0
  0
CLASS
  1
ADAPPL
  2
AcAdAppl
  3
DesignerServices
 90
     1024
280
     0
281
     0
  0
CLASS
  1
DEPMGR
  2
AcAdDepMgr
  3
DesignerServices
 90
     1024
280
     0
281
     0
  0
CLASS
  1
PARAMMGR
  2
AcAdParamMgr
  3
DesignerServices
 90
     1024
280
     0
281
     0
  0
CLASS
  1
PARAMSCOPE
  2
AcAdParamScope
  3
DesignerServices
 90
     1024
280
     0
281
     0
  0
CLASS
  1
NAMEDAPPL
  2
AcAdNamedAppl
  3
DesignerServices
 90
     1024
280
     0
281
     0
  0
CLASS
  1
AMDTDMMENUSTATE
  2
AmdtDmMenuState
  3
AcMechDwgViewMgmt
 90
     1024
280
     0
281
     0
  0
CLASS
  1
MAPIADMODULE
  2
MApiAdModule
  3
MApiAdServices
 90
     1024
280
     0
281
     0
  0
CLASS
  1
AMDTAMMENUSTATE
  2
AmdtAmMenuState
  3
DesignerAssemblies
 90
     1024
280
     0
281
     0
  0
CLASS
  1
ACAMPROJECT
  2
AcAmProject
  3
DesignerAssemblies
 90
     1024
280
     0
281
     0
  0
CLASS
  1
ACAMGRCOMPDEF
  2
AcAmGrCompDef
  3
DesignerAssemblies
 90
     1024
280
     0
281
     0
  0
CLASS
  1
ACCMCONTEXT
  2
AcCmContext
  3
DesignerAssemblies
 90
     1024
280
     0
281
     0
  0
CLASS
  1
ACAMCOMPDEF
  2
AcAmCompDef
  3
DesignerAssemblies
 90
     1024
280
     0
281
     0
  0
CLASS
  1
ACAMCOMPDEFMGR
  2
AcAmCompDefMgr
  3
DesignerAssemblies
 90
     1024
280
     0
281
     0
  0
CLASS
  1
AMCONTEXTMGR
  2
AcAmContextMgr
  3
DesignerAssemblies
 90
     1024
280
     0
281
     0
  0
CLASS
  1
ACAMCONTEXTMODELER
  2
AcAmContextModeler
  3
DesignerAssemblies
 90
     1024
280
     0
281
     0
  0
CLASS
  1
ACMDATADICTIONARY
  2
AcmDataDictionary
  3
"AcmSymBB|Product Description: AutoCAD Mechanical|Company: Autodesk, Inc."
 90
     1024
280
     0
281
     0
  0
CLASS
  1
ACMDATAENTRYBLOCK
  2
AcmDataEntryBlock
  3
AcmSymBB|Product Description: AutoCAD Mechanical|Company: Autodesk, Inc.
 90
     1024
280
     0
281
     0
  0
CLASS
  1
ACRFATTGENMGR
  2
AcRfAttGeneralMgr
  3
AcAttribServices
 90
     1024
280
     0
281
     0
  0
CLASS
  1
ACRFOBJATTMGR
  2
AcRfObjAttGroupMgr
  3
AcAttribServices
 90
     1024
280
     0
281
     0
  0
CLASS
  1
ACRFMCADAPIATTHOLDER
  2
AcRfMCADAPIAttHolder
  3
AcAttribServices
 90
     1024
280
     0
281
     0
  0
CLASS
  1
AMDTSYSATTR
  2
AmdtSystemAttribute
  3
AcAttribServices
 90
     1024
280
     0
281
     0
  0
CLASS
  1
CATALOGSTATE
  2
AcAmCatalogState
  3
DesignerAssemblies
 90
     1024
280
     0
281
     0
  0
CLASS
  1
ACAMGRCOMPDEFSET
  2
AcAmGrCompDefSet
  3
DesignerAssemblies
 90
     1024
280
     0
281
     0
  0
CLASS
  1
AMDTBROWSERDBTAB
  2
AmdtBrowserDbTab
  3
McadcomServices
 90
     1024
280
     0
281
     0
  0
CLASS
  1
CBROWSERAPPOBJECT
  2
CBrowserAppObject
  3
McadcomServices
 90
     1024
280
     0
281
     0
  0
CLASS
  1
DM_PLACEHOLDER
  2
AcDmSelsetPlaceholder
  3
AcMechDwgViewMgmt
 90
     1024
280
     0
281
     0
  0
CLASS
  1
ACMSTANDARDISO
  2
AcmStandardISO
  3
"Amdt_StdImp|Product Description: AutoCAD Mechanical|Company: Autodesk, Inc."
 90
     1024
280
     0
281
     0
  0
CLASS
  1
AMGOBJPROPCFG
  2
AmgObjPropCfg
  3
"AmgLay|Product Description: AutoCAD Mechanical|Company: Autodesk, Inc."
 90
     1025
280
     0
281
     0
  0
CLASS
  1
AMDTEDGESTANDARDISO13715
  2
AmdtEdgeStdISO13715
  3
"Amdt_StdImp|Product Description: AutoCAD Mechanical|Company: Autodesk, Inc."
 90
     1024
280
     0
281
     0
  0
CLASS
  1
ACMSURFSTANDARDISO2002
  2
AcmSurfTextStdISO2002
  3
"Amdt_StdImp|Product Description: AutoCAD Mechanical|Company: Autodesk, Inc."
 90
     1024
280
     0
281
     0
  0
CLASS
  1
ACMFCFSTANDARDISO
  2
AcmFCFStdISO
  3
"Amdt_StdImp|Product Description: AutoCAD Mechanical|Company: Autodesk, Inc."
 90
     1024
280
     0
281
     0
  0
CLASS
  1
ACMWELDSTANDARDISO
  2
AcmWeldingStdISO
  3
"Amdt_StdImp|Product Description: AutoCAD Mechanical|Company: Autodesk, Inc."
 90
     1024
280
     0
281
     0
  0
CLASS
  1
ACMIDSTANDARDISO
  2
AcmIdStdISO
  3
"Amdt_StdImp|Product Description: AutoCAD Mechanical|Company: Autodesk, Inc."
 90
     1024
280
     0
281
     0
  0
CLASS
  1
ACMDATUMSTANDARDISO
  2
AcmDatumStdISO
  3
"Amdt_StdImp|Product Description: AutoCAD Mechanical|Company: Autodesk, Inc."
 90
     1024
280
     0
281
     0
  0
CLASS
  1
ACMBOMSTANDARDISO
  2
AcmBOMStdISO
  3
"Amdt_StdImp|Product Description: AutoCAD Mechanical|Company: Autodesk, Inc."
 90
     1024
280
     0
281
     0
  0
CLASS
  1
ACMDETAILSTANDARDISO
  2
AmdtDetailSymStdISO
  3
"Amdt_StdImp|Product Description: AutoCAD Mechanical|Company: Autodesk, Inc."
 90
     1024
280
     0
281
     0
  0
CLASS
  1
ACMSECTIONSTANDARDISO2001
  2
AmdtSectionSymStdISO2001
  3
"Amdt_StdImp|Product Description: AutoCAD Mechanical|Company: Autodesk, Inc."
 90
     1024
280
     0
281
     0
  0
CLASS
  1
ACMCENTERLINESTANDARDISO
  2
AmdtCenterLineStdISO
  3
"Amdt_StdImp|Product Description: AutoCAD Mechanical|Company: Autodesk, Inc."
 90
     1024
280
     0
281
     0
  0
CLASS
  1
ACMTHREADLINESTANDARDISO
  2
AmdtThreadLineStdISO
  3
"Amdt_StdImp|Product Description: AutoCAD Mechanical|Company: Autodesk, Inc."
 90
     1024
280
     0
281
     0
  0
CLASS
  1
ACMNOTESTANDARDISO
  2
AmdtNoteStdISO
  3
"Amdt_StdImp|Product Description: AutoCAD Mechanical|Company: Autodesk, Inc."
 90
     1024
280
     0
281
     0
  0
CLASS
  1
ACMTAPERSTANDARDISO
  2
AcmTaperStdISO
  3
"Amdt_StdImp|Product Description: AutoCAD Mechanical|Company: Autodesk, Inc."
 90
     1024
280
     0
281
     0
  0
CLASS
  1
ACMANOOTATIONVIEWSTANDARDISO
  2
AmdtAnViewStdISO
  3
"Amdt_StdImp|Product Description: AutoCAD Mechanical|Company: Autodesk, Inc."
 90
     1024
280
     0
281
     0
  0
CLASS
  1
AMDTNOTETEMPLATEDB
  2
AmdtNoteTemplateDB
  3
AcmSymBB|Product Description: AutoCAD Mechanical|Company: Autodesk, Inc.
 90
     1024
280
     0
281
     0
  0
CLASS
  1
ACAMGLAYSTD
  2
AcAmgLayStd
  3
"AmgLay|Product Description: AutoCAD Mechanical|Company: Autodesk, Inc."
 90
     1024
280
     0
281
     0
  0
CLASS
  1
ACAMGDIMSTD
  2
AcAmgDimStd
  3
"AmgDim|Product Description: AutoCAD Mechanical|Company: Autodesk, Inc."
 90
     1024
280
     0
281
     0
  0
CLASS
  1
ACAMGHOLECHARTSTDISO
  2
AcAmgHoleChartStdISO
  3
AmgDim|Product Description: AutoCAD Mechanical|Company: Autodesk, Inc.
 90
     1024
280
     0
281
     0
  0
CLASS
  1
ACAMGTITLESTD
  2
AcAmgTitleStd
  3
"AmgTitle|Product Description: AutoCAD Mechanical|Company: Autodesk, Inc."
 90
     4095
280
     0
281
     0
  0
CLASS
  1
CELLSTYLEMAP
  2
AcDbCellStyleMap
  3
ObjectDBX Classes
 90
     1152
280
     0
281
     0
  0
CLASS
  1
ACAMGFILTERDAT
  2
AcAmgFilterDat
  3
"AcadM|Product Description: AutoCAD Mechanical|Company: Autodesk, Inc."
 90
     1024
280
     0
281
     0
  0
ENDSEC
  0
SECTION
  2
TABLES
  0
TABLE
  2
VPORT
  5
157
330
0
100
AcDbSymbolTable
 70
     1
  0
VPORT
  5
16BF
330
157
100
AcDbSymbolTableRecord
100
AcDbViewportTableRecord
  2
*Active
 70
     0
 10
0.0
 20
0.0
 11
1.0
 21
1.0
 12
-583.4033326379309
 22
-96.07501868245714
 13
0.0
 23
0.0
 14
1.0
 24
1.0
 15
0.0
 25
0.0
 16
0.0
 26
0.0
 36
1.0
 17
653.5583218501953
 27
225.0691743274751
 37
0.0
 40
714.0758862791008
 41
1.5470737913486
 42
50.0
 43
0.0
 44
0.0
 50
0.0
 51
0.0
 71
     0
 72
   100
 73
     1
 74
     1
 75
     0
 76
     0
 77
     0
 78
     0
281
     0
 65
     0
110
0.0
120
0.0
130
0.0
111
1.0
121
0.0
131
0.0
112
0.0
122
1.0
132
0.0
 79
     0
146
0.0
  0
ENDTAB
  0
TABLE
  2
LTYPE
  5
152
330
0
100
AcDbSymbolTable
 70
    16
  0
LTYPE
  5
153
330
152
100
AcDbSymbolTableRecord
100
AcDbLinetypeTableRecord
  2
BYBLOCK
 70
     0
  3

 72
    65
 73
     0
 40
0.0
  0
LTYPE
  5
154
330
152
100
AcDbSymbolTableRecord
100
AcDbLinetypeTableRecord
  2
BYLAYER
 70
     0
  3

 72
    65
 73
     0
 40
0.0
  0
LTYPE
  5
A
330
152
100
AcDbSymbolTableRecord
100
AcDbLinetypeTableRecord
  2
CONTINUOUS
 70
     0
  3
Solid line
 72
    65
 73
     0
 40
0.0
  0
LTYPE
  5
174B
330
152
100
AcDbSymbolTableRecord
100
AcDbLinetypeTableRecord
  2
HIDDEN
 70
     0
  3
Hidden __ __ __ __ __ __ __ __ __ __ __ __ __ _
 72
    65
 73
     2
 40
9.524999999999998
 49
6.349999999999999
 74
     0
 49
-3.174999999999999
 74
     0
  0
LTYPE
  5
174C
330
152
100
AcDbSymbolTableRecord
100
AcDbLinetypeTableRecord
  2
PHANTOM2
 70
     0
  3
Phantom (.5x) ___ _ _ ___ _ _ ___ _ _ ___ _ _
 72
    65
 73
     6
 40
31.75
 49
15.875
 74
     0
 49
-3.174999999999999
 74
     0
 49
3.174999999999999
 74
     0
 49
-3.174999999999999
 74
     0
 49
3.174999999999999
 74
     0
 49
-3.174999999999999
 74
     0
  0
LTYPE
  5
174D
330
152
100
AcDbSymbolTableRecord
100
AcDbLinetypeTableRecord
  2
CENTER
 70
     0
  3
Center ____ _ ____ _ ____ _ ____ _ ____ _ ____
 72
    65
 73
     4
 40
50.8
 49
31.75
 74
     0
 49
-6.349999999999999
 74
     0
 49
6.349999999999999
 74
     0
 49
-6.349999999999999
 74
     0
  0
LTYPE
  5
17E8
330
152
100
AcDbSymbolTableRecord
100
AcDbLinetypeTableRecord
  2
AM_ISO02W050
 70
     0
  3
__ __ __ __ __ __ __ __ __ __ __ __ __ __ __
 72
    65
 73
     2
 40
7.5
 49
6.0
 74
     0
 49
-1.5
 74
     0
  0
LTYPE
  5
17E9
330
152
100
AcDbSymbolTableRecord
100
AcDbLinetypeTableRecord
  2
AM_ISO08W050
 70
     0
  3
____ . ____ . ____ . ____ . ____ . ____ . ____
 72
    65
 73
     4
 40
18.0
 49
12.0
 74
     0
 49
-1.5
 74
     0
 49
3.0
 74
     0
 49
-1.5
 74
     0
  0
LTYPE
  5
17EA
330
152
100
AcDbSymbolTableRecord
100
AcDbLinetypeTableRecord
  2
AM_ISO09W050
 70
     0
  3
_____ . . _____ . . _____ . . ____ .. ____
 72
    65
 73
     6
 40
22.5
 49
12.0
 74
     0
 49
-1.5
 74
     0
 49
3.0
 74
     0
 49
-1.5
 74
     0
 49
3.0
 74
     0
 49
-1.5
 74
     0
  0
LTYPE
  5
17EB
330
152
100
AcDbSymbolTableRecord
100
AcDbLinetypeTableRecord
  2
Amconstr
 70
     0
  3
_______________________
 72
    65
 73
     2
 40
9999.0
 49
9999.0
 74
     0
 49
0.0
 74
     0
  0
LTYPE
  5
17EC
330
152
100
AcDbSymbolTableRecord
100
AcDbLinetypeTableRecord
  2
AM_ISO08W050x2
 70
     0
  3
__ . __ . __ . __ . __ . __
 72
    65
 73
     4
 40
9.0
 49
6.0
 74
     0
 49
-0.75
 74
     0
 49
1.5
 74
     0
 49
-0.75
 74
     0
  0
LTYPE
  5
17ED
330
152
100
AcDbSymbolTableRecord
100
AcDbLinetypeTableRecord
  2
AM_ISO02W050x2
 70
     0
  3
 _ _ _ _ _ _ _ _ _ _ _ _
 72
    65
 73
     2
 40
3.75
 49
3.0
 74
     0
 49
-0.75
 74
     0
  0
LTYPE
  5
17F0
330
152
100
AcDbSymbolTableRecord
100
AcDbLinetypeTableRecord
  2
Amzigzag
 70
     0
  3
/\/-/\/-/\/-/\/-/\/-/\/
 72
    65
 73
     2
 40
11.0001
 49
0.0001
 74
     4
 75
   136
340
17EF
 46
0.04
 50
0.0
 44
0.0
 45
0.0
 49
-11.0
 74
     0
  0
LTYPE
  5
1801
330
152
100
AcDbSymbolTableRecord
100
AcDbLinetypeTableRecord
  2
ACISOWELD
 70
     0
  3
_ _ _ _ _
 72
    65
 73
     2
 40
2.0
 49
2.0
 74
     0
 49
-1.0
 74
     0
  0
LTYPE
  5
1802
330
152
100
AcDbSymbolTableRecord
100
AcDbLinetypeTableRecord
  2
ACISOTGB
 70
     0
  3
__ . . __ . .
 72
    65
 73
     6
 40
9.0
 49
4.0
 74
     0
 49
-1.0
 74
     0
 49
1.0
 74
     0
 49
-1.0
 74
     0
 49
1.0
 74
     0
 49
-1.0
 74
     0
  0
LTYPE
  5
1803
330
152
100
AcDbSymbolTableRecord
100
AcDbLinetypeTableRecord
  2
ACISOTGL
 70
     0
  3
_ _ _ _ _
 72
    65
 73
     2
 40
3.0
 49
2.0
 74
     0
 49
-1.0
 74
     0
  0
LTYPE
  5
27B5
330
152
100
AcDbSymbolTableRecord
100
AcDbLinetypeTableRecord
  2
ASULTYPE
 70
     0
  3
Solid line
 72
    65
 73
     2
 40
3.0
 49
2.5
 74
     0
 49
0.5
 74
     0
  0
LTYPE
  5
27B6
330
152
100
AcDbSymbolTableRecord
100
AcDbLinetypeTableRecord
  2
ASVLTYPE
 70
     0
  3
__ __ __ __ __ __ __ __ __ __ __ __ __ __ __ __ __ __ __ __ __
 72
    65
 73
     2
 40
0.75
 49
0.5
 74
     0
 49
-0.25
 74
     0
  0
ENDTAB
  0
TABLE
  2
LAYER
  5
14E
102
{ACAD_XDICTIONARY
360
1852
102
}
330
0
100
AcDbSymbolTable
 70
     5
  0
LAYER
  5
6
102
{ACAD_XDICTIONARY
360
181E
102
}
330
14E
100
AcDbSymbolTableRecord
100
AcDbLayerTableRecord
  2
0
 70
     0
 62
     7
  6
CONTINUOUS
370
    -3
390
7
  0
LAYER
  5
C
102
{ACAD_XDICTIONARY
360
1820
102
}
330
14E
100
AcDbSymbolTableRecord
100
AcDbLayerTableRecord
  2
mechanical
 70
     0
 62
     6
  6
CONTINUOUS
370
    -3
390
7
  0
LAYER
  5
174
102
{ACAD_XDICTIONARY
360
1822
102
}
330
14E
100
AcDbSymbolTableRecord
100
AcDbLayerTableRecord
  2
copper
 70
     0
 62
     1
  6
CONTINUOUS
370
    -3
390
7
  0
LAYER
  5
41F
330
14E
100
AcDbSymbolTableRecord
100
AcDbLayerTableRecord
  2
Defpoints
 70
     0
 62
     7
  6
CONTINUOUS
290
     0
370
    -3
390
7
  0
LAYER
  5
794
102
{ACAD_XDICTIONARY
360
1824
102
}
330
14E
100
AcDbSymbolTableRecord
100
AcDbLayerTableRecord
  2
kapton
 70
     0
 62
     2
  6
CONTINUOUS
370
    -3
390
7
  0
ENDTAB
  0
TABLE
  2
STYLE
  5
14F
330
0
100
AcDbSymbolTable
 70
     4
  0
STYLE
  5
150
330
14F
100
AcDbSymbolTableRecord
100
AcDbTextStyleTableRecord
  2
STANDARD
 70
     0
 40
0.0
 41
1.0
 50
0.0
 71
     0
 42
0.0
  3
txt
  4

  0
STYLE
  5
17EF
330
14F
100
AcDbSymbolTableRecord
100
AcDbTextStyleTableRecord
  2

 70
     1
 40
0.0
 41
1.0
 50
0.0
 71
     0
 42
0.0
  3
genltshp.shx
  4

  0
STYLE
  5
17F1
330
14F
100
AcDbSymbolTableRecord
100
AcDbTextStyleTableRecord
  2
ACISOTS
 70
     0
 40
1.0
 41
1.0
 50
0.0
 71
     0
 42
0.0
  3
isocp.shx
  4

  0
STYLE
  5
1800
330
14F
100
AcDbSymbolTableRecord
100
AcDbTextStyleTableRecord
  2
ACISOGDT
 70
     0
 40
0.0
 41
1.0
 50
0.0
 71
     0
 42
0.0
  3
amgdt.shx
  4

  0
ENDTAB
  0
TABLE
  2
VIEW
  5
155
330
0
100
AcDbSymbolTable
 70
     0
  0
ENDTAB
  0
TABLE
  2
UCS
  5
156
330
0
100
AcDbSymbolTable
 70
     0
  0
ENDTAB
  0
TABLE
  2
APPID
  5
159
330
0
100
AcDbSymbolTable
 70
    22
  0
APPID
  5
15A
330
159
100
AcDbSymbolTableRecord
100
AcDbRegAppTableRecord
  2
ACAD
 70
     0
  0
APPID
  5
189
330
159
100
AcDbSymbolTableRecord
100
AcDbRegAppTableRecord
  2
DCO15
 70
     0
  0
APPID
  5
1710
330
159
100
AcDbSymbolTableRecord
100
AcDbRegAppTableRecord
  2
ACAD_MLEADERVER
 70
     0
  0
APPID
  5
1717
330
159
100
AcDbSymbolTableRecord
100
AcDbRegAppTableRecord
  2
GENIUS_GENDIM_13
 70
     0
  0
APPID
  5
1718
330
159
100
AcDbSymbolTableRecord
100
AcDbRegAppTableRecord
  2
GENIUS_GENDTOL_13
 70
     0
  0
APPID
  5
1719
330
159
100
AcDbSymbolTableRecord
100
AcDbRegAppTableRecord
  2
GENIUS_GE3DTOL_13
 70
     0
  0
APPID
  5
171C
330
159
100
AcDbSymbolTableRecord
100
AcDbRegAppTableRecord
  2
MCAD_NO_VIS
 70
     0
  0
APPID
  5
171D
330
159
100
AcDbSymbolTableRecord
100
AcDbRegAppTableRecord
  2
ACAD_TEMP_GRAPHIC
 70
     0
  0
APPID
  5
174F
330
159
100
AcDbSymbolTableRecord
100
AcDbRegAppTableRecord
  2
AD_DRAW
 70
     0
  0
APPID
  5
1752
330
159
100
AcDbSymbolTableRecord
100
AcDbRegAppTableRecord
  2
ACATTRIBSERVICES
 70
     0
  0
APPID
  5
179E
330
159
100
AcDbSymbolTableRecord
100
AcDbRegAppTableRecord
  2
ASURF_PCURVE_APPNAME
 70
     0
  0
APPID
  5
17A3
330
159
100
AcDbSymbolTableRecord
100
AcDbRegAppTableRecord
  2
AMG_3D2D_5.0
 70
     0
  0
APPID
  5
17D4
330
159
100
AcDbSymbolTableRecord
100
AcDbRegAppTableRecord
  2
DESIGNERASSEMBLIES
 70
     0
  0
APPID
  5
17DF
330
159
100
AcDbSymbolTableRecord
100
AcDbRegAppTableRecord
  2
ACADM_DIM_EDIT
 70
     0
  0
APPID
  5
17E0
330
159
100
AcDbSymbolTableRecord
100
AcDbRegAppTableRecord
  2
AMDT_DM_ADJ
 70
     0
  0
APPID
  5
181B
330
159
100
AcDbSymbolTableRecord
100
AcDbRegAppTableRecord
  2
GENIUS_GENSCREG_15
 70
     0
  0
APPID
  5
181C
330
159
100
AcDbSymbolTableRecord
100
AcDbRegAppTableRecord
  2
GENIUS_GENODEF_13
 70
     0
  0
APPID
  5
181D
330
159
100
AcDbSymbolTableRecord
100
AcDbRegAppTableRecord
  2
GENIUS_GENOBJ-N-SDF_13
 70
     0
  0
APPID
  5
183D
330
159
100
AcDbSymbolTableRecord
100
AcDbRegAppTableRecord
  2
ACAD_EXEMPT_FROM_CAD_STANDARDS
 70
     0
  0
APPID
  5
1850
330
159
100
AcDbSymbolTableRecord
100
AcDbRegAppTableRecord
  2
AcAecLayerStandard
 70
     0
  0
APPID
  5
18CC
330
159
100
AcDbSymbolTableRecord
100
AcDbRegAppTableRecord
  2
ACAD_DSTYLE_DIMINSPECT
 70
     0
  0
APPID
  5
27D1
330
159
100
AcDbSymbolTableRecord
100
AcDbRegAppTableRecord
  2
ACAD_DSTYLE_DIMARC_LENGTH_SYMBOL
 70
     0
  0
ENDTAB
  0
TABLE
  2
DIMSTYLE
  5
15B
330
0
100
AcDbSymbolTable
 70
     9
100
AcDbDimStyleTable
 71
     1
340
15C
  0
DIMSTYLE
105
15C
330
15B
100
AcDbSymbolTableRecord
100
AcDbDimStyleTableRecord
  2
STANDARD
 70
     0
140
10.0
179
     5
340
150
  0
DIMSTYLE
105
180E
330
15B
100
AcDbSymbolTableRecord
100
AcDbDimStyleTableRecord
  2
AM_ISO
 70
     0
  4
"
 41
2.5
 42
1.0
 43
10.0
 44
1.0
 47
0.1
 48
0.1
 73
     0
 74
     0
 77
     1
 78
     8
 79
     2
140
3.5
141
0.0
143
0.0393701
146
0.71
147
1.5
172
     1
176
   256
177
   256
178
     2
271
     2
272
     3
274
     4
283
     0
284
     8
340
150
371
    -1
372
    -1
1001
ACAD_DSTYLE_DIMARC_LENGTH_SYMBOL
1070
   379
1070
     1
  0
DIMSTYLE
105
180F
330
15B
100
AcDbSymbolTableRecord
100
AcDbDimStyleTableRecord
  2
AM_ISO$3
 70
     0
  4
"
 41
2.5
 42
1.0
 43
10.0
 44
1.0
 47
0.1
 48
0.1
 73
     0
 77
     1
 78
     8
 79
     2
140
3.5
141
0.0
143
0.0393701
146
0.71
147
1.5
176
   256
177
   256
178
     2
271
     2
272
     3
274
     4
283
     0
284
     8
288
     1
289
     0
340
150
371
    -1
372
    -1
1001
ACAD_DSTYLE_DIMARC_LENGTH_SYMBOL
1070
   379
1070
     1
  0
DIMSTYLE
105
1810
330
15B
100
AcDbSymbolTableRecord
100
AcDbDimStyleTableRecord
  2
AM_ISO$4
 70
     0
  4
"
 41
2.5
 42
1.0
 43
10.0
 44
1.0
 47
0.1
 48
0.1
 73
     0
 77
     1
 78
     8
 79
     2
140
3.5
141
0.0
143
0.0393701
146
0.71
147
1.5
176
   256
177
   256
178
     2
271
     2
272
     3
274
     4
283
     0
284
     8
288
     1
289
     0
340
150
371
    -1
372
    -1
1001
ACAD_DSTYLE_DIMARC_LENGTH_SYMBOL
1070
   379
1070
     1
  0
DIMSTYLE
105
1811
330
15B
100
AcDbSymbolTableRecord
100
AcDbDimStyleTableRecord
  2
AM_ISO$6
 70
     0
  4
"
 41
2.5
 42
1.0
 43
10.0
 44
1.0
 47
0.1
 48
0.1
 73
     0
 74
     0
 78
     8
 79
     2
140
3.5
141
0.0
143
0.0393701
146
0.71
147
1.5
172
     1
176
   256
177
   256
178
     2
271
     2
272
     3
274
     4
283
     0
284
     8
340
150
371
    -1
372
    -1
1001
ACAD_DSTYLE_DIMARC_LENGTH_SYMBOL
1070
   379
1070
     1
  0
DIMSTYLE
105
1812
330
15B
100
AcDbSymbolTableRecord
100
AcDbDimStyleTableRecord
  2
AM_ISO$7
 70
     0
  4
"
 41
2.5
 42
1.0
 43
10.0
 44
1.0
 47
0.1
 48
0.1
 73
     0
 74
     0
 77
     1
 78
     8
 79
     2
140
5.0
141
0.0
143
0.0393701
146
0.71
147
1.5
172
     1
176
   256
177
   256
178
     2
271
     2
272
     3
274
     4
283
     0
284
     8
340
150
371
    -1
372
    -1
1001
ACAD_DSTYLE_DIMARC_LENGTH_SYMBOL
1070
   379
1070
     1
  0
DIMSTYLE
105
1813
330
15B
100
AcDbSymbolTableRecord
100
AcDbDimStyleTableRecord
  2
AM_ISO$SF
 70
     0
  4
"
 41
2.5
 42
1.0
 43
10.0
 44
1.0
 47
0.1
 48
0.1
 73
     0
 74
     0
 75
     1
 76
     1
 77
     1
 78
     8
 79
     2
140
3.5
141
0.0
143
0.0393701
146
0.71
147
1.5
172
     1
176
   256
177
   256
178
     2
271
     2
272
     3
274
     4
283
     0
284
     8
340
150
371
    -1
372
    -1
1001
ACAD_DSTYLE_DIMARC_LENGTH_SYMBOL
1070
   379
1070
     1
  0
DIMSTYLE
105
1818
330
15B
100
AcDbSymbolTableRecord
100
AcDbDimStyleTableRecord
  2
AM_ISO$SH
 70
     0
  4
"
 41
2.5
 42
1.0
 43
10.0
 44
1.0
 47
0.1
 48
0.1
 73
     0
 74
     0
 75
     1
 76
     1
 77
     1
 78
     8
 79
     2
140
3.5
141
0.0
143
0.0393701
144
2.0
146
0.71
147
1.5
172
     1
173
     1
176
   256
177
   256
178
     2
271
     2
272
     3
274
     4
283
     0
284
     8
340
150
343
1814
371
    -1
372
    -1
1001
ACAD_DSTYLE_DIMARC_LENGTH_SYMBOL
1070
   379
1070
     1
  0
DIMSTYLE
105
18B0
330
15B
100
AcDbSymbolTableRecord
100
AcDbDimStyleTableRecord
  2
STANDARD$0
 70
     0
140
10.0
179
     5
340
150
  0
ENDTAB
  0
TABLE
  2
BLOCK_RECORD
  5
1
330
0
100
AcDbSymbolTable
 70
     2
  0
BLOCK_RECORD
  5
2
102
{ACAD_XDICTIONARY
360
3
102
}
330
1
100
AcDbSymbolTableRecord
100
AcDbBlockTableRecord
  2
*MODEL_SPACE
340
146
  0
BLOCK_RECORD
  5
148
102
{ACAD_XDICTIONARY
360
149
102
}
330
1
100
AcDbSymbolTableRecord
100
AcDbBlockTableRecord
  2
*PAPER_SPACE
340
14D
  0
BLOCK_RECORD
  5
1814
330
1
100
AcDbSymbolTableRecord
100
AcDbBlockTableRecord
  2
GENAXEH
340
0
  0
ENDTAB
  0
ENDSEC
  0
SECTION
  2
BLOCKS
  0
BLOCK
  5
5
330
2
100
AcDbEntity
  8
0
100
AcDbBlockBegin
  2
*MODEL_SPACE
 70
     0
 10
0.0
 20
0.0
 30
0.0
  3
*MODEL_SPACE
  1

  0
ENDBLK
  5
145
330
2
100
AcDbEntity
  8
0
100
AcDbBlockEnd
  0
BLOCK
  5
14B
330
148
100
AcDbEntity
 67
     1
  8
0
100
AcDbBlockBegin
  2
*PAPER_SPACE
 70
     0
 10
0.0
 20
0.0
 30
0.0
  3
*PAPER_SPACE
  1

  0
ENDBLK
  5
14C
330
148
100
AcDbEntity
 67
     1
  8
0
100
AcDbBlockEnd
  0
BLOCK
  5
1816
330
1814
100
AcDbEntity
  8
0
100
AcDbBlockBegin
  2
GENAXEH
 70
     0
 10
0.0
 20
0.0
 30
0.0
  3
GENAXEH
  1

  0
LINE
  5
1815
330
1814
100
AcDbEntity
  8
0
100
AcDbLine
 10
-1.0
 20
0.0
 30
0.0
 11
1.0
 21
0.0
 31
0.0
  0
ENDBLK
  5
1817
330
1814
100
AcDbEntity
  8
0
100
AcDbBlockEnd
  0
ENDSEC
  0
SECTION
  2
ENTITIES
  0
LWPOLYLINE
  5
1A4E
330
2
100
AcDbEntity
  8
copper
  6
Continuous
100
AcDbPolyline
 90
        2
 70
   129
 43
1.75
 10
66.63121030836601
 20
232.2500000000004
 42
1.0
 10
68.381210308366
 20
232.2500000000004
 42
1.0
  0
LWPOLYLINE
  5
1A4F
330
2
100
AcDbEntity
  8
copper
  6
Continuous
100
AcDbPolyline
 90
        2
 70
   129
 43
1.75
 10
66.63121030836601
 20
233.7500000000003
 42
1.0
 10
68.381210308366
 20
233.7500000000003
 42
1.0
  0
LWPOLYLINE
  5
1A50
330
2
100
AcDbEntity
  8
copper
  6
Continuous
100
AcDbPolyline
 90
        2
 70
   129
 43
1.75
 10
61.381210308366
 20
232.2500000000004
 42
1.0
 10
63.13121030836601
 20
232.2500000000004
 42
1.0
  0
LWPOLYLINE
  5
1A51
330
2
100
AcDbEntity
  8
copper
  6
Continuous
100
AcDbPolyline
 90
        2
 70
   129
 43
1.75
 10
61.381210308366
 20
233.7500000000003
 42
1.0
 10
63.13121030836601
 20
233.7500000000003
 42
1.0
  0
LWPOLYLINE
  5
1A52
330
2
100
AcDbEntity
  8
copper
  6
Continuous
100
AcDbPolyline
 90
        2
 70
   129
 43
1.75
 10
56.13121030836601
 20
231.2500000000004
 42
1.0
 10
57.88121030836601
 20
231.2500000000004
 42
1.0
  0
LWPOLYLINE
  5
1A53
330
2
100
AcDbEntity
  8
copper
  6
Continuous
100
AcDbPolyline
 90
        2
 70
   129
 43
1.75
 10
56.13121030836601
 20
233.7500000000003
 42
1.0
 10
57.88121030836601
 20
233.7500000000003
 42
1.0
  0
LWPOLYLINE
  5
1A56
330
2
100
AcDbEntity
  8
copper
  6
Continuous
100
AcDbPolyline
 90
        2
 70
   128
 43
3.5
 10
67.50621030836601
 20
232.2500000000004
 10
67.50621030836601
 20
233.7500000000003
  0
LWPOLYLINE
  5
1A57
330
2
100
AcDbEntity
  8
copper
  6
Continuous
100
AcDbPolyline
 90
        2
 70
   128
 43
3.5
 10
62.25621030836601
 20
232.2500000000004
 10
62.25621030836601
 20
233.7500000000003
  0
LWPOLYLINE
  5
1A58
330
2
100
AcDbEntity
  8
copper
  6
Continuous
100
AcDbPolyline
 90
        2
 70
   128
 43
3.5
 10
57.006210308366
 20
231.2500000000004
 10
57.006210308366
 20
233.7500000000003
  0
LWPOLYLINE
  5
1DC1
330
2
100
AcDbEntity
  8
copper
  6
Continuous
100
AcDbPolyline
 90
        2
 70
   129
 43
0.6
 10
-312.7687896916341
 20
90.44204000000053
 42
1.0
 10
-312.1687896916337
 20
90.44204000000053
 42
1.0
  0
LWPOLYLINE
  5
1DC2
330
2
100
AcDbEntity
  8
copper
  6
Continuous
100
AcDbPolyline
 90
        2
 70
   129
 43
0.6
 10
-316.5687896916343
 20
90.44204000000036
 42
1.0
 10
-315.9687896916339
 20
90.44204000000036
 42
1.0
  0
LWPOLYLINE
  5
1DC3
330
2
100
AcDbEntity
  8
copper
  6
Continuous
100
AcDbPolyline
 90
        2
 70
   128
 43
1.199999999999999
 10
-316.2687896916341
 20
90.44204000000036
 10
-312.4687896916339
 20
90.44204000000053
  0
LWPOLYLINE
  5
1DC4
330
2
100
AcDbEntity
  8
copper
  6
Continuous
100
AcDbPolyline
 90
        2
 70
   129
 43
0.6
 10
-312.7687896916341
 20
88.64204000000052
 42
1.0
 10
-312.1687896916337
 20
88.64204000000052
 42
1.0
  0
LWPOLYLINE
  5
1DC5
330
2
100
AcDbEntity
  8
copper
  6
Continuous
100
AcDbPolyline
 90
        2
 70
   129
 43
0.6
 10
-316.5687896916343
 20
88.64204000000041
 42
1.0
 10
-315.9687896916339
 20
88.64204000000041
 42
1.0
  0
LWPOLYLINE
  5
1DC6
330
2
100
AcDbEntity
  8
copper
  6
Continuous
100
AcDbPolyline
 90
        2
 70
   128
 43
1.199999999999999
 10
-316.2687896916341
 20
88.64204000000041
 10
-312.4687896916339
 20
88.64204000000052
  0
LWPOLYLINE
  5
1FE4
330
2
100
AcDbEntity
  8
copper
  6
Continuous
100
AcDbPolyline
 90
        2
 70
   129
 43
1.75
 10
50.881210308366
 20
231.2500000000004
 42
1.0
 10
52.631210308366
 20
231.2500000000004
 42
1.0
  0
LWPOLYLINE
  5
1FE5
330
2
100
AcDbEntity
  8
copper
  6
Continuous
100
AcDbPolyline
 90
        2
 70
   129
 43
1.75
 10
50.881210308366
 20
233.7500000000003
 42
1.0
 10
52.631210308366
 20
233.7500000000003
 42
1.0
  0
LWPOLYLINE
  5
1FE6
330
2
100
AcDbEntity
  8
copper
  6
Continuous
100
AcDbPolyline
 90
        2
 70
   128
 43
3.5
 10
51.75621030836601
 20
231.2500000000004
 10
51.75621030836601
 20
233.7500000000003
  0
LWPOLYLINE
  5
2110
330
2
100
AcDbEntity
  8
copper
  6
Continuous
100
AcDbPolyline
 90
        2
 70
   129
 43
0.6
 10
413.0312103083659
 20
198.1311600000006
 42
-1.0
 10
412.4312103083656
 20
198.1311600000006
 42
-1.0
  0
LWPOLYLINE
  5
2111
330
2
100
AcDbEntity
  8
copper
  6
Continuous
100
AcDbPolyline
 90
        2
 70
   129
 43
0.6
 10
416.8312103083661
 20
198.1311600000004
 42
-1.0
 10
416.2312103083658
 20
198.1311600000004
 42
-1.0
  0
LWPOLYLINE
  5
2112
330
2
100
AcDbEntity
  8
copper
  6
Continuous
100
AcDbPolyline
 90
        2
 70
   128
 43
1.199999999999999
 10
416.5312103083659
 20
198.1311600000004
 10
412.7312103083657
 20
198.1311600000006
  0
LWPOLYLINE
  5
2113
330
2
100
AcDbEntity
  8
copper
  6
Continuous
100
AcDbPolyline
 90
        2
 70
   129
 43
0.6
 10
413.0312103083659
 20
196.3311600000006
 42
-1.0
 10
412.4312103083656
 20
196.3311600000006
 42
-1.0
  0
LWPOLYLINE
  5
2114
330
2
100
AcDbEntity
  8
copper
  6
Continuous
100
AcDbPolyline
 90
        2
 70
   129
 43
0.6
 10
416.8312103083661
 20
196.3311600000004
 42
-1.0
 10
416.2312103083658
 20
196.3311600000004
 42
-1.0
  0
LWPOLYLINE
  5
2115
330
2
100
AcDbEntity
  8
copper
  6
Continuous
100
AcDbPolyline
 90
        2
 70
   128
 43
1.199999999999999
 10
416.5312103083659
 20
196.3311600000004
 10
412.7312103083657
 20
196.3311600000006
  0
LWPOLYLINE
  5
245E
330
2
100
AcDbEntity
  8
copper
  6
Continuous
100
AcDbPolyline
 90
        2
 70
   129
 43
1.75
 10
73.63121030836601
 20
232.2500000000005
 42
-1.0
 10
71.88121030836601
 20
232.2500000000005
 42
-1.0
  0
LWPOLYLINE
  5
245F
330
2
100
AcDbEntity
  8
copper
  6
Continuous
100
AcDbPolyline
 90
        2
 70
   129
 43
1.75
 10
73.63121030836601
 20
233.7500000000003
 42
-1.0
 10
71.88121030836601
 20
233.7500000000003
 42
-1.0
  0
LWPOLYLINE
  5
2460
330
2
100
AcDbEntity
  8
copper
  6
Continuous
100
AcDbPolyline
 90
        2
 70
   129
 43
1.75
 10
78.881210308366
 20
232.2500000000005
 42
-1.0
 10
77.131210308366
 20
232.2500000000005
 42
-1.0
  0
LWPOLYLINE
  5
2461
330
2
100
AcDbEntity
  8
copper
  6
Continuous
100
AcDbPolyline
 90
        2
 70
   129
 43
1.75
 10
78.881210308366
 20
233.7500000000003
 42
-1.0
 10
77.131210308366
 20
233.7500000000003
 42
-1.0
  0
LWPOLYLINE
  5
2462
330
2
100
AcDbEntity
  8
copper
  6
Continuous
100
AcDbPolyline
 90
        2
 70
   129
 43
1.75
 10
84.13121030836601
 20
231.2500000000004
 42
-1.0
 10
82.381210308366
 20
231.2500000000004
 42
-1.0
  0
LWPOLYLINE
  5
2463
330
2
100
AcDbEntity
  8
copper
  6
Continuous
100
AcDbPolyline
 90
        2
 70
   129
 43
1.75
 10
84.13121030836601
 20
233.7500000000003
 42
-1.0
 10
82.381210308366
 20
233.7500000000003
 42
-1.0
  0
LWPOLYLINE
  5
2464
330
2
100
AcDbEntity
  8
copper
  6
Continuous
100
AcDbPolyline
 90
        2
 70
   128
 43
3.5
 10
72.756210308366
 20
232.2500000000005
 10
72.756210308366
 20
233.7500000000003
  0
LWPOLYLINE
  5
2465
330
2
100
AcDbEntity
  8
copper
  6
Continuous
100
AcDbPolyline
 90
        2
 70
   128
 43
3.5
 10
78.00621030836601
 20
232.2500000000005
 10
78.00621030836601
 20
233.7500000000003
  0
LWPOLYLINE
  5
2466
330
2
100
AcDbEntity
  8
copper
  6
Continuous
100
AcDbPolyline
 90
        2
 70
   128
 43
3.5
 10
83.256210308366
 20
231.2500000000004
 10
83.256210308366
 20
233.7500000000003
  0
LWPOLYLINE
  5
2467
330
2
100
AcDbEntity
  8
copper
  6
Continuous
100
AcDbPolyline
 90
        2
 70
   129
 43
1.75
 10
89.38121030836601
 20
231.2500000000004
 42
-1.0
 10
87.631210308366
 20
231.2500000000004
 42
-1.0
  0
LWPOLYLINE
  5
2468
330
2
100
AcDbEntity
  8
copper
  6
Continuous
100
AcDbPolyline
 90
        2
 70
   129
 43
1.75
 10
89.38121030836601
 20
233.7500000000003
 42
-1.0
 10
87.631210308366
 20
233.7500000000003
 42
-1.0
  0
LWPOLYLINE
  5
2469
330
2
100
AcDbEntity
  8
copper
  6
Continuous
100
AcDbPolyline
 90
        2
 70
   128
 43
3.5
 10
88.50621030836601
 20
231.2500000000004
 10
88.50621030836601
 20
233.7500000000003
  0
LWPOLYLINE
  5
265C
330
2
100
AcDbEntity
  8
copper
  6
Continuous
100
AcDbPolyline
 90
      265
 70
   128
 43
1.6695
 10
88.50621030836601
 20
232.2500000000005
 10
88.50621030836601
 20
229.7059600000004
 42
-0.4142135623730951
 10
83.11125030836592
 20
224.3110000000004
 10
79.6752903083659
 20
224.3110000000004
 42
0.9999999999999998
 10
79.67529030836567
 20
220.7143600000004
 10
91.10705030836607
 20
220.7143600000003
 42
0.4142135623730951
 10
92.90537030836606
 20
222.5126800000004
 10
92.90537030836594
 20
229.7059600000004
 42
-0.4142135623730951
 10
98.30033030836602
 20
235.1009200000004
 10
549.6583886487106
 20
235.1009200000005
 42
-0.9999999999999998
 10
549.6583886487106
 20
224.3110000000005
 10
105.4944503083656
 20
224.3110000000004
 42
0.9999999999999998
 10
105.4944503083656
 20
220.7143600000004
 10
556.2882824673692
 20
220.7143600000004
 42
-0.9999999999999998
 10
556.2882824673692
 20
209.9244400000004
 10
79.6752903083659
 20
209.9244400000004
 42
0.9999999999999998
 10
79.6752903083659
 20
206.3278000000003
 10
562.4087099324178
 20
206.3278000000004
 42
-0.9999999999999998
 10
562.4087099324178
 20
195.5378800000004
 10
448.425330308366
 20
195.5378800000004
 42
0.9999999999999998
 10
448.425330308366
 20
191.9412400000004
 10
568.0384589448322
 20
191.9412400000004
 42
-0.9999999999999998
 10
568.0384589448322
 20
181.1513200000004
 10
443.783473971905
 20
181.1513200000004
 42
-0.3695606042265023
 10
438.4530437944522
 20
185.7143500000004
 42
0.8560341000809133
 10
434.8994236761503
 20
185.7143500000004
 42
-0.8560341000809197
 10
424.2385633212446
 20
185.7143500000004
 42
0.8560341000809133
 10
420.6849432029427
 20
185.7143500000004
 42
-0.8560341000809197
 10
410.024082848037
 20
185.7143500000004
 42
0.925437353709951
 10
406.4489527888861
 20
185.4370400000004
 42
-0.4142135623730951
 10
401.763232788886
 20
180.7513200000004
 10
401.363232788886
 20
180.7513200000003
 42
-0.4142135623730951
 10
396.677512788886
 20
185.4370400000004
 10
396.677512788886
 20
191.7878800000004
 42
0.4142135623730951
 10
394.927512788886
 20
193.5378800000004
 10
76.72281001395385
 20
193.5378800000004
 42
0.9999999999999998
 10
76.72281001395385
 20
190.3412400000003
 10
388.6825527888859
 20
190.3412400000004
 42
-0.9999999999999998
 10
388.6825527888859
 20
180.7513200000003
 10
76.92449030836596
 20
180.7513200000003
 42
0.9999999999999998
 10
76.92449030836596
 20
177.5546800000003
 10
573.1940032438956
 20
177.5546800000004
 42
-0.9999999999999998
 10
573.1940032438956
 20
166.7647600000004
 10
77.32449030836574
 20
166.7647600000004
 42
0.9999999999999998
 10
77.32449030836597
 20
163.1681200000004
 10
577.8897875970105
 20
163.1681200000004
 42
-0.9999999999999998
 10
577.8897875970105
 20
152.3782000000004
 10
77.32449030836574
 20
152.3782000000004
 42
0.9999999999999998
 10
77.32449030836597
 20
148.7815600000003
 10
582.1384619826117
 20
148.7815600000003
 42
-0.9999999999999998
 10
582.1384619826117
 20
137.9916400000004
 10
77.32449030836574
 20
137.9916400000003
 42
0.9999999999999998
 10
77.32449030836597
 20
134.3950000000003
 10
585.9510747053982
 20
134.3950000000004
 42
-0.9999999999999998
 10
585.9510747053982
 20
123.6050800000004
 10
77.32449030836574
 20
123.6050800000003
 42
0.9999999999999998
 10
77.32449030836597
 20
120.0084400000004
 10
589.3372320654948
 20
120.0084400000004
 42
-0.9999999999999998
 10
589.3372320654948
 20
109.2185200000004
 10
77.32449030836574
 20
109.2185200000003
 42
0.9999999999999998
 10
77.32449030836597
 20
105.6218800000003
 10
592.3052304720349
 20
105.6218800000004
 42
-0.9999999999999998
 10
592.3052304720349
 20
94.83196000000043
 10
174.7194503083656
 20
94.83196000000035
 42
0.9999999999999998
 10
174.7194503083656
 20
91.23532000000036
 10
594.8621655812989
 20
91.23532000000039
 42
-0.9999999999999998
 10
594.8621655812989
 20
80.4454000000004
 10
174.719450308366
 20
80.44540000000035
 42
0.9999999999999998
 10
174.719450308366
 20
76.84876000000035
 10
597.0140220342131
 20
76.84876000000042
 42
-0.9999999999999998
 10
597.0140220342131
 20
66.05884000000043
 10
174.7194503083656
 20
66.05884000000033
 42
0.9999999999999998
 10
174.719450308366
 20
62.46220000000035
 10
598.7657465858937
 20
62.4622000000004
 42
-0.9999999999999998
 10
598.7657465858937
 20
51.6722800000004
 10
174.7194503083658
 20
51.67228000000036
 42
0.9999999999999998
 10
174.719450308366
 20
48.07564000000036
 10
600.1213068019815
 20
48.07564000000041
 42
-0.9999999999999998
 10
600.1213068019815
 20
37.28572000000042
 10
174.7194503083658
 20
37.28572000000036
 42
0.9999999999999998
 10
174.719450308366
 20
33.68908000000036
 10
601.083736999783
 20
33.6890800000004
 42
-0.9999999999999998
 10
601.083736999783
 20
22.89916000000039
 10
168.4253303083655
 20
22.89916000000035
 42
-0.4142135623730943
 10
163.0303703083665
 20
28.29412000000036
 10
163.0303703083666
 20
93.03364000000035
 42
0.5837431833924255
 10
160.3032704559257
 20
94.57355000000033
 42
-0.2782252428505091
 10
154.7305913412805
 20
94.57355000000033
 42
0.2782252428505092
 10
152.8730316363988
 20
94.57355000000033
 42
-0.2782252428505086
 10
147.3003525217536
 20
94.57355000000033
 42
0.2782252428505092
 10
145.442792816872
 20
94.57355000000033
 42
-0.2782252428505086
 10
139.8701137022268
 20
94.57355000000033
 42
0.2782252428505086
 10
138.0125539973451
 20
94.57355000000033
 42
-0.2782252428505086
 10
132.4398748827
 20
94.57355000000033
 42
0.2782252428505086
 10
130.5823151778183
 20
94.57355000000033
 42
-0.2782252428505086
 10
125.0096360631731
 20
94.57355000000033
 42
0.2782252428505086
 10
123.1520763582914
 20
94.57355000000033
 42
-0.2782252428505086
 10
117.5793972436463
 20
94.57355000000033
 42
0.2782252428505086
 10
115.7218375387646
 20
94.57355000000033
 42
-0.2782252428505086
 10
110.1491584241194
 20
94.57355000000033
 42
0.2782252428505086
 10
108.2915987192377
 20
94.57355000000033
 42
-0.2782252428505086
 10
102.7189196045926
 20
94.57355000000033
 42
0.2782252428505086
 10
100.8613598997109
 20
94.57355000000033
 42
-0.2782252428505086
 10
95.28868078506574
 20
94.57355000000033
 42
0.2782252428505086
 10
93.43112108018406
 20
94.57355000000033
 42
-0.2782252428505086
 10
87.8584419655389
 20
94.57355000000033
 42
0.2782252428505086
 10
86.0008822606572
 20
94.57355000000033
 42
-0.2782252428505086
 10
80.42820314601206
 20
94.57355000000033
 42
0.3350802299780522
 10
78.27287765316487
 20
94.34876000000043
 42
-0.1898745135776852
 10
74.59324073194584
 20
92.89916000000074
 10
-20.96962969163451
 20
92.89916000000067
 42
0.4142135623730951
 10
-22.7679496916345
 20
91.10084000000069
 10
-22.76794969163439
 20
28.29412000000034
 42
-0.4142135623730942
 10
-28.16290969163447
 20
22.89916000000038
 10
-460.821316383051
 20
22.89916000000039
 42
-0.9999999999999998
 10
-460.821316383051
 20
33.68908000000037
 10
-34.45702969163358
 20
33.68908000000033
 42
0.9999999999999998
 10
-34.45702969163404
 20
37.28572000000032
 10
-459.8588861852495
 20
37.28572000000038
 42
-0.9999999999999998
 10
-459.8588861852495
 20
48.0756400000004
 10
-34.45702969163381
 20
48.07564000000033
 42
0.9999999999999998
 10
-34.45702969163404
 20
51.67228000000032
 10
-458.5033259691617
 20
51.67228000000037
 42
-0.9999999999999998
 10
-458.5033259691617
 20
62.46220000000037
 10
-34.45702969163381
 20
62.46220000000032
 42
0.9999999999999998
 10
-34.45702969163404
 20
66.05884000000031
 10
-456.7516014174811
 20
66.05884000000038
 42
-0.9999999999999998
 10
-456.7516014174811
 20
76.84876000000041
 10
-34.45702969163358
 20
76.84876000000034
 42
0.4142135623730951
 10
-32.65870969163405
 20
78.64708000000033
 10
-32.65870969163416
 20
91.10084000000073
 42
0.9999999999999998
 10
-36.25534969163402
 20
91.10084000000073
 10
-36.25534969163437
 20
85.84036000000027
 42
-0.9999999999999998
 10
-47.04526969163419
 20
85.84036000000027
 10
-47.04526969163453
 20
91.10084000000073
 42
0.9999999999999998
 10
-50.6419096916344
 20
91.10084000000073
 10
-50.64190969163473
 20
85.84036000000027
 42
-0.9999999999999998
 10
-61.43182969163456
 20
85.84036000000027
 10
-61.4318296916349
 20
91.10084000000073
 42
0.9999999999999998
 10
-65.02846969163477
 20
91.10084000000073
 10
-65.02846969163511
 20
85.84036000000027
 42
-0.9999999999999998
 10
-75.81838969163493
 20
85.84036000000027
 10
-75.81838969163527
 20
91.10084000000073
 42
0.9999999999999998
 10
-79.41502969163514
 20
91.10084000000073
 10
-79.41502969163548
 20
85.84036000000027
 42
-0.9999999999999998
 10
-90.2049496916353
 20
85.84036000000027
 10
-90.20494969163564
 20
91.10084000000073
 42
0.9999999999999998
 10
-93.8015896916355
 20
91.10084000000073
 10
-93.80158969163586
 20
85.84036000000027
 42
-0.9999999999999998
 10
-104.5915096916357
 20
85.84036000000027
 10
-104.591509691636
 20
91.10084000000073
 42
0.9999999999999998
 10
-108.1881496916359
 20
91.10084000000073
 10
-108.1881496916362
 20
85.84036000000027
 42
-0.9999999999999998
 10
-118.978069691636
 20
85.84036000000027
 10
-118.9780696916364
 20
91.10084000000073
 42
0.9999999999999998
 10
-122.5747096916362
 20
91.10084000000073
 10
-122.5747096916366
 20
85.84036000000027
 42
-0.9999999999999998
 10
-133.3646296916364
 20
85.84036000000027
 10
-133.3646296916367
 20
91.10084000000073
 42
0.9999999999999998
 10
-136.9612696916366
 20
91.10084000000073
 10
-136.9612696916369
 20
85.84036000000027
 42
-0.9999999999999998
 10
-147.7511896916368
 20
85.84036000000027
 10
-147.7511896916371
 20
91.10084000000073
 42
0.9999999999999998
 10
-151.347829691637
 20
91.10084000000073
 10
-151.3478296916373
 20
85.84036000000027
 42
-0.9999999999999998
 10
-162.1377496916371
 20
85.84036000000027
 10
-162.1377496916375
 20
91.10084000000073
 42
0.9999999999999998
 10
-165.7343896916374
 20
91.10084000000073
 10
-165.7343896916377
 20
85.84036000000027
 42
-0.9999999999999998
 10
-176.5243096916375
 20
85.84036000000027
 10
-176.5243096916378
 20
91.10084000000073
 42
0.9999999999999998
 10
-180.1209496916377
 20
91.10084000000073
 10
-180.1209496916381
 20
85.84036000000027
 42
-0.9999999999999998
 10
-190.9108696916379
 20
85.84036000000027
 10
-190.9108696916382
 20
91.10084000000073
 42
0.9999999999999998
 10
-194.5075096916381
 20
91.10084000000073
 10
-194.5075096916384
 20
85.84036000000027
 42
-0.9999999999999998
 10
-205.2974296916383
 20
85.84036000000027
 10
-205.2974296916386
 20
91.10084000000073
 42
0.9999999999999998
 10
-208.8940696916385
 20
91.10084000000073
 10
-208.8940696916388
 20
85.84036000000027
 42
-0.9999999999999998
 10
-219.6839896916387
 20
85.84036000000027
 10
-219.683989691639
 20
91.10084000000073
 42
0.9999999999999998
 10
-223.2806296916389
 20
91.10084000000073
 10
-223.2806296916392
 20
85.84036000000027
 42
-0.9999999999999998
 10
-234.0705496916388
 20
85.84036000000027
 10
-234.0705496916394
 20
91.10084000000073
 42
0.9999999999999998
 10
-237.6671896916392
 20
91.10084000000073
 10
-237.6671896916396
 20
85.84036000000027
 42
-0.9999999999999998
 10
-248.4571096916396
 20
85.84036000000027
 10
-248.4571096916397
 20
91.10084000000073
 42
0.9999999999999998
 10
-252.0537496916396
 20
91.10084000000073
 10
-252.05374969164
 20
85.84036000000027
 42
-0.9999999999999998
 10
-262.8436696916395
 20
85.84036000000027
 10
-262.8436696916401
 20
91.10084000000073
 42
0.9999999999999998
 10
-266.44030969164
 20
91.10084000000073
 10
-266.4403096916403
 20
85.84036000000027
 42
-0.9999999999999998
 10
-277.2302296916404
 20
85.84036000000027
 10
-277.2302296916405
 20
91.10084000000073
 42
0.9999999999999998
 10
-280.8268696916404
 20
91.10084000000073
 10
-280.8268696916407
 20
85.84036000000027
 42
-0.9999999999999998
 10
-291.6167896916403
 20
85.84036000000027
 10
-291.6167896916409
 20
91.10084000000073
 42
0.9999999999999998
 10
-295.2134296916407
 20
91.10084000000073
 10
-295.213429691641
 20
85.84036000000027
 42
-0.4142135623730951
 10
-300.6083896916412
 20
80.44540000000031
 10
-454.5997449645669
 20
80.44540000000038
 42
-0.9999999999999998
 10
-454.5997449645669
 20
91.23532000000038
 10
-348.162909691634
 20
91.23532000000038
 42
0.9999999999999998
 10
-348.162909691634
 20
94.83196000000038
 10
-452.0428098553029
 20
94.8319600000004
 42
-0.9999999999999998
 10
-452.0428098553029
 20
105.6218800000004
 10
-343.5215158365045
 20
105.6218800000004
 42
-0.3695270215212241
 10
-338.1911840224427
 20
101.0594800000004
 42
0.8559317054078812
 10
-334.6376294797348
 20
101.0594800000003
 42
-0.8559317054078981
 10
-323.9769658516113
 20
101.0594800000004
 42
0.8559317054078759
 10
-320.4234113089035
 20
101.0594800000003
 42
-0.8559317054078981
 10
-309.7627476807799
 20
101.0594800000004
 42
0.8559317054078759
 10
-306.2091931380721
 20
101.0594800000003
 42
-0.3695270215212241
 10
-300.8788613240104
 20
105.6218800000003
 10
60.58713030836634
 20
105.6218800000003
 42
0.9999999999999998
 10
60.58713030836611
 20
109.2185200000003
 10
-449.0748114487628
 20
109.2185200000004
 42
-0.9999999999999998
 10
-449.0748114487628
 20
120.0084400000004
 10
60.58713030836634
 20
120.0084400000003
 42
0.9999999999999998
 10
60.58713030836611
 20
123.6050800000003
 10
-445.6886540886662
 20
123.6050800000004
 42
-0.9999999999999998
 10
-445.6886540886662
 20
134.3950000000003
 10
60.58713030836634
 20
134.3950000000003
 42
0.9999999999999998
 10
60.58713030836611
 20
137.9916400000003
 10
-441.8760413658796
 20
137.9916400000003
 42
-0.9999999999999998
 10
-441.8760413658796
 20
148.7815600000003
 10
60.58713030836634
 20
148.7815600000003
 42
0.9999999999999998
 10
60.58713030836611
 20
152.3782000000003
 10
-437.6273669802785
 20
152.3782000000004
 42
-0.9999999999999998
 10
-437.6273669802785
 20
163.1681200000004
 10
60.58713030836634
 20
163.1681200000003
 42
0.9999999999999998
 10
60.58713030836611
 20
166.7647600000003
 10
-432.9315826271636
 20
166.7647600000004
 42
-0.9999999999999998
 10
-432.9315826271636
 20
177.5546800000004
 10
60.58713030836634
 20
177.5546800000003
 42
0.9999999999999998
 10
60.58713030836611
 20
181.1513200000002
 10
-427.7760383281002
 20
181.1513200000004
 42
-0.9999999999999998
 10
-427.7760383281002
 20
191.9412400000004
 10
60.58713030836634
 20
191.9412400000003
 42
0.9999999999999998
 10
60.58713030836611
 20
195.5378800000003
 10
-422.1462893156858
 20
195.5378800000004
 42
-0.9999999999999998
 10
-422.1462893156858
 20
206.3278000000004
 10
60.58713030836634
 20
206.3278000000003
 42
0.9999999999999998
 10
60.58713030836611
 20
209.9244400000003
 10
-416.0258618506373
 20
209.9244400000004
 42
-0.9999999999999998
 10
-416.0258618506373
 20
220.7143600000004
 10
34.76797030836642
 20
220.7143600000003
 42
0.9999999999999998
 10
34.76797030836642
 20
224.3110000000004
 10
-409.3959680319785
 20
224.3110000000005
 42
-0.9999999999999998
 10
-409.3959680319785
 20
235.1009200000004
 10
41.96209030836598
 20
235.1009200000004
 42
-0.4142135623730951
 10
47.35705030836598
 20
229.7059600000003
 10
47.35705030836584
 20
222.5126800000003
 42
0.4142135623730951
 10
49.15537030836595
 20
220.7143600000004
 10
60.58713030836611
 20
220.7143600000003
 42
0.9999999999999998
 10
60.58713030836634
 20
224.3110000000003
 10
57.15117030836609
 20
224.3110000000004
 42
-0.4142135623730951
 10
51.75621030836609
 20
229.7059600000004
 10
51.75621030836601
 20
232.2500000000004
  0
LWPOLYLINE
  5
265D
330
2
100
AcDbEntity
  8
copper
  6
Continuous
100
AcDbPolyline
 90
      109
 70
   128
 43
1.6695
 10
83.256210308366
 20
232.2500000000005
 10
83.25621030836577
 20
229.7059600000004
 42
-0.4142135623730951
 10
81.45789030836567
 20
227.9076400000004
 10
79.6752903083659
 20
227.9076400000004
 42
0.9999999999999998
 10
79.67529030836567
 20
217.1177200000004
 10
91.10705030836607
 20
217.1177200000005
 42
0.4142135623730951
 10
96.50201030836605
 20
222.5126800000004
 10
96.50201030836615
 20
229.7059600000004
 42
-0.4142135623730951
 10
98.30033030836602
 20
231.5042800000004
 10
549.6583886487106
 20
231.5042800000005
 42
-0.9999999999999998
 10
549.6583886487106
 20
227.9076400000004
 10
105.4944503083656
 20
227.9076400000004
 42
0.9999999999999998
 10
105.4944503083656
 20
217.1177200000004
 10
556.2882824673692
 20
217.1177200000005
 42
-0.9999999999999998
 10
556.2882824673692
 20
213.5210800000004
 10
79.6752903083659
 20
213.5210800000004
 42
0.9999999999999998
 10
79.6752903083659
 20
202.7311600000004
 10
562.4087099324178
 20
202.7311600000004
 42
-0.9999999999999998
 10
562.4087099324178
 20
199.1345200000004
 10
448.425330308366
 20
199.1345200000004
 42
0.9999999999999998
 10
448.425330308366
 20
188.3446000000004
 10
568.0384589448322
 20
188.3446000000004
 42
-0.9999999999999998
 10
568.0384589448322
 20
184.7479600000004
 10
443.783473971905
 20
184.7479600000004
 42
-0.369560604226499
 10
442.0066639127541
 20
186.2689700000004
 42
0.8560341000809241
 10
431.3458035578483
 20
186.2689700000004
 42
-0.8560341000809097
 10
427.7921834395465
 20
186.2689700000004
 42
0.8560341000809238
 10
417.1313230846408
 20
186.2689700000004
 42
-0.8560341000809097
 10
413.577702966339
 20
186.2689700000004
 42
0.9254373537099567
 10
402.8523127888861
 20
185.4370400000004
 42
-0.9999999999999998
 10
399.874152788886
 20
185.4370400000004
 10
399.874152788886
 20
191.4811600000005
 42
0.4142135623730951
 10
394.624152788886
 20
196.7311600000005
 10
76.72281001395385
 20
196.7311600000004
 42
0.9999999999999998
 10
76.72281001395385
 20
187.1446000000003
 10
388.6825527888859
 20
187.1446000000004
 42
-0.9999999999999998
 10
388.6825527888859
 20
183.9479600000004
 10
76.92449030836596
 20
183.9479600000003
 42
0.9999999999999998
 10
76.92449030836596
 20
173.9580400000004
 10
573.1940032438956
 20
173.9580400000004
 42
-0.9999999999999998
 10
573.1940032438956
 20
170.3614000000004
 10
77.32449030836574
 20
170.3614000000004
 42
0.9999999999999998
 10
77.32449030836597
 20
159.5714800000004
 10
577.8897875970105
 20
159.5714800000004
 42
-0.9999999999999998
 10
577.8897875970105
 20
155.9748400000004
 10
77.32449030836574
 20
155.9748400000003
 42
0.9999999999999998
 10
77.32449030836597
 20
145.1849200000004
 10
582.1384619826117
 20
145.1849200000004
 42
-0.9999999999999998
 10
582.1384619826117
 20
141.5882800000003
 10
77.32449030836574
 20
141.5882800000003
 42
0.9999999999999998
 10
77.32449030836597
 20
130.7983600000003
 10
585.9510747053982
 20
130.7983600000004
 42
-0.9999999999999998
 10
585.9510747053982
 20
127.2017200000004
 10
77.32449030836574
 20
127.2017200000003
 42
0.9999999999999998
 10
77.32449030836597
 20
116.4118000000004
 10
589.3372320654948
 20
116.4118000000004
 42
-0.9999999999999998
 10
589.3372320654948
 20
112.8151600000004
 10
77.32449030836574
 20
112.8151600000003
 42
0.9999999999999998
 10
77.32449030836597
 20
102.0252400000004
 10
592.3052304720349
 20
102.0252400000004
 42
-0.9999999999999998
 10
592.3052304720349
 20
98.42860000000042
 10
174.7194503083656
 20
98.42860000000037
 42
0.9999999999999998
 10
174.7194503083656
 20
87.63868000000037
 10
594.8621655812989
 20
87.63868000000041
 42
-0.9999999999999998
 10
594.8621655812989
 20
84.04204000000039
 10
174.719450308366
 20
84.04204000000037
 42
0.9999999999999998
 10
174.719450308366
 20
73.25212000000037
 10
597.0140220342131
 20
73.2521200000004
 42
-0.9999999999999998
 10
597.0140220342131
 20
69.6554800000004
 10
174.7194503083656
 20
69.65548000000035
 42
0.9999999999999998
 10
174.719450308366
 20
58.86556000000037
 10
598.7657465858937
 20
58.8655600000004
 42
-0.9999999999999998
 10
598.7657465858937
 20
55.26892000000038
 10
174.7194503083658
 20
55.26892000000034
 42
0.9999999999999998
 10
174.719450308366
 20
44.47900000000038
 10
600.1213068019815
 20
44.4790000000004
 42
-0.9999999999999998
 10
600.1213068019815
 20
40.8823600000004
 10
174.7194503083658
 20
40.88236000000036
 42
0.9999999999999998
 10
174.719450308366
 20
30.09244000000038
 10
601.083736999783
 20
30.09244000000041
 42
-0.9999999999999998
 10
601.083736999783
 20
26.49580000000038
 10
168.4253303083655
 20
26.49580000000036
 42
-0.4142135623730927
 10
166.6270103083665
 20
28.29412000000036
 10
166.6270103083666
 20
93.03364000000035
 42
0.5837431833924257
 10
158.4457107510439
 20
97.65337000000034
 42
-0.2782252428505091
 10
156.5881510461622
 20
97.65337000000034
 42
0.2782252428505092
 10
151.0154719315171
 20
97.65337000000034
 42
-0.2782252428505086
 10
149.1579122266354
 20
97.65337000000032
 42
0.2782252428505092
 10
143.5852331119902
 20
97.65337000000034
 42
-0.2782252428505086
 10
141.7276734071085
 20
97.65337000000032
 42
0.2782252428505092
 10
136.1549942924634
 20
97.65337000000034
 42
-0.2782252428505086
 10
134.2974345875817
 20
97.65337000000032
 42
0.2782252428505086
 10
128.7247554729366
 20
97.65337000000034
 42
-0.2782252428505086
 10
126.8671957680548
 20
97.65337000000032
 42
0.2782252428505086
 10
121.2945166534097
 20
97.65337000000034
 42
-0.2782252428505086
 10
119.436956948528
 20
97.65337000000032
 42
0.2782252428505086
 10
113.8642778338829
 20
97.65337000000034
 42
-0.2782252428505086
 10
112.0067181290012
 20
97.65337000000032
 42
0.2782252428505086
 10
106.434039014356
 20
97.65337000000034
 42
-0.2782252428505086
 10
104.5764793094743
 20
97.65337000000032
 42
0.2782252428505086
 10
99.00380019482918
 20
97.65337000000034
 42
-0.2782252428505086
 10
97.14624048994748
 20
97.65337000000032
 42
0.2782252428505086
 10
91.57356137530232
 20
97.65337000000034
 42
-0.2782252428505086
 10
89.71600167042062
 20
97.65337000000032
 42
0.2782252428505086
 10
84.14332255577548
 20
97.65337000000034
 42
-0.2782252428505086
 10
82.28576285089378
 20
97.65337000000032
 42
0.3350802299780526
 10
75.81978637235216
 20
96.97900000000061
 42
-0.1866225564731192
 10
74.59324073194584
 20
96.49580000000071
 42
0.1866225564731266
 10
75.81978637235216
 20
96.97900000000062
  0
LWPOLYLINE
  5
265E
330
2
100
AcDbEntity
  8
copper
  6
Continuous
100
AcDbPolyline
 90
      156
 70
   128
 43
1.6695
 10
57.006210308366
 20
232.2500000000004
 10
57.00621030836632
 20
229.7059600000002
 42
0.4142135623730582
 10
58.80453030836628
 20
227.9076400000003
 10
60.58713030836635
 20
227.9076400000003
 42
-1.0
 10
60.58713030836637
 20
217.1177200000004
 10
49.15537030836593
 20
217.1177200000004
 42
-0.4142135623731006
 10
43.76041030836598
 20
222.5126800000004
 10
43.76041030836598
 20
229.7059600000003
 42
0.4142135623730951
 10
41.96209030836598
 20
231.5042800000004
 10
-409.3959680319785
 20
231.5042800000004
 42
1.0
 10
-409.3959680319785
 20
227.9076400000004
 10
34.76797030836642
 20
227.9076400000003
 42
-1.0
 10
34.76797030836642
 20
217.1177200000004
 10
-416.0258618506373
 20
217.1177200000004
 42
1.0
 10
-416.0258618506373
 20
213.5210800000003
 10
60.58713030836611
 20
213.5210800000003
 42
-1.0
 10
60.58713030836611
 20
202.7311600000003
 10
-422.1462893156858
 20
202.7311600000004
 42
1.0
 10
-422.1462893156858
 20
199.1345200000004
 10
60.58713030836611
 20
199.1345200000002
 42
-1.0
 10
60.58713030836611
 20
188.3446000000003
 10
-427.7760383281002
 20
188.3446000000004
 42
1.0
 10
-427.7760383281002
 20
184.7479600000004
 10
60.58713030836611
 20
184.7479600000002
 42
-1.0
 10
60.58713030836611
 20
173.9580400000003
 10
-432.9315826271636
 20
173.9580400000004
 42
1.0
 10
-432.9315826271636
 20
170.3614000000004
 10
60.58713030836611
 20
170.3614000000003
 42
-1.0
 10
60.58713030836611
 20
159.5714800000004
 10
-437.6273669802785
 20
159.5714800000004
 42
1.0
 10
-437.6273669802785
 20
155.9748400000004
 10
60.58713030836611
 20
155.9748400000002
 42
-1.0
 10
60.58713030836611
 20
145.1849200000003
 10
-441.8760413658796
 20
145.1849200000004
 42
1.0
 10
-441.8760413658796
 20
141.5882800000003
 10
60.58713030836611
 20
141.5882800000002
 42
-1.0
 10
60.58713030836611
 20
130.7983600000003
 10
-445.6886540886662
 20
130.7983600000004
 42
1.0
 10
-445.6886540886662
 20
127.2017200000003
 10
60.58713030836611
 20
127.2017200000003
 42
-1.0
 10
60.58713030836611
 20
116.4118000000004
 10
-449.0748114487628
 20
116.4118000000004
 42
1.0
 10
-449.0748114487628
 20
112.8151600000004
 10
60.58713030836611
 20
112.8151600000003
 42
-1.0
 10
60.58713030836611
 20
102.0252400000003
 10
-300.8788613240103
 20
102.0252400000003
 42
0.3695270215212147
 10
-302.6556385953642
 20
100.5044400000004
 42
-0.8559317054078629
 10
-313.3163022234878
 20
100.50444
 42
0.8559317054077888
 10
-316.8698567661956
 20
100.5044400000004
 42
-0.8559317054078629
 10
-327.5305203943191
 20
100.5044400000001
 42
0.8559317054077888
 10
-331.0840749370269
 20
100.5044400000004
 42
-0.8559317054078686
 10
-341.7447385651505
 20
100.5044400000004
 42
0.3695270215212223
 10
-343.5215158365045
 20
102.0252400000003
 10
-452.0428098553029
 20
102.0252400000004
 42
1.0
 10
-452.0428098553029
 20
98.4286000000004
 10
-348.162909691634
 20
98.42860000000039
 42
-1.0
 10
-348.162909691634
 20
87.63868000000039
 10
-454.5997449645669
 20
87.63868000000041
 42
1.0
 10
-454.5997449645669
 20
84.04204000000037
 10
-300.6083896916412
 20
84.04204000000028
 42
0.4142135623730627
 10
-298.8100696916412
 20
85.84036000000008
 10
-298.8100696916407
 20
91.10084000000091
 42
-1.0
 10
-288.0201496916408
 20
91.10084000000108
 10
-288.0201496916403
 20
85.84036000000017
 42
1.0
 10
-284.4235096916403
 20
85.84036000000008
 10
-284.4235096916403
 20
91.10084000000068
 42
-1.0
 10
-273.6335896916404
 20
91.10084000000062
 10
-273.6335896916404
 20
85.84036000000017
 42
1.0
 10
-270.0369496916404
 20
85.84036000000008
 10
-270.03694969164
 20
91.10084000000091
 42
-1.0
 10
-259.24702969164
 20
91.10084000000108
 10
-259.2470296916395
 20
85.84036000000017
 42
1.0
 10
-255.6503896916396
 20
85.84036000000008
 10
-255.6503896916396
 20
91.10084000000068
 42
-1.0
 10
-244.8604696916397
 20
91.10084000000062
 10
-244.8604696916397
 20
85.84036000000017
 42
1.0
 10
-241.2638296916397
 20
85.84036000000008
 10
-241.2638296916392
 20
91.10084000000091
 42
-1.0
 10
-230.4739096916393
 20
91.10084000000108
 10
-230.4739096916388
 20
85.84036000000017
 42
1.0
 10
-226.8772696916388
 20
85.84036000000008
 10
-226.8772696916388
 20
91.10084000000078
 42
-1.0
 10
-216.0873496916389
 20
91.10084000000084
 10
-216.0873496916387
 20
85.84036000000017
 42
1.0
 10
-212.4907096916387
 20
85.84036000000008
 10
-212.4907096916385
 20
91.10084000000078
 42
-1.0
 10
-201.7007896916385
 20
91.10084000000084
 10
-201.7007896916383
 20
85.84036000000017
 42
1.0
 10
-198.1041496916383
 20
85.84036000000008
 10
-198.1041496916381
 20
91.10084000000078
 42
-1.0
 10
-187.3142296916381
 20
91.10084000000084
 10
-187.3142296916379
 20
85.84036000000017
 42
1.0
 10
-183.7175896916379
 20
85.84036000000008
 10
-183.7175896916377
 20
91.10084000000078
 42
-1.0
 10
-172.9276696916378
 20
91.10084000000084
 10
-172.9276696916375
 20
85.84036000000017
 42
1.0
 10
-169.3310296916376
 20
85.84036000000008
 10
-169.3310296916373
 20
91.10084000000078
 42
-1.0
 10
-158.5411096916374
 20
91.10084000000084
 10
-158.5411096916372
 20
85.84036000000017
 42
1.0
 10
-154.9444696916372
 20
85.84036000000008
 10
-154.944469691637
 20
91.10084000000078
 42
-1.0
 10
-144.154549691637
 20
91.10084000000084
 10
-144.1545496916368
 20
85.84036000000017
 42
1.0
 10
-140.5579096916368
 20
85.84036000000008
 10
-140.5579096916366
 20
91.10084000000078
 42
-1.0
 10
-129.7679896916366
 20
91.10084000000084
 10
-129.7679896916364
 20
85.84036000000017
 42
1.0
 10
-126.1713496916364
 20
85.84036000000008
 10
-126.1713496916362
 20
91.10084000000078
 42
-1.0
 10
-115.3814296916363
 20
91.10084000000084
 10
-115.381429691636
 20
85.84036000000017
 42
1.0
 10
-111.7847896916361
 20
85.84036000000008
 10
-111.7847896916358
 20
91.10084000000078
 42
-1.0
 10
-100.9948696916359
 20
91.10084000000084
 10
-100.9948696916357
 20
85.84036000000017
 42
1.0
 10
-97.39822969163572
 20
85.84036000000008
 10
-97.39822969163549
 20
91.10084000000078
 42
-1.0
 10
-86.60830969163555
 20
91.10084000000084
 10
-86.60830969163532
 20
85.84036000000017
 42
1.0
 10
-83.01166969163535
 20
85.84036000000008
 10
-83.01166969163512
 20
91.10084000000078
 42
-1.0
 10
-72.22174969163518
 20
91.10084000000084
 10
-72.22174969163495
 20
85.84036000000017
 42
1.0
 10
-68.62510969163498
 20
85.84036000000008
 10
-68.62510969163475
 20
91.10084000000078
 42
-1.0
 10
-57.8351896916348
 20
91.10084000000084
 10
-57.83518969163458
 20
85.84036000000017
 42
1.0
 10
-54.2385496916346
 20
85.84036000000008
 10
-54.23854969163437
 20
91.10084000000078
 42
-1.0
 10
-43.44862969163443
 20
91.10084000000084
 10
-43.44862969163421
 20
85.84036000000017
 42
1.0
 10
-39.85198969163423
 20
85.84036000000008
 10
-39.85198969163401
 20
91.10084000000071
 42
-1.0
 10
-29.06206969163406
 20
91.10084000000069
 10
-29.06206969163406
 20
78.64708000000033
 42
-0.4142135623730951
 10
-34.45702969163404
 20
73.25212000000036
 10
-456.7516014174811
 20
73.25212000000043
 42
1.0
 10
-456.7516014174811
 20
69.6554800000004
 10
-34.45702969163404
 20
69.6554800000003
 42
-1.0
 10
-34.45702969163404
 20
58.86556000000036
 10
-458.5033259691617
 20
58.86556000000039
 42
1.0
 10
-458.5033259691617
 20
55.26892000000035
 10
-34.45702969163404
 20
55.2689200000003
 42
-1.0
 10
-34.45702969163404
 20
44.47900000000036
 10
-459.8588861852495
 20
44.47900000000042
 42
1.0
 10
-459.8588861852495
 20
40.88236000000038
 10
-34.45702969163404
 20
40.88236000000029
 42
-1.0
 10
-34.45702969163404
 20
30.09244000000036
 10
-460.821316383051
 20
30.09244000000039
 42
1.0
 10
-460.821316383051
 20
26.49580000000036
 10
-28.16290969163447
 20
26.49580000000037
 42
0.4142135623730949
 10
-26.36458969163448
 20
28.29412000000036
 10
-26.36458969163454
 20
91.10084000000069
 42
-0.4142135623730943
 10
-20.96962969163451
 20
96.49580000000071
 10
74.59324073194584
 20
96.49580000000071
  0
LWPOLYLINE
  5
26FA
330
2
100
AcDbEntity
  8
copper
  6
Continuous
100
AcDbPolyline
 90
        2
 70
   129
 43
0.83475
 10
75.01061573194617
 20
96.49580000000073
 42
-1.0
 10
74.17586573194616
 20
96.49580000000073
 42
-1.0
  0
LWPOLYLINE
  5
273F
330
2
100
AcDbEntity
  8
mechanical
  6
Continuous
100
AcDbPolyline
 90
        2
 70
   128
 43
0.254
 10
160.1312103083597
 20
20.00000000000034
 10
160.1312103083597
 20
90.00000000000033
  0
LWPOLYLINE
  5
2740
330
2
100
AcDbEntity
  8
mechanical
  6
Continuous
100
AcDbPolyline
 90
        2
 70
   128
 43
0.254
 10
160.1312103083597
 20
90.00000000000033
 10
-19.86878969164031
 20
90.00000000000033
  0
LWPOLYLINE
  5
2741
330
2
100
AcDbEntity
  8
mechanical
  6
Continuous
100
AcDbPolyline
 90
        2
 70
   128
 43
0.254
 10
-19.86878969164031
 20
90.00000000000033
 10
-19.86878969164031
 20
20.00000000000034
  0
LWPOLYLINE
  5
2742
330
2
100
AcDbEntity
  8
mechanical
  6
Continuous
100
AcDbPolyline
 90
        2
 70
   128
 43
0.254
 10
-19.86878969164031
 20
20.00000000000034
 10
-469.4982922209218
 20
20.00000000000034
  0
LWPOLYLINE
  5
2743
330
2
100
AcDbEntity
  8
mechanical
  6
Continuous
100
AcDbPolyline
 90
        2
 70
   128
 43
0.254
 10
-414.5913907739499
 20
238.0000000000005
 42
0.1052304131328541
 10
-469.4982922209218
 20
20.00000000000046
  0
LWPOLYLINE
  5
2744
330
2
100
AcDbEntity
  8
mechanical
  6
Continuous
100
AcDbPolyline
 90
        2
 70
   128
 43
0.254
 10
-414.5913907739499
 20
238.0000000000003
 10
554.8538113906694
 20
238.0000000000003
  0
LWPOLYLINE
  5
2745
330
2
100
AcDbEntity
  8
mechanical
  6
Continuous
100
AcDbPolyline
 90
        2
 70
   128
 43
0.254
 10
609.7607128376413
 20
20.00000000000034
 42
0.1052304131328541
 10
554.8538113906694
 20
238.0000000000003
  0
LWPOLYLINE
  5
2746
330
2
100
AcDbEntity
  8
mechanical
  6
Continuous
100
AcDbPolyline
 90
        2
 70
   128
 43
0.254
 10
609.7607128376413
 20
20.00000000000034
 10
160.1312103083597
 20
20.00000000000034
  0
LWPOLYLINE
  5
2747
330
2
100
AcDbEntity
  8
mechanical
  6
Continuous
100
AcDbPolyline
 90
        2
 70
   129
 43
0.127
 10
-414.6548907739501
 20
238.0000000000003
 42
1.0
 10
-414.5278907739498
 20
238.0000000000003
 42
1.0
  0
LWPOLYLINE
  5
2748
330
2
100
AcDbEntity
  8
mechanical
  6
Continuous
100
AcDbPolyline
 90
        2
 70
   129
 43
0.127
 10
554.7903113906691
 20
238.0000000000003
 42
1.0
 10
554.9173113906691
 20
238.0000000000003
 42
1.0
  0
LWPOLYLINE
  5
2749
330
2
100
AcDbEntity
  8
mechanical
  6
Continuous
100
AcDbPolyline
 90
        2
 70
   129
 43
0.127
 10
609.6972128376411
 20
20.00000000000034
 42
1.0
 10
609.824212837641
 20
20.00000000000034
 42
1.0
  0
LWPOLYLINE
  5
274A
330
2
100
AcDbEntity
  8
mechanical
  6
Continuous
100
AcDbPolyline
 90
        2
 70
   129
 43
0.127
 10
160.0677103083597
 20
20.00000000000034
 42
1.0
 10
160.1947103083596
 20
20.00000000000034
 42
1.0
  0
LWPOLYLINE
  5
274B
330
2
100
AcDbEntity
  8
mechanical
  6
Continuous
100
AcDbPolyline
 90
        2
 70
   129
 43
0.127
 10
160.0677103083597
 20
90.00000000000033
 42
1.0
 10
160.1947103083596
 20
90.00000000000033
 42
1.0
  0
LWPOLYLINE
  5
274C
330
2
100
AcDbEntity
  8
mechanical
  6
Continuous
100
AcDbPolyline
 90
        2
 70
   129
 43
0.127
 10
-19.93228969164029
 20
90.00000000000033
 42
1.0
 10
-19.80528969164034
 20
90.00000000000033
 42
1.0
  0
LWPOLYLINE
  5
274D
330
2
100
AcDbEntity
  8
mechanical
  6
Continuous
100
AcDbPolyline
 90
        2
 70
   129
 43
0.127
 10
-19.93228969164029
 20
20.00000000000034
 42
1.0
 10
-19.80528969164034
 20
20.00000000000034
 42
1.0
  0
LWPOLYLINE
  5
274E
330
2
100
AcDbEntity
  8
mechanical
  6
Continuous
100
AcDbPolyline
 90
        2
 70
   129
 43
0.127
 10
-469.5617922209216
 20
20.00000000000034
 42
1.0
 10
-469.4347922209212
 20
20.00000000000034
 42
1.0
  0
LWPOLYLINE
  5
274F
330
2
100
AcDbEntity
  8
kapton
  6
Continuous
100
AcDbPolyline
 90
        2
 70
   128
 43
0.254
 10
160.1312103083597
 20
20.00000000000034
 10
160.1312103083597
 20
90.00000000000033
  0
LWPOLYLINE
  5
2750
330
2
100
AcDbEntity
  8
kapton
  6
Continuous
100
AcDbPolyline
 90
        2
 70
   128
 43
0.254
 10
160.1312103083597
 20
90.00000000000033
 10
-19.86878969164031
 20
90.00000000000033
  0
LWPOLYLINE
  5
2751
330
2
100
AcDbEntity
  8
kapton
  6
Continuous
100
AcDbPolyline
 90
        2
 70
   128
 43
0.254
 10
-19.86878969164031
 20
90.00000000000033
 10
-19.86878969164031
 20
20.00000000000034
  0
LWPOLYLINE
  5
2752
330
2
100
AcDbEntity
  8
kapton
  6
Continuous
100
AcDbPolyline
 90
        2
 70
   128
 43
0.254
 10
-19.86878969164031
 20
20.00000000000034
 10
-469.4982922209218
 20
20.00000000000034
  0
LWPOLYLINE
  5
2753
330
2
100
AcDbEntity
  8
kapton
  6
Continuous
100
AcDbPolyline
 90
        2
 70
   128
 43
0.254
 10
-414.5913907739499
 20
238.0000000000005
 42
0.1052304131328541
 10
-469.4982922209218
 20
20.00000000000046
  0
LWPOLYLINE
  5
2754
330
2
100
AcDbEntity
  8
kapton
  6
Continuous
100
AcDbPolyline
 90
        2
 70
   128
 43
0.254
 10
-414.5913907739499
 20
238.0000000000003
 10
554.8538113906694
 20
238.0000000000002
  0
LWPOLYLINE
  5
2755
330
2
100
AcDbEntity
  8
kapton
  6
Continuous
100
AcDbPolyline
 90
        2
 70
   128
 43
0.254
 10
609.7607128376413
 20
20.00000000000034
 42
0.1052304131328541
 10
554.8538113906694
 20
238.0000000000002
  0
LWPOLYLINE
  5
2756
330
2
100
AcDbEntity
  8
kapton
  6
Continuous
100
AcDbPolyline
 90
        2
 70
   128
 43
0.254
 10
609.7607128376413
 20
20.00000000000034
 10
160.1312103083597
 20
20.00000000000034
  0
LWPOLYLINE
  5
2757
330
2
100
AcDbEntity
  8
kapton
  6
Continuous
100
AcDbPolyline
 90
        2
 70
   129
 43
0.127
 10
-414.6548907739501
 20
238.0000000000003
 42
1.0
 10
-414.5278907739498
 20
238.0000000000003
 42
1.0
  0
LWPOLYLINE
  5
2758
330
2
100
AcDbEntity
  8
kapton
  6
Continuous
100
AcDbPolyline
 90
        2
 70
   129
 43
0.127
 10
554.7903113906691
 20
238.0000000000002
 42
1.0
 10
554.9173113906691
 20
238.0000000000002
 42
1.0
  0
LWPOLYLINE
  5
2759
330
2
100
AcDbEntity
  8
kapton
  6
Continuous
100
AcDbPolyline
 90
        2
 70
   129
 43
0.127
 10
609.6972128376411
 20
20.00000000000034
 42
1.0
 10
609.824212837641
 20
20.00000000000034
 42
1.0
  0
LWPOLYLINE
  5
275A
330
2
100
AcDbEntity
  8
kapton
  6
Continuous
100
AcDbPolyline
 90
        2
 70
   129
 43
0.127
 10
160.0677103083597
 20
20.00000000000034
 42
1.0
 10
160.1947103083596
 20
20.00000000000034
 42
1.0
  0
LWPOLYLINE
  5
275B
330
2
100
AcDbEntity
  8
kapton
  6
Continuous
100
AcDbPolyline
 90
        2
 70
   129
 43
0.127
 10
160.0677103083597
 20
90.00000000000033
 42
1.0
 10
160.1947103083596
 20
90.00000000000033
 42
1.0
  0
LWPOLYLINE
  5
275C
330
2
100
AcDbEntity
  8
kapton
  6
Continuous
100
AcDbPolyline
 90
        2
 70
   129
 43
0.127
 10
-19.93228969164029
 20
90.00000000000033
 42
1.0
 10
-19.80528969164034
 20
90.00000000000033
 42
1.0
  0
LWPOLYLINE
  5
275D
330
2
100
AcDbEntity
  8
kapton
  6
Continuous
100
AcDbPolyline
 90
        2
 70
   129
 43
0.127
 10
-19.93228969164029
 20
20.00000000000034
 42
1.0
 10
-19.80528969164034
 20
20.00000000000034
 42
1.0
  0
LWPOLYLINE
  5
275E
330
2
100
AcDbEntity
  8
kapton
  6
Continuous
100
AcDbPolyline
 90
        2
 70
   129
 43
0.127
 10
-469.5617922209216
 20
20.00000000000034
 42
1.0
 10
-469.4347922209212
 20
20.00000000000034
 42
1.0
  0
HATCH
  5
275F
330
2
100
AcDbEntity
  8
kapton
  6
Continuous
100
AcDbHatch
 10
0.0
 20
0.0
 30
0.0
210
0.0
220
0.0
230
1.0
  2
ANSI37
 70
     0
 71
     0
 91
        1
 92
        7
 72
     0
 73
     1
 93
        4
 10
50.50621030835991
 20
235.0000000000004
 10
50.50621030835945
 20
230.0000000000005
 10
89.75621030835945
 20
230.0000000000005
 10
89.75621030835991
 20
235.0000000000004
 97
        0
 75
     0
 76
     1
 52
0.0
 41
0.5
 77
     0
 78
     2
 53
45.0
 43
1829.459066037829
 44
-300.0
 45
-1.122532015133643
 46
1.122532015133644
 79
     0
 53
135.0
 43
1829.459066037829
 44
-300.0
 45
-1.122532015133644
 46
-1.122532015133643
 79
     0
 47
0.1100430533196564
 98
        1
 10
69.91504518492233
 20
233.4293658987221
1001
ACAD
1010
0.0
1020
0.0
1030
0.0
  0
LWPOLYLINE
  5
2760
330
2
100
AcDbEntity
  8
kapton
  6
Continuous
100
AcDbPolyline
 90
        4
 70
     1
 43
0.254
 10
50.50621030835968
 20
235.0000000000004
 10
89.75621030835968
 20
235.0000000000004
 10
89.75621030835968
 20
230.0000000000005
 10
50.50621030835968
 20
230.0000000000005
  0
LWPOLYLINE
  5
2761
330
2
100
AcDbEntity
  8
mechanical
  6
Continuous
100
AcDbPolyline
 90
        2
 70
   128
 43
2.0
 10
-479.4982922209213
 20
11.00000000000034
 10
-477.4982922209214
 20
11.00000000000034
  0
LWPOLYLINE
  5
2762
330
2
100
AcDbEntity
  8
mechanical
  6
Continuous
100
AcDbPolyline
 90
        2
 70
   128
 43
2.0
 10
-379.4982922209214
 20
11.00000000000034
 10
-377.4982922209214
 20
11.00000000000034
  0
LWPOLYLINE
  5
2763
330
2
100
AcDbEntity
  8
mechanical
  6
Continuous
100
AcDbPolyline
 90
        2
 70
   128
 43
2.0
 10
-279.4982922209214
 20
11.00000000000034
 10
-277.4982922209214
 20
11.00000000000034
  0
LWPOLYLINE
  5
2764
330
2
100
AcDbEntity
  8
mechanical
  6
Continuous
100
AcDbPolyline
 90
        2
 70
   128
 43
2.0
 10
-179.4982922209214
 20
11.00000000000034
 10
-177.4982922209214
 20
11.00000000000034
  0
LWPOLYLINE
  5
2765
330
2
100
AcDbEntity
  8
mechanical
  6
Continuous
100
AcDbPolyline
 90
        2
 70
   128
 43
2.0
 10
-79.49829222092144
 20
11.00000000000034
 10
-77.49829222092144
 20
11.00000000000034
  0
LWPOLYLINE
  5
2766
330
2
100
AcDbEntity
  8
mechanical
  6
Continuous
100
AcDbPolyline
 90
        2
 70
   128
 43
2.0
 10
20.50170777907856
 20
11.00000000000034
 10
22.50170777907856
 20
11.00000000000034
  0
LWPOLYLINE
  5
2767
330
2
100
AcDbEntity
  8
mechanical
  6
Continuous
100
AcDbPolyline
 90
        2
 70
   128
 43
2.0
 10
120.5017077790785
 20
11.00000000000034
 10
122.5017077790785
 20
11.00000000000034
  0
LWPOLYLINE
  5
2768
330
2
100
AcDbEntity
  8
mechanical
  6
Continuous
100
AcDbPolyline
 90
        2
 70
   128
 43
2.0
 10
220.5017077790786
 20
11.00000000000034
 10
222.5017077790786
 20
11.00000000000034
  0
LWPOLYLINE
  5
2769
330
2
100
AcDbEntity
  8
mechanical
  6
Continuous
100
AcDbPolyline
 90
        2
 70
   128
 43
2.0
 10
320.5017077790786
 20
11.00000000000034
 10
322.5017077790786
 20
11.00000000000034
  0
LWPOLYLINE
  5
276A
330
2
100
AcDbEntity
  8
mechanical
  6
Continuous
100
AcDbPolyline
 90
        2
 70
   128
 43
2.0
 10
420.5017077790786
 20
11.00000000000034
 10
422.5017077790785
 20
11.00000000000034
  0
LWPOLYLINE
  5
276B
330
2
100
AcDbEntity
  8
mechanical
  6
Continuous
100
AcDbPolyline
 90
        2
 70
   128
 43
2.0
 10
520.5017077790785
 20
11.00000000000034
 10
522.5017077790785
 20
11.00000000000034
  0
LWPOLYLINE
  5
276C
330
2
100
AcDbEntity
  8
mechanical
  6
Continuous
100
AcDbPolyline
 90
        2
 70
   128
 43
2.0
 10
617.7593002604368
 20
11.00000000000034
 10
619.7593002604368
 20
11.00000000000034
  0
LWPOLYLINE
  5
276D
330
2
100
AcDbEntity
  8
mechanical
  6
Continuous
100
AcDbPolyline
 90
        2
 70
   128
 43
2.0
 10
-479.4982922209213
 20
247.0000000000003
 10
-477.4982922209214
 20
247.0000000000003
  0
LWPOLYLINE
  5
276E
330
2
100
AcDbEntity
  8
mechanical
  6
Continuous
100
AcDbPolyline
 90
        2
 70
   128
 43
2.0
 10
-379.4982922209214
 20
247.0000000000003
 10
-377.4982922209214
 20
247.0000000000003
  0
LWPOLYLINE
  5
276F
330
2
100
AcDbEntity
  8
mechanical
  6
Continuous
100
AcDbPolyline
 90
        2
 70
   128
 43
2.0
 10
-279.4982922209214
 20
247.0000000000003
 10
-277.4982922209214
 20
247.0000000000003
  0
LWPOLYLINE
  5
2770
330
2
100
AcDbEntity
  8
mechanical
  6
Continuous
100
AcDbPolyline
 90
        2
 70
   128
 43
2.0
 10
-179.4982922209214
 20
247.0000000000003
 10
-177.4982922209214
 20
247.0000000000003
  0
LWPOLYLINE
  5
2771
330
2
100
AcDbEntity
  8
mechanical
  6
Continuous
100
AcDbPolyline
 90
        2
 70
   128
 43
2.0
 10
-79.49829222092144
 20
247.0000000000003
 10
-77.49829222092144
 20
247.0000000000003
  0
LWPOLYLINE
  5
2772
330
2
100
AcDbEntity
  8
mechanical
  6
Continuous
100
AcDbPolyline
 90
        2
 70
   128
 43
2.0
 10
20.50170777907856
 20
247.0000000000003
 10
22.50170777907856
 20
247.0000000000003
  0
LWPOLYLINE
  5
2773
330
2
100
AcDbEntity
  8
mechanical
  6
Continuous
100
AcDbPolyline
 90
        2
 70
   128
 43
2.0
 10
120.5017077790785
 20
247.0000000000003
 10
122.5017077790785
 20
247.0000000000003
  0
LWPOLYLINE
  5
2774
330
2
100
AcDbEntity
  8
mechanical
  6
Continuous
100
AcDbPolyline
 90
        2
 70
   128
 43
2.0
 10
220.5017077790786
 20
247.0000000000003
 10
222.5017077790786
 20
247.0000000000003
  0
LWPOLYLINE
  5
2775
330
2
100
AcDbEntity
  8
mechanical
  6
Continuous
100
AcDbPolyline
 90
        2
 70
   128
 43
2.0
 10
320.5017077790786
 20
247.0000000000003
 10
322.5017077790786
 20
247.0000000000003
  0
LWPOLYLINE
  5
2776
330
2
100
AcDbEntity
  8
mechanical
  6
Continuous
100
AcDbPolyline
 90
        2
 70
   128
 43
2.0
 10
420.5017077790786
 20
247.0000000000003
 10
422.5017077790785
 20
247.0000000000003
  0
LWPOLYLINE
  5
2777
330
2
100
AcDbEntity
  8
mechanical
  6
Continuous
100
AcDbPolyline
 90
        2
 70
   128
 43
2.0
 10
520.5017077790785
 20
247.0000000000003
 10
522.5017077790785
 20
247.0000000000003
  0
LWPOLYLINE
  5
2778
330
2
100
AcDbEntity
  8
mechanical
  6
Continuous
100
AcDbPolyline
 90
        2
 70
   128
 43
2.0
 10
617.7593002604368
 20
247.0000000000003
 10
619.7593002604368
 20
247.0000000000003
  0
TEXT
  5
2779
330
2
100
AcDbEntity
  8
mechanical
  6
Continuous
100
AcDbText
 10
27.06541819321915
 20
56.83994656320601
 30
0.0
 40
10.0
  1
CP INNER
100
AcDbText
  0
TEXT
  5
277A
330
2
100
AcDbEntity
  8
mechanical
  6
Continuous
100
AcDbText
 10
27.06541819321915
 20
40.17327989653938
 30
0.0
 40
10.0
  1
ATLICE-0003
100
AcDbText
  0
LWPOLYLINE
  5
278D
330
2
100
AcDbEntity
  8
copper
  6
Continuous
100
AcDbPolyline
 90
        2
 70
   128
 43
0.5
 10
75.63450206323932
 20
229.8782917548742
 42
-0.2134217652834271
 10
77.92274767451044
 20
230.7523238037718
  0
LWPOLYLINE
  5
278E
330
2
100
AcDbEntity
  8
copper
  6
Continuous
100
AcDbPolyline
 90
        2
 70
   128
 43
0.5
 10
76.50853411213734
 20
232.1665373661449
 42
-0.2134217652833963
 10
75.63450206323955
 20
229.8782917548741
  0
LWPOLYLINE
  5
278F
330
2
100
AcDbEntity
  8
copper
  6
Continuous
100
AcDbPolyline
 90
        2
 70
   128
 43
0.5
 10
71.27038728771072
 20
232.0442575607965
 42
-0.1546638204980306
 10
70.96497577738273
 20
230.2575659976348
  0
LWPOLYLINE
  5
2790
330
2
100
AcDbEntity
  8
copper
  6
Continuous
100
AcDbPolyline
 90
        2
 70
   128
 43
0.5
 10
70.75194352745825
 20
229.72486913737
 42
-0.3865611629219874
 10
72.47389361313913
 20
230.7768071125631
  0
LWPOLYLINE
  5
2792
330
2
100
AcDbEntity
  8
copper
  6
Continuous
100
AcDbPolyline
 90
        2
 70
   128
 43
0.5
 10
62.33967294222202
 20
230.7523238037718
 42
-0.2134217652834111
 10
64.62791855349292
 20
229.878291754874
  0
LWPOLYLINE
  5
2793
330
2
100
AcDbEntity
  8
copper
  6
Continuous
100
AcDbPolyline
 90
        2
 70
   128
 43
0.5
 10
64.62791855349223
 20
229.8782917548742
 42
-0.2134217652833702
 10
63.75388650459467
 20
232.1665373661449
  0
LWPOLYLINE
  5
2794
330
2
100
AcDbEntity
  8
copper
  6
Continuous
100
AcDbPolyline
 90
        2
 70
   128
 43
0.5
 10
69.29744483934928
 20
230.257565997635
 42
-0.1546638204980161
 10
68.99203332902129
 20
232.0442575607963
  0
LWPOLYLINE
  5
2795
330
2
100
AcDbEntity
  8
copper
  6
Continuous
100
AcDbPolyline
 90
        2
 70
   128
 43
0.5
 10
67.78852700359312
 20
230.7768071125631
 42
-0.3865611629219576
 10
69.51047708927376
 20
229.7248691373699
  0
LWPOLYLINE
  5
2796
330
2
100
AcDbEntity
  8
copper
  6
Continuous
100
AcDbPolyline
 90
        9
 70
   128
 43
0.5
 10
72.756210308366
 20
232.2500000000005
 10
71.50988996480646
 20
231.0036796564409
 42
0.1989123673796805
 10
70.63121030836601
 20
228.8823593128813
 10
70.63121030836602
 20
203.2311600000004
 42
0.4142135623730951
 10
74.631210308366
 20
199.2311600000004
 10
401.9217352890546
 20
199.2311600000004
 42
-0.2060321204102543
 10
404.1002884212963
 20
198.2936600000005
 42
0.2060321204102548
 10
407.7312103083658
 20
196.7311600000004
 42
-0.0399362039844799
 10
412.7312103083674
 20
196.33116
  0
LWPOLYLINE
  5
2797
330
2
100
AcDbEntity
  8
copper
  6
Continuous
100
AcDbPolyline
 90
        9
 70
   128
 43
0.5
 10
412.7312103083674
 20
198.1311600000008
 42
-0.0399362039844799
 10
407.7312103083658
 20
197.7311600000004
 42
-0.2060321204102525
 10
404.8264727987102
 20
198.9811600000004
 42
0.2060321204102565
 10
401.9217352890546
 20
200.2311600000005
 10
74.631210308366
 20
200.2311600000004
 42
-0.4142135623730951
 10
71.63121030836601
 20
203.2311600000004
 10
71.63121030836601
 20
224.6323593128813
 42
-0.1989123673796343
 10
72.50988996480618
 20
226.7536796564408
 10
78.00621030836601
 20
232.2500000000005
  0
LWPOLYLINE
  5
2798
330
2
100
AcDbEntity
  8
copper
  6
Continuous
100
AcDbPolyline
 90
       12
 70
   128
 43
0.5
 10
62.25621030836601
 20
232.2500000000004
 10
67.75253065192578
 20
226.7536796564411
 42
-0.1989123673796243
 10
68.63121030836601
 20
224.6323593128813
 10
68.63121030836601
 20
102.7605200000005
 42
-0.4142135623730951
 10
65.63121030836601
 20
99.7605200000005
 10
-295.8640927506171
 20
99.76052000000057
 42
0.1485127119649429
 10
-298.6448187247588
 20
98.91594573712232
 42
0.2089396718024919
 10
-302.7027289249414
 20
92.57252720545301
 42
-0.3688994050899206
 10
-305.665760773531
 20
90.04204000000038
 10
-305.8100696916413
 20
90.04204000000038
 10
-307.4687896916339
 20
90.04204000000038
 42
-0.039936203984422
 10
-312.4687896916285
 20
90.44203999999963
  0
LWPOLYLINE
  5
2799
330
2
100
AcDbEntity
  8
copper
  6
Continuous
100
AcDbPolyline
 90
       12
 70
   128
 43
0.5
 10
-312.4687896916285
 20
88.64204000000112
 42
-0.0399362039844221
 10
-307.4687896916339
 20
89.04204000000039
 10
-305.8100696916413
 20
89.04204000000039
 10
-305.665760773531
 20
89.04204000000039
 42
0.3688994050899172
 10
-301.7150516420782
 20
92.41602294060415
 42
-0.2089396718024932
 10
-298.0886735299306
 20
98.08486058969799
 42
-0.1485127119649428
 10
-295.8640927506171
 20
98.76052000000058
 10
65.63121030836601
 20
98.76052000000051
 42
0.4142135623730951
 10
69.631210308366
 20
102.7605200000005
 10
69.631210308366
 20
228.8823593128813
 42
0.1989123673796264
 10
68.75253065192591
 20
231.0036796564406
 10
67.50621030836601
 20
232.2500000000004
  0
VIEWPORT
  5
17F
102
{ACAD_XDICTIONARY
360
27C9
102
}
330
148
100
AcDbEntity
 67
     1
  8
0
  6
Continuous
100
AcDbViewport
 10
539.4629528462933
 20
436.6083350012517
 30
0.0
 40
1387.054359180414
 41
867.4927515749562
 68
     1
 69
     1
 12
539.4629528462933
 22
436.6083350012517
 13
0.0
 23
0.0
 14
10.0
 24
10.0
 15
10.0
 25
10.0
 16
0.0
 26
0.0
 36
1.0
 17
0.0
 27
0.0
 37
0.0
 42
50.0
 43
0.0
 44
0.0
 45
867.4927515749562
 50
0.0
 51
0.0
 72
   100
 90
    32800
  1

281
     0
 71
     1
 74
     0
110
0.0
120
0.0
130
0.0
111
1.0
121
0.0
131
0.0
112
0.0
122
1.0
132
0.0
 79
     0
146
0.0
1001
GENIUS_GENSCREG_15
1000
PF
1040
1.0
1000
DF
1040
1.0
1000
MIN
1011
-154.0642267439139
1021
2.861959213773616
1031
0.0
1000
MAX
1011
1232.9901324365
1021
870.3547107887297
1031
0.0
1000
FLAGS
1070
     4
1001
GENIUS_GENODEF_13
1002
{
1000
HIER
1070
     0
1002
}
1002
{
1000
MANEDIT
1070
     0
1002
}
1002
{
1000
NOSEL
1070
     0
1002
}
1002
{
1000
BEHIND
1070
     0
1002
}
1002
{
1000
OTHER
1070
     0
1002
}
1002
{
1000
REACTOR
1002
}
1001
GENIUS_GENOBJ-N-SDF_13
1002
{
1000
OWNER
1000
GEN
1002
}
  0
VIEWPORT
  5
181
102
{ACAD_XDICTIONARY
360
27CB
102
}
330
148
100
AcDbEntity
 67
     1
  8
0
  6
Continuous
100
AcDbViewport
 10
573.7436809539794
 20
392.7263202667236
 30
0.0
 40
917.9898895263672
 41
628.3621124267579
 68
     2
 69
     2
 12
454.7134502953538
 22
167.0708391774632
 13
0.0
 23
0.0
 14
1.0
 24
1.0
 15
0.0
 25
0.0
 16
0.0
 26
0.0
 36
1.0
 17
0.0
 27
0.0
 37
0.0
 42
50.0
 43
0.0
 44
0.0
 45
558.6397812350369
 50
0.0
 51
0.0
 72
   100
 90
    32800
  1

281
     0
 71
     1
 74
     0
110
0.0
120
0.0
130
0.0
111
1.0
121
0.0
131
0.0
112
0.0
122
1.0
132
0.0
 79
     1
146
0.0
1001
GENIUS_GENSCREG_15
1000
PF
1040
0.0
1000
DF
1040
0.0
1000
MIN
1011
114.7487361907958
1021
78.54526405334468
1031
0.0
1000
MAX
1011
1032.738625717163
1021
706.9073764801025
1031
0.0
1000
FLAGS
1070
     4
1001
GENIUS_GENODEF_13
1002
{
1000
HIER
1070
     0
1002
}
1002
{
1000
MANEDIT
1070
     0
1002
}
1002
{
1000
NOSEL
1070
     0
1002
}
1002
{
1000
BEHIND
1070
     0
1002
}
1002
{
1000
OTHER
1070
     0
1002
}
1002
{
1000
REACTOR
1002
}
1001
GENIUS_GENOBJ-N-SDF_13
1002
{
1000
OWNER
1000
GEN
1002
}
  0
ENDSEC
  0
SECTION
  2
OBJECTS
  0
DICTIONARY
  5
9
330
0
100
AcDbDictionary
281
     1
  3
ACAD_COLOR
350
162
  3
ACAD_GROUP
350
15E
  3
ACAD_LAYOUT
350
147
  3
ACAD_MATERIAL
350
161
  3
ACAD_MLEADERSTYLE
350
170E
  3
ACAD_MLINESTYLE
350
15F
  3
ACAD_PLOTSETTINGS
350
160
  3
ACAD_PLOTSTYLENAME
350
8
  3
ACAD_SCALELIST
350
16EC
  3
ACAD_TABLESTYLE
350
16EA
  3
ACAD_VISUALSTYLE
350
16D9
  3
ACDB_RECOMPOSE_DATA
350
1926
  3
AcDbVariableDictionary
350
16B
  3
AcmDictionary
350
17D5
  3
AMG
350
1714
  3
AMGSNAPSETTINGS
350
1835
  3
ASE_INDEX_DICTIONARY
350
6DB
  3
DWGPROPS
350
27C4
  3
MAPISURF_MODULE
350
17A1
  0
DICTIONARY
  5
1852
330
14E
100
AcDbDictionary
280
     1
281
     1
  3
ACAD_LAYERFILTERS
360
1854
  3
ACLYDICTIONARY
360
1853
  0
DICTIONARY
  5
181E
330
6
100
AcDbDictionary
280
     1
281
     1
  3
ADSK_XREC_LAYER_RECONCILED
360
181F
  0
DICTIONARY
  5
1820
330
C
100
AcDbDictionary
280
     1
281
     1
  3
ADSK_XREC_LAYER_RECONCILED
360
1821
  0
DICTIONARY
  5
1822
330
174
100
AcDbDictionary
280
     1
281
     1
  3
ADSK_XREC_LAYER_RECONCILED
360
1823
  0
DICTIONARY
  5
1824
330
794
100
AcDbDictionary
280
     1
281
     1
  3
ADSK_XREC_LAYER_RECONCILED
360
1825
  0
DICTIONARY
  5
3
330
2
100
AcDbDictionary
280
     1
281
     1
  3
ACAD_INDEX
360
1826
  3
ACAD_LAYOUTSELFREF
360
4
  3
ACAD_SORTENTS
360
1846
  0
DICTIONARY
  5
149
330
148
100
AcDbDictionary
280
     1
281
     1
  3
ACAD_LAYOUTSELFREF
360
14A
  0
DICTIONARY
  5
27C9
330
17F
100
AcDbDictionary
280
     1
281
     1
  3
ACAD_XREC_ROUNDTRIP
360
27CA
  0
DICTIONARY
  5
27CB
330
181
100
AcDbDictionary
280
     1
281
     1
  3
ACAD_XREC_ROUNDTRIP
360
27CC
  0
DICTIONARY
  5
162
102
{ACAD_REACTORS
330
9
102
}
330
9
100
AcDbDictionary
281
     1
  0
DICTIONARY
  5
15E
102
{ACAD_REACTORS
330
9
102
}
330
9
100
AcDbDictionary
281
     1
  0
DICTIONARY
  5
147
102
{ACAD_REACTORS
330
9
102
}
330
9
100
AcDbDictionary
281
     1
  3
Layout1
350
14D
  3
Model
350
146
  0
DICTIONARY
  5
161
102
{ACAD_REACTORS
330
9
102
}
330
9
100
AcDbDictionary
281
     1
  3
ByBlock
350
16C9
  3
ByLayer
350
16C1
  3
Global
350
16D1
  0
DICTIONARY
  5
170E
102
{ACAD_REACTORS
330
9
102
}
330
9
100
AcDbDictionary
281
     1
  3
Standard
350
170F
  0
DICTIONARY
  5
15F
102
{ACAD_REACTORS
330
9
102
}
330
9
100
AcDbDictionary
281
     1
  3
STANDARD
350
163
  0
DICTIONARY
  5
160
102
{ACAD_REACTORS
330
9
102
}
330
9
100
AcDbDictionary
281
     1
  0
ACDBDICTIONARYWDFLT
  5
8
102
{ACAD_REACTORS
330
9
102
}
330
9
100
AcDbDictionary
281
     1
  3
Normal
350
7
100
AcDbDictionaryWithDefault
340
7
  0
DICTIONARY
  5
16EC
102
{ACAD_REACTORS
330
9
102
}
330
9
100
AcDbDictionary
281
     1
  3
A0
350
16ED
  3
A1
350
16EE
  3
A2
350
16EF
  3
A3
350
16F0
  3
A4
350
16F1
  3
A5
350
16F2
  3
A6
350
16F3
  3
A7
350
16F4
  3
A8
350
16F5
  3
A9
350
16F6
  3
B0
350
16F7
  3
B1
350
16F8
  3
B2
350
16F9
  3
B3
350
16FA
  3
B4
350
16FB
  3
B5
350
16FC
  3
B6
350
16FD
  3
B7
350
16FE
  3
B8
350
16FF
  3
B9
350
1700
  3
C0
350
1701
  3
C1
350
1702
  3
C2
350
1703
  3
C3
350
1704
  3
C4
350
1705
  3
C5
350
1706
  3
C6
350
1707
  3
C7
350
1708
  3
C8
350
1709
  3
C9
350
170A
  3
D0
350
170B
  3
D1
350
170C
  3
D2
350
170D
  0
DICTIONARY
  5
16EA
102
{ACAD_REACTORS
330
9
102
}
330
9
100
AcDbDictionary
281
     1
  3
Standard
350
16EB
  0
DICTIONARY
  5
16D9
102
{ACAD_REACTORS
330
9
102
}
330
9
100
AcDbDictionary
281
     1
  3
2dWireframe
350
16DF
  3
3D Hidden
350
16E1
  3
3dWireframe
350
16E0
  3
Basic
350
16DE
  3
Brighten
350
16E5
  3
ColorChange
350
16E9
  3
Conceptual
350
16E2
  3
Dim
350
16E4
  3
Facepattern
350
16E8
  3
Flat
350
16DA
  3
FlatWithEdges
350
16DB
  3
Gouraud
350
16DC
  3
GouraudWithEdges
350
16DD
  3
Linepattern
350
16E7
  3
Realistic
350
16E3
  3
Thicken
350
16E6
  0
XRECORD
  5
1926
102
{ACAD_REACTORS
330
9
102
}
330
9
100
AcDbXrecord
280
     1
 90
        1
330
16EB
  0
DICTIONARY
  5
16B
102
{ACAD_REACTORS
330
9
102
}
330
9
100
AcDbDictionary
281
     1
  3
CANNOSCALE
350
192A
  3
CMLEADERSTYLE
350
1928
  3
CTABLESTYLE
350
1927
  3
DIMASSOC
350
16D
  3
HIDETEXT
350
16C
  3
INDEXCTL
350
27C2
  3
LIGHTINGUNITS
350
192B
  3
MSLTSCALE
350
1929
  3
PROJECTNAME
350
16E
  3
SORTENTS
350
7B5
  0
DICTIONARY
  5
17D5
102
{ACAD_REACTORS
330
9
102
}
330
9
100
AcDbDictionary
281
     1
  3
AcmStdDictionary
350
17E5
  3
AMDTSECTSYM_ARROWCOLOR
350
1805
  0
DICTIONARY
  5
1714
102
{ACAD_REACTORS
330
9
102
}
330
9
100
AcDbDictionary
281
     1
  3
AcMgSettings
350
1715
  0
DICTIONARY
  5
1835
102
{ACAD_REACTORS
330
9
102
}
330
9
100
AcDbDictionary
281
     1
  3
DIMENSION
350
183A
  3
FEA
350
1839
  3
HATCH (1)
350
1836
  3
HATCH (2)
350
1837
  3
SIMPLE WELD
350
183B
  3
SYMBOLS
350
1838
  0
DICTIONARY
  5
6DB
102
{ACAD_REACTORS
330
9
102
}
330
9
100
AcDbDictionary
281
     1
  3
ASEBlockHierarchyIndexRecord
350
6DC
1001
DCO15
1040
1546756179.546
  0
XRECORD
  5
27C4
102
{ACAD_REACTORS
330
9
102
}
330
9
100
AcDbXrecord
280
     1
  1
DWGPROPS COOKIE
  2

  3

  4

  6

  7

  8
eglangusj
  9

300
AmdtFileType=84
301
=
302
=
303
=
304
=
305
=
306
=
307
=
308
=
309
=
 40
1.009866863425926
 41
2311946.475710706
 42
2454389.677988912
  1

 90
        1
  0
DICTIONARY
  5
1854
102
{ACAD_REACTORS
330
1852
102
}
330
1852
100
AcDbDictionary
281
     1
  0
DICTIONARY
  5
1853
102
{ACAD_REACTORS
330
1852
102
}
330
1852
100
AcDbDictionary
281
     1
1001
ACAD
1000
<All
  0
XRECORD
  5
181F
102
{ACAD_REACTORS
330
181E
102
}
330
181E
100
AcDbXrecord
280
     1
290
     1
  0
XRECORD
  5
1821
102
{ACAD_REACTORS
330
1820
102
}
330
1820
100
AcDbXrecord
280
     1
290
     1
  0
XRECORD
  5
1823
102
{ACAD_REACTORS
330
1822
102
}
330
1822
100
AcDbXrecord
280
     1
290
     1
  0
XRECORD
  5
1825
102
{ACAD_REACTORS
330
1824
102
}
330
1824
100
AcDbXrecord
280
     1
290
     1
  0
DICTIONARY
  5
1826
102
{ACAD_REACTORS
330
3
102
}
330
3
100
AcDbDictionary
281
     1
  3
*A1
350
1827
  0
XRECORD
  5
4
102
{ACAD_REACTORS
330
3
102
}
330
3
100
AcDbXrecord
280
     1
340
2
  0
SORTENTSTABLE
  5
1846
102
{ACAD_REACTORS
330
3
102
}
330
3
100
AcDbSortentsTable
330
2
331
2768
  5
276C
331
265C
  5
26F1
331
274A
  5
274E
331
2796
  5
2741
331
275A
  5
275E
331
2466
  5
26EA
331
1A53
  5
1E1B
331
2769
  5
276D
331
265D
  5
2740
331
274B
  5
274F
331
2797
  5
2470
331
275B
  5
275F
331
2467
  5
26EB
331
276A
  5
276E
331
265E
  5
2460
331
274C
  5
2750
331
275C
  5
2760
331
2798
  5
26DE
331
276B
  5
276F
331
274D
  5
2751
331
273F
  5
2743
331
275D
  5
2761
331
2799
  5
1FE4
331
1A56
  5
1E1E
331
2468
  5
26EC
331
276C
  5
2770
331
274E
  5
2752
331
275E
  5
2762
331
1A57
  5
1E1F
331
2469
  5
26ED
331
274F
  5
2753
331
276D
  5
2771
331
275F
  5
2763
331
2740
  5
2744
331
1FE4
  5
1FF3
331
2750
  5
2754
331
26FA
  5
2742
331
276E
  5
2772
331
2741
  5
2745
331
1FE5
  5
1FF4
331
278D
  5
2791
331
1A58
  5
1E20
331
2751
  5
2755
331
276F
  5
2773
331
2760
  5
2764
331
2742
  5
2746
331
1FE6
  5
245A
331
278E
  5
2792
331
2752
  5
2756
331
245E
  5
26E2
331
2770
  5
2774
331
1DC1
  5
1FE5
331
2761
  5
2765
331
2743
  5
2747
331
278F
  5
2793
331
2753
  5
2757
331
245F
  5
26E3
331
2771
  5
2775
331
1DC2
  5
1FE6
331
2762
  5
2766
331
2778
  5
278E
331
2110
  5
2471
331
2744
  5
2748
331
2772
  5
2776
331
2790
  5
2794
331
2460
  5
26E4
331
2754
  5
2758
331
1DC3
  5
1FED
331
2745
  5
2749
331
2763
  5
2767
331
2111
  5
2476
331
2779
  5
278F
331
2773
  5
2777
331
2461
  5
26E5
331
2755
  5
2759
331
1A4E
  5
1C4E
331
1DC4
  5
1FEE
331
277A
  5
2790
331
2746
  5
274A
331
2764
  5
2768
331
2112
  5
2477
331
2774
  5
2778
331
2792
  5
2796
331
2462
  5
26E6
331
2756
  5
275A
331
1A4F
  5
1C4F
331
1DC5
  5
1FEF
331
2747
  5
274B
331
2765
  5
2769
331
2113
  5
2479
331
2775
  5
2779
331
2793
  5
2797
331
2463
  5
26E7
331
2757
  5
275B
331
1A50
  5
1C55
331
1DC6
  5
1FF0
331
2114
  5
247B
331
2748
  5
274C
331
2766
  5
276A
331
2758
  5
275C
331
2464
  5
26E8
331
2776
  5
277A
331
2794
  5
2798
331
1A51
  5
1E19
331
2115
  5
2514
331
2749
  5
274D
331
2767
  5
276B
331
2759
  5
275D
331
2465
  5
26E9
331
2777
  5
278D
331
2795
  5
2799
331
1A52
  5
1E1A
  0
XRECORD
  5
14A
102
{ACAD_REACTORS
330
149
102
}
330
149
100
AcDbXrecord
280
     1
340
148
  0
XRECORD
  5
27CA
102
{ACAD_REACTORS
330
27C9
102
}
330
27C9
100
AcDbXrecord
280
     1
102
SHADEPLOT
 70
     0
  0
XRECORD
  5
27CC
102
{ACAD_REACTORS
330
27CB
102
}
330
27CB
100
AcDbXrecord
280
     1
102
SHADEPLOT
 70
     0
  0
LAYOUT
  5
14D
102
{ACAD_XDICTIONARY
360
27C7
102
}
102
{ACAD_REACTORS
330
147
102
}
330
147
100
AcDbPlotSettings
  1

  2
\\ris\laserc
  4
A4
  6

 40
6.805083274841308
 41
5.069413185119628
 42
6.805084228515625
 43
5.027069091796875
 44
209.9733276367187
 45
296.9683227539062
 46
0.0
 47
0.0
 48
0.0
 49
0.0
140
0.0
141
0.0
142
1.0
143
4.0
 70
   688
 72
     1
 73
     1
 74
     5
  7
monochrome.ctb
 75
    18
147
0.25
148
0.0
149
0.0
100
AcDbLayout
  1
Layout1
 70
     0
 71
     1
 10
-20.1082763671875
 20
-27.22033309936524
 11
1167.765014648437
 21
812.6729774475098
 12
0.0
 22
0.0
 32
0.0
 14
114.7487361907958
 24
78.54526405334468
 34
0.0
 15
1032.738625717163
 25
706.9073764801025
 35
0.0
146
0.0
 13
0.0
 23
0.0
 33
0.0
 16
1.0
 26
0.0
 36
0.0
 17
0.0
 27
1.0
 37
0.0
 76
     0
330
148
331
17F
  0
LAYOUT
  5
146
102
{ACAD_XDICTIONARY
360
27C5
102
}
102
{ACAD_REACTORS
330
147
102
}
330
147
100
AcDbPlotSettings
  1

  2
\\ris\laserc
  4
A4
  6

 40
6.805083274841308
 41
5.069413185119628
 42
6.805084228515625
 43
5.027069091796875
 44
209.9733276367187
 45
296.9683227539062
 46
11.4
 47
35.65
 48
36.08173645326978
 49
39.13963998603622
140
251.6490471755318
141
212.6978016188405
142
1.0
143
1.0
 70
 11956
 72
     1
 73
     1
 74
     4
  7
monochrome.ctb
 75
    16
147
1.0
148
-36.08173645326978
149
-39.13963998603622
100
AcDbLayout
  1
Model
 70
     1
 71
     0
 10
0.0
 20
0.0
 11
12.0
 21
9.0
 12
0.0
 22
0.0
 32
0.0
 14
0.0
 24
0.0
 34
0.0
 15
0.0
 25
0.0
 35
0.0
146
0.0
 13
0.0
 23
0.0
 33
0.0
 16
1.0
 26
0.0
 36
0.0
 17
0.0
 27
1.0
 37
0.0
 76
     0
330
2
331
16BF
  0
MATERIAL
  5
16C9
102
{ACAD_XDICTIONARY
360
16CA
102
}
102
{ACAD_REACTORS
330
161
102
}
330
161
100
AcDbMaterial
  1
ByBlock
 72
     0
 43
0.0208333333333333
 43
0.0
 43
0.0
 43
0.0
 43
0.0
 43
0.0208333333333333
 43
0.0
 43
0.0
 43
0.0
 43
0.0
 43
1.0
 43
0.0
 43
0.0
 43
0.0
 43
0.0
 43
1.0
 77
     0
 47
0.0208333333333333
 47
0.0
 47
0.0
 47
0.0
 47
0.0
 47
0.0208333333333333
 47
0.0
 47
0.0
 47
0.0
 47
0.0
 47
1.0
 47
0.0
 47
0.0
 47
0.0
 47
0.0
 47
1.0
171
     0
 49
0.0208333333333333
 49
0.0
 49
0.0
 49
0.0
 49
0.0
 49
0.0208333333333333
 49
0.0
 49
0.0
 49
0.0
 49
0.0
 49
1.0
 49
0.0
 49
0.0
 49
0.0
 49
0.0
 49
1.0
175
     0
142
0.0208333333333333
142
0.0
142
0.0
142
0.0
142
0.0
142
0.0208333333333333
142
0.0
142
0.0
142
0.0
142
0.0
142
1.0
142
0.0
142
0.0
142
0.0
142
0.0
142
1.0
179
     0
144
0.0208333333333333
144
0.0
144
0.0
144
0.0
144
0.0
144
0.0208333333333333
144
0.0
144
0.0
144
0.0
144
0.0
144
1.0
144
0.0
144
0.0
144
0.0
144
0.0
144
1.0
147
0.0208333333333333
147
0.0
147
0.0
147
0.0
147
0.0
147
0.0208333333333333
147
0.0
147
0.0
147
0.0
147
0.0
147
1.0
147
0.0
147
0.0
147
0.0
147
0.0
147
1.0
  0
MATERIAL
  5
16C1
102
{ACAD_XDICTIONARY
360
16C2
102
}
102
{ACAD_REACTORS
330
161
102
}
330
161
100
AcDbMaterial
  1
ByLayer
 72
     0
 43
0.0208333333333333
 43
0.0
 43
0.0
 43
0.0
 43
0.0
 43
0.0208333333333333
 43
0.0
 43
0.0
 43
0.0
 43
0.0
 43
1.0
 43
0.0
 43
0.0
 43
0.0
 43
0.0
 43
1.0
 77
     0
 47
0.0208333333333333
 47
0.0
 47
0.0
 47
0.0
 47
0.0
 47
0.0208333333333333
 47
0.0
 47
0.0
 47
0.0
 47
0.0
 47
1.0
 47
0.0
 47
0.0
 47
0.0
 47
0.0
 47
1.0
171
     0
 49
0.0208333333333333
 49
0.0
 49
0.0
 49
0.0
 49
0.0
 49
0.0208333333333333
 49
0.0
 49
0.0
 49
0.0
 49
0.0
 49
1.0
 49
0.0
 49
0.0
 49
0.0
 49
0.0
 49
1.0
175
     0
142
0.0208333333333333
142
0.0
142
0.0
142
0.0
142
0.0
142
0.0208333333333333
142
0.0
142
0.0
142
0.0
142
0.0
142
1.0
142
0.0
142
0.0
142
0.0
142
0.0
142
1.0
179
     0
144
0.0208333333333333
144
0.0
144
0.0
144
0.0
144
0.0
144
0.0208333333333333
144
0.0
144
0.0
144
0.0
144
0.0
144
1.0
144
0.0
144
0.0
144
0.0
144
0.0
144
1.0
147
0.0208333333333333
147
0.0
147
0.0
147
0.0
147
0.0
147
0.0208333333333333
147
0.0
147
0.0
147
0.0
147
0.0
147
1.0
147
0.0
147
0.0
147
0.0
147
0.0
147
1.0
  0
MATERIAL
  5
16D1
102
{ACAD_XDICTIONARY
360
16D2
102
}
102
{ACAD_REACTORS
330
161
102
}
330
161
100
AcDbMaterial
  1
Global
 72
     0
 43
0.0208333333333333
 43
0.0
 43
0.0
 43
0.0
 43
0.0
 43
0.0208333333333333
 43
0.0
 43
0.0
 43
0.0
 43
0.0
 43
1.0
 43
0.0
 43
0.0
 43
0.0
 43
0.0
 43
1.0
 77
     0
 47
0.0208333333333333
 47
0.0
 47
0.0
 47
0.0
 47
0.0
 47
0.0208333333333333
 47
0.0
 47
0.0
 47
0.0
 47
0.0
 47
1.0
 47
0.0
 47
0.0
 47
0.0
 47
0.0
 47
1.0
171
     0
 49
0.0208333333333333
 49
0.0
 49
0.0
 49
0.0
 49
0.0
 49
0.0208333333333333
 49
0.0
 49
0.0
 49
0.0
 49
0.0
 49
1.0
 49
0.0
 49
0.0
 49
0.0
 49
0.0
 49
1.0
175
     0
142
0.0208333333333333
142
0.0
142
0.0
142
0.0
142
0.0
142
0.0208333333333333
142
0.0
142
0.0
142
0.0
142
0.0
142
1.0
142
0.0
142
0.0
142
0.0
142
0.0
142
1.0
179
     0
144
0.0208333333333333
144
0.0
144
0.0
144
0.0
144
0.0
144
0.0208333333333333
144
0.0
144
0.0
144
0.0
144
0.0
144
1.0
144
0.0
144
0.0
144
0.0
144
0.0
144
1.0
147
0.0208333333333333
147
0.0
147
0.0
147
0.0
147
0.0
147
0.0208333333333333
147
0.0
147
0.0
147
0.0
147
0.0
147
1.0
147
0.0
147
0.0
147
0.0
147
0.0
147
1.0
  0
MLEADERSTYLE
  5
170F
102
{ACAD_REACTORS
330
170E
102
}
330
170E
100
AcDbMLeaderStyle
170
     2
171
     1
172
     0
 90
        2
 40
0.0
 41
0.0
173
     1
 91
-1056964608
340
153
 92
       -2
290
     1
 42
2.0
291
     1
 43
0.36
  3
Standard
 44
4.0
300

342
150
174
     1
178
     6
175
     1
176
     0
 93
-1056964608
 45
4.0
292
     0
297
     0
 46
4.0
 94
-1056964608
 47
1.0
 49
1.0
140
1.0
293
     1
141
0.0
294
     1
177
     0
142
1.0
295
     0
296
     0
143
0.125
1001
ACAD_MLEADERVER
1070
     2
  0
MLINESTYLE
  5
163
102
{ACAD_REACTORS
330
15F
102
}
330
15F
100
AcDbMlineStyle
  2
STANDARD
 70
     0
  3

 62
     0
 51
90.0
 52
90.0
 71
     2
 49
0.5
 62
   256
  6
BYLAYER
 49
-0.5
 62
   256
  6
BYLAYER
  0
ACDBPLACEHOLDER
  5
7
102
{ACAD_REACTORS
330
8
102
}
330
8
  0
SCALE
  5
16ED
102
{ACAD_REACTORS
330
16EC
102
}
330
16EC
100
AcDbScale
 70
     0
300
1:1
140
1.0
141
1.0
290
     1
  0
SCALE
  5
16EE
102
{ACAD_REACTORS
330
16EC
102
}
330
16EC
100
AcDbScale
 70
     0
300
1:2
140
1.0
141
2.0
290
     0
  0
SCALE
  5
16EF
102
{ACAD_REACTORS
330
16EC
102
}
330
16EC
100
AcDbScale
 70
     0
300
1:4
140
1.0
141
4.0
290
     0
  0
SCALE
  5
16F0
102
{ACAD_REACTORS
330
16EC
102
}
330
16EC
100
AcDbScale
 70
     0
300
1:5
140
1.0
141
5.0
290
     0
  0
SCALE
  5
16F1
102
{ACAD_REACTORS
330
16EC
102
}
330
16EC
100
AcDbScale
 70
     0
300
1:8
140
1.0
141
8.0
290
     0
  0
SCALE
  5
16F2
102
{ACAD_REACTORS
330
16EC
102
}
330
16EC
100
AcDbScale
 70
     0
300
1:10
140
1.0
141
10.0
290
     0
  0
SCALE
  5
16F3
102
{ACAD_REACTORS
330
16EC
102
}
330
16EC
100
AcDbScale
 70
     0
300
1:16
140
1.0
141
16.0
290
     0
  0
SCALE
  5
16F4
102
{ACAD_REACTORS
330
16EC
102
}
330
16EC
100
AcDbScale
 70
     0
300
1:20
140
1.0
141
20.0
290
     0
  0
SCALE
  5
16F5
102
{ACAD_REACTORS
330
16EC
102
}
330
16EC
100
AcDbScale
 70
     0
300
1:30
140
1.0
141
30.0
290
     0
  0
SCALE
  5
16F6
102
{ACAD_REACTORS
330
16EC
102
}
330
16EC
100
AcDbScale
 70
     0
300
1:40
140
1.0
141
40.0
290
     0
  0
SCALE
  5
16F7
102
{ACAD_REACTORS
330
16EC
102
}
330
16EC
100
AcDbScale
 70
     0
300
1:50
140
1.0
141
50.0
290
     0
  0
SCALE
  5
16F8
102
{ACAD_REACTORS
330
16EC
102
}
330
16EC
100
AcDbScale
 70
     0
300
1:100
140
1.0
141
100.0
290
     0
  0
SCALE
  5
16F9
102
{ACAD_REACTORS
330
16EC
102
}
330
16EC
100
AcDbScale
 70
     0
300
2:1
140
2.0
141
1.0
290
     0
  0
SCALE
  5
16FA
102
{ACAD_REACTORS
330
16EC
102
}
330
16EC
100
AcDbScale
 70
     0
300
4:1
140
4.0
141
1.0
290
     0
  0
SCALE
  5
16FB
102
{ACAD_REACTORS
330
16EC
102
}
330
16EC
100
AcDbScale
 70
     0
300
8:1
140
8.0
141
1.0
290
     0
  0
SCALE
  5
16FC
102
{ACAD_REACTORS
330
16EC
102
}
330
16EC
100
AcDbScale
 70
     0
300
10:1
140
10.0
141
1.0
290
     0
  0
SCALE
  5
16FD
102
{ACAD_REACTORS
330
16EC
102
}
330
16EC
100
AcDbScale
 70
     0
300
100:1
140
100.0
141
1.0
290
     0
  0
SCALE
  5
16FE
102
{ACAD_REACTORS
330
16EC
102
}
330
16EC
100
AcDbScale
 70
     0
300
1/128" = 1'-0"
140
0.0078125
141
12.0
290
     0
  0
SCALE
  5
16FF
102
{ACAD_REACTORS
330
16EC
102
}
330
16EC
100
AcDbScale
 70
     0
300
1/64" = 1'-0"
140
0.015625
141
12.0
290
     0
  0
SCALE
  5
1700
102
{ACAD_REACTORS
330
16EC
102
}
330
16EC
100
AcDbScale
 70
     0
300
1/32" = 1'-0"
140
0.03125
141
12.0
290
     0
  0
SCALE
  5
1701
102
{ACAD_REACTORS
330
16EC
102
}
330
16EC
100
AcDbScale
 70
     0
300
1/16" = 1'-0"
140
0.0625
141
12.0
290
     0
  0
SCALE
  5
1702
102
{ACAD_REACTORS
330
16EC
102
}
330
16EC
100
AcDbScale
 70
     0
300
3/32" = 1'-0"
140
0.09375
141
12.0
290
     0
  0
SCALE
  5
1703
102
{ACAD_REACTORS
330
16EC
102
}
330
16EC
100
AcDbScale
 70
     0
300
1/8" = 1'-0"
140
0.125
141
12.0
290
     0
  0
SCALE
  5
1704
102
{ACAD_REACTORS
330
16EC
102
}
330
16EC
100
AcDbScale
 70
     0
300
3/16" = 1'-0"
140
0.1875
141
12.0
290
     0
  0
SCALE
  5
1705
102
{ACAD_REACTORS
330
16EC
102
}
330
16EC
100
AcDbScale
 70
     0
300
1/4" = 1'-0"
140
0.25
141
12.0
290
     0
  0
SCALE
  5
1706
102
{ACAD_REACTORS
330
16EC
102
}
330
16EC
100
AcDbScale
 70
     0
300
3/8" = 1'-0"
140
0.375
141
12.0
290
     0
  0
SCALE
  5
1707
102
{ACAD_REACTORS
330
16EC
102
}
330
16EC
100
AcDbScale
 70
     0
300
1/2" = 1'-0"
140
0.5
141
12.0
290
     0
  0
SCALE
  5
1708
102
{ACAD_REACTORS
330
16EC
102
}
330
16EC
100
AcDbScale
 70
     0
300
3/4" = 1'-0"
140
0.75
141
12.0
290
     0
  0
SCALE
  5
1709
102
{ACAD_REACTORS
330
16EC
102
}
330
16EC
100
AcDbScale
 70
     0
300
1" = 1'-0"
140
1.0
141
12.0
290
     0
  0
SCALE
  5
170A
102
{ACAD_REACTORS
330
16EC
102
}
330
16EC
100
AcDbScale
 70
     0
300
1-1/2" = 1'-0"
140
1.5
141
12.0
290
     0
  0
SCALE
  5
170B
102
{ACAD_REACTORS
330
16EC
102
}
330
16EC
100
AcDbScale
 70
     0
300
3" = 1'-0"
140
3.0
141
12.0
290
     0
  0
SCALE
  5
170C
102
{ACAD_REACTORS
330
16EC
102
}
330
16EC
100
AcDbScale
 70
     0
300
6" = 1'-0"
140
6.0
141
12.0
290
     0
  0
SCALE
  5
170D
102
{ACAD_REACTORS
330
16EC
102
}
330
16EC
100
AcDbScale
 70
     0
300
1'-0" = 1'-0"
140
12.0
141
12.0
290
     0
  0
TABLESTYLE
  5
16EB
102
{ACAD_XDICTIONARY
360
1924
102
}
102
{ACAD_REACTORS
330
16EA
102
}
330
16EA
100
AcDbTableStyle
  3
Standard
 70
     0
 71
     0
 40
1.5
 41
1.5
280
     0
281
     0
  7
STANDARD
140
4.5
170
     2
 62
     0
 63
     7
283
     0
274
    -2
284
     1
 64
     0
275
    -2
285
     1
 65
     0
276
    -2
286
     1
 66
     0
277
    -2
287
     1
 67
     0
278
    -2
288
     1
 68
     0
279
    -2
289
     1
 69
     0
  7
STANDARD
140
6.0
170
     5
 62
     0
 63
     7
283
     0
274
    -2
284
     1
 64
     0
275
    -2
285
     1
 65
     0
276
    -2
286
     1
 66
     0
277
    -2
287
     1
 67
     0
278
    -2
288
     1
 68
     0
279
    -2
289
     1
 69
     0
  7
STANDARD
140
4.5
170
     5
 62
     0
 63
     7
283
     0
274
    -2
284
     1
 64
     0
275
    -2
285
     1
 65
     0
276
    -2
286
     1
 66
     0
277
    -2
287
     1
 67
     0
278
    -2
288
     1
 68
     0
279
    -2
289
     1
 69
     0
  0
VISUALSTYLE
  5
16DF
102
{ACAD_REACTORS
330
16D9
102
}
330
16D9
100
AcDbVisualStyle
  2
2dWireframe
 70
     4
 71
     0
 72
     2
 73
     0
 90
        0
 40
-0.6
 41
-30.0
 62
     5
 63
     7
 74
     1
 91
        4
 64
     7
 65
   257
 75
     1
175
     1
 42
1.0
 92
        0
 66
   257
 43
1.0
 76
     1
 77
     6
 78
     2
 67
     7
 79
     5
170
     0
171
     0
290
     0
174
     0
 93
        1
 44
0.0
173
     0
291
     0
 45
0.0
1001
ACAD
1000
AcDbSavedByObjectVersion
1070
     0
  0
VISUALSTYLE
  5
16E1
102
{ACAD_REACTORS
330
16D9
102
}
330
16D9
100
AcDbVisualStyle
  2
3D Hidden
 70
     6
 71
     1
 72
     2
 73
     2
 90
        0
 40
-0.6
 41
-30.0
 62
     5
 63
     7
 74
     2
 91
        2
 64
     7
 65
   257
 75
     2
175
     1
 42
40.0
 92
        0
 66
   257
 43
1.0
 76
     1
 77
     6
 78
     2
 67
     7
 79
     3
170
     0
171
     0
290
     0
174
     0
 93
        1
 44
0.0
173
     0
291
     0
 45
0.0
1001
ACAD
1000
AcDbSavedByObjectVersion
1070
     0
  0
VISUALSTYLE
  5
16E0
102
{ACAD_REACTORS
330
16D9
102
}
330
16D9
100
AcDbVisualStyle
  2
3dWireframe
 70
     5
 71
     0
 72
     2
 73
     0
 90
        0
 40
-0.6
 41
-30.0
 62
     5
 63
     7
 74
     1
 91
        4
 64
     7
 65
   257
 75
     1
175
     1
 42
1.0
 92
        0
 66
   257
 43
1.0
 76
     1
 77
     6
 78
     2
 67
     7
 79
     5
170
     0
171
     0
290
     0
174
     0
 93
        1
 44
0.0
173
     0
291
     0
 45
0.0
1001
ACAD
1000
AcDbSavedByObjectVersion
1070
     0
  0
VISUALSTYLE
  5
16DE
102
{ACAD_REACTORS
330
16D9
102
}
330
16D9
100
AcDbVisualStyle
  2
Basic
 70
     7
 71
     1
 72
     0
 73
     1
 90
        0
 40
-0.6
 41
-30.0
 62
     5
 63
     7
 74
     0
 91
        4
 64
     7
 65
   257
 75
     1
175
     1
 42
1.0
 92
        8
 66
     7
 43
1.0
 76
     1
 77
     6
 78
     2
 67
     7
 79
     5
170
     0
171
     0
290
     0
174
     0
 93
        1
 44
0.0
173
     0
291
     1
 45
0.0
1001
ACAD
1000
AcDbSavedByObjectVersion
1070
     0
  0
VISUALSTYLE
  5
16E5
102
{ACAD_REACTORS
330
16D9
102
}
330
16D9
100
AcDbVisualStyle
  2
Brighten
 70
    12
 71
     2
 72
     2
 73
     0
 90
        0
 40
-0.6
 41
-30.0
 62
     5
 63
     7
 74
     1
 91
        4
 64
     7
 65
   257
 75
     1
175
     1
 42
1.0
 92
        8
 66
     7
 43
1.0
 76
     1
 77
     6
 78
     2
 67
     7
 79
     5
170
     0
171
     0
290
     0
174
     0
 93
        1
 44
50.0
173
     0
291
     1
 45
0.0
1001
ACAD
1000
AcDbSavedByObjectVersion
1070
     0
  0
VISUALSTYLE
  5
16E9
102
{ACAD_REACTORS
330
16D9
102
}
330
16D9
100
AcDbVisualStyle
  2
ColorChange
 70
    16
 71
     2
 72
     2
 73
     3
 90
        0
 40
-0.6
 41
-30.0
 62
     5
 63
     8
 74
     1
 91
        4
 64
     7
 65
   257
 75
     1
175
     1
 42
1.0
 92
        8
 66
     8
 43
1.0
 76
     1
 77
     6
 78
     2
 67
     7
 79
     5
170
     0
171
     0
290
     0
174
     0
 93
        1
 44
0.0
173
     0
291
     1
 45
0.0
1001
ACAD
1000
AcDbSavedByObjectVersion
1070
     0
  0
VISUALSTYLE
  5
16E2
102
{ACAD_REACTORS
330
16D9
102
}
330
16D9
100
AcDbVisualStyle
  2
Conceptual
 70
     9
 71
     3
 72
     2
 73
     0
 90
        0
 40
-0.6
 41
-30.0
 62
     5
 63
     7
 74
     2
 91
        2
 64
     7
 65
   257
 75
     1
175
     1
 42
40.0
 92
        8
 66
     7
 43
1.0
 76
     1
 77
     6
 78
     2
 67
     7
 79
     3
170
     0
171
     0
290
     0
174
     0
 93
        1
 44
0.0
173
     0
291
     0
 45
0.0
1001
ACAD
1000
AcDbSavedByObjectVersion
1070
     0
  0
VISUALSTYLE
  5
16E4
102
{ACAD_REACTORS
330
16D9
102
}
330
16D9
100
AcDbVisualStyle
  2
Dim
 70
    11
 71
     2
 72
     2
 73
     0
 90
        0
 40
-0.6
 41
-30.0
 62
     5
 63
     7
 74
     1
 91
        4
 64
     7
 65
   257
 75
     1
175
     1
 42
1.0
 92
        8
 66
     7
 43
1.0
 76
     1
 77
     6
 78
     2
 67
     7
 79
     5
170
     0
171
     0
290
     0
174
     0
 93
        1
 44
-50.0
173
     0
291
     1
 45
0.0
1001
ACAD
1000
AcDbSavedByObjectVersion
1070
     0
  0
VISUALSTYLE
  5
16E8
102
{ACAD_REACTORS
330
16D9
102
}
330
16D9
100
AcDbVisualStyle
  2
Facepattern
 70
    15
 71
     2
 72
     2
 73
     0
 90
        0
 40
-0.6
 41
-30.0
 62
     5
 63
     7
 74
     1
 91
        4
 64
     7
 65
   257
 75
     1
175
     1
 42
1.0
 92
        8
 66
     7
 43
1.0
 76
     1
 77
     6
 78
     2
 67
     7
 79
     5
170
     0
171
     0
290
     0
174
     0
 93
        1
 44
0.0
173
     0
291
     1
 45
0.0
1001
ACAD
1000
AcDbSavedByObjectVersion
1070
     0
  0
VISUALSTYLE
  5
16DA
102
{ACAD_REACTORS
330
16D9
102
}
330
16D9
100
AcDbVisualStyle
  2
Flat
 70
     0
 71
     2
 72
     1
 73
     1
 90
        2
 40
-0.6
 41
30.0
 62
     5
 63
     7
 74
     0
 91
        4
 64
     7
 65
   257
 75
     1
175
     1
 42
1.0
 92
        8
 66
     7
 43
1.0
 76
     1
 77
     6
 78
     2
 67
     7
 79
     5
170
     0
171
     0
290
     0
174
     0
 93
       13
 44
0.0
173
     0
291
     1
 45
0.0
1001
ACAD
1000
AcDbSavedByObjectVersion
1070
     0
  0
VISUALSTYLE
  5
16DB
102
{ACAD_REACTORS
330
16D9
102
}
330
16D9
100
AcDbVisualStyle
  2
FlatWithEdges
 70
     1
 71
     2
 72
     1
 73
     1
 90
        2
 40
-0.6
 41
30.0
 62
     5
 63
     7
 74
     1
 91
        4
 64
     7
 65
   257
 75
     1
175
     1
 42
1.0
 92
        0
 66
   257
 43
1.0
 76
     1
 77
     6
 78
     2
 67
     7
 79
     5
170
     0
171
     0
290
     0
174
     0
 93
       13
 44
0.0
173
     0
291
     1
 45
0.0
1001
ACAD
1000
AcDbSavedByObjectVersion
1070
     0
  0
VISUALSTYLE
  5
16DC
102
{ACAD_REACTORS
330
16D9
102
}
330
16D9
100
AcDbVisualStyle
  2
Gouraud
 70
     2
 71
     2
 72
     2
 73
     1
 90
        2
 40
-0.6
 41
30.0
 62
     5
 63
     7
 74
     0
 91
        4
 64
     7
 65
   257
 75
     1
175
     1
 42
1.0
 92
        0
 66
     7
 43
1.0
 76
     1
 77
     6
 78
     2
 67
     7
 79
     5
170
     0
171
     0
290
     0
174
     0
 93
       13
 44
0.0
173
     0
291
     1
 45
0.0
1001
ACAD
1000
AcDbSavedByObjectVersion
1070
     0
  0
VISUALSTYLE
  5
16DD
102
{ACAD_REACTORS
330
16D9
102
}
330
16D9
100
AcDbVisualStyle
  2
GouraudWithEdges
 70
     3
 71
     2
 72
     2
 73
     1
 90
        2
 40
-0.6
 41
30.0
 62
     5
 63
     7
 74
     1
 91
        4
 64
     7
 65
   257
 75
     1
175
     1
 42
1.0
 92
        0
 66
   257
 43
1.0
 76
     1
 77
     6
 78
     2
 67
     7
 79
     5
170
     0
171
     0
290
     0
174
     0
 93
       13
 44
0.0
173
     0
291
     1
 45
0.0
1001
ACAD
1000
AcDbSavedByObjectVersion
1070
     0
  0
VISUALSTYLE
  5
16E7
102
{ACAD_REACTORS
330
16D9
102
}
330
16D9
100
AcDbVisualStyle
  2
Linepattern
 70
    14
 71
     2
 72
     2
 73
     0
 90
        0
 40
-0.6
 41
-30.0
 62
     5
 63
     7
 74
     1
 91
        4
 64
     7
 65
   257
 75
     7
175
     7
 42
1.0
 92
        8
 66
     7
 43
1.0
 76
     1
 77
     6
 78
     2
 67
     7
 79
     5
170
     0
171
     0
290
     0
174
     0
 93
        1
 44
0.0
173
     0
291
     1
 45
0.0
1001
ACAD
1000
AcDbSavedByObjectVersion
1070
     0
  0
VISUALSTYLE
  5
16E3
102
{ACAD_REACTORS
330
16D9
102
}
330
16D9
100
AcDbVisualStyle
  2
Realistic
 70
     8
 71
     2
 72
     2
 73
     0
 90
        0
 40
-0.6
 41
-30.0
 62
     5
 63
     7
 74
     1
 91
        0
 64
     7
 65
   257
 75
     1
175
     1
 42
1.0
 92
        8
 66
     8
 43
1.0
 76
     1
 77
     6
 78
     2
 67
     7
 79
     5
170
     0
171
     0
290
     0
174
     0
 93
       13
 44
0.0
173
     0
291
     0
 45
0.0
1001
ACAD
1000
AcDbSavedByObjectVersion
1070
     0
  0
VISUALSTYLE
  5
16E6
102
{ACAD_REACTORS
330
16D9
102
}
330
16D9
100
AcDbVisualStyle
  2
Thicken
 70
    13
 71
     2
 72
     2
 73
     0
 90
        0
 40
-0.6
 41
-30.0
 62
     5
 63
     7
 74
     1
 91
        4
 64
     7
 65
   257
 75
     1
175
     1
 42
1.0
 92
       12
 66
     7
 43
1.0
 76
     1
 77
     6
 78
     2
 67
     7
 79
     5
170
     0
171
     0
290
     0
174
     0
 93
        1
 44
0.0
173
     0
291
     1
 45
0.0
1001
ACAD
1000
AcDbSavedByObjectVersion
1070
     0
  0
DICTIONARYVAR
  5
192A
102
{ACAD_REACTORS
330
16B
102
}
330
16B
100
DictionaryVariables
280
     0
  1
1:1
  0
DICTIONARYVAR
  5
1928
102
{ACAD_REACTORS
330
16B
102
}
330
16B
100
DictionaryVariables
280
     0
  1
STANDARD
  0
DICTIONARYVAR
  5
1927
102
{ACAD_REACTORS
330
16B
102
}
330
16B
100
DictionaryVariables
280
     0
  1
STANDARD
  0
DICTIONARYVAR
  5
16D
102
{ACAD_REACTORS
330
16B
102
}
330
16B
100
DictionaryVariables
280
     0
  1
1
  0
DICTIONARYVAR
  5
16C
102
{ACAD_REACTORS
330
16B
102
}
330
16B
100
DictionaryVariables
280
     0
  1
1
  0
DICTIONARYVAR
  5
27C2
102
{ACAD_REACTORS
330
16B
102
}
330
16B
100
DictionaryVariables
280
     0
  1
1
  0
DICTIONARYVAR
  5
192B
102
{ACAD_REACTORS
330
16B
102
}
330
16B
100
DictionaryVariables
280
     0
  1
0
  0
DICTIONARYVAR
  5
1929
102
{ACAD_REACTORS
330
16B
102
}
330
16B
100
DictionaryVariables
280
     0
  1
0
  0
DICTIONARYVAR
  5
16E
102
{ACAD_REACTORS
330
16B
102
}
330
16B
100
DictionaryVariables
280
     0
  1

  0
DICTIONARYVAR
  5
7B5
102
{ACAD_REACTORS
330
16B
102
}
330
16B
100
DictionaryVariables
280
     0
  1
96
  0
DICTIONARY
  5
17E5
102
{ACAD_REACTORS
330
17D5
102
}
330
17D5
100
AcDbDictionary
281
     1
  0
XRECORD
  5
1805
102
{ACAD_REACTORS
330
17D5
102
}
330
17D5
100
AcDbXrecord
280
     1
 90
-1023410169
  0
DICTIONARY
  5
1715
102
{ACAD_REACTORS
330
1714
102
}
330
1714
100
AcDbDictionary
281
     1
  3
DWGSETTINGS
350
1716
  3
TRANSSETTINGS
350
171A
  0
ACAMGFILTERDAT
  5
183A
102
{ACAD_REACTORS
330
1835
102
}
330
1835
100
AcAmgFilterDat
 70
    15
  1
DIMENSION,AMDT_*_DIM
  2
*
  3
*
  4
*
  5
*
290
     1
  0
ACAMGFILTERDAT
  5
1839
102
{ACAD_REACTORS
330
1835
102
}
330
1835
100
AcAmgFilterDat
 70
    15
  1
*
  2
AM_FEA-AM_*
  3
*
  4
*
  5
*
290
     1
  0
ACAMGFILTERDAT
  5
1836
102
{ACAD_REACTORS
330
1835
102
}
330
1835
100
AcAmgFilterDat
 70
    15
  1
HATCH
  2
*
  3
*
  4
*
  5
*
290
     1
  0
ACAMGFILTERDAT
  5
1837
102
{ACAD_REACTORS
330
1835
102
}
330
1835
100
AcAmgFilterDat
 70
    15
  1
LINE
  2
8,8N,*-8,*-8N,AM_8,AM_8N,*-AM_8,*-AM_8N
  3
*
  4
*
  5
INSERT,STDPART2D
290
     1
  0
ACAMGFILTERDAT
  5
183B
102
{ACAD_REACTORS
330
1835
102
}
330
1835
100
AcAmgFilterDat
 70
    15
  1
ARC
  2
AM_5
  3
*
  4
2
  5
INSERT
290
     0
  0
ACAMGFILTERDAT
  5
1838
102
{ACAD_REACTORS
330
1835
102
}
330
1835
100
AcAmgFilterDat
 70
    15
  1
ACMFCFRAME,ACMDATUMTARGET,ACMDATUMID,ACMWELDSYM,ACMSURFSYM,ACMFEATID,ACMPARTREF,ACMBALLOON,AMDTEDGESYM,AMGSCREWCALCTABLE
  2
*
  3
*
  4
*
  5
*
290
     1
  0
XRECORD
  5
6DC
102
{ACAD_REACTORS
330
6DB
102
}
330
6DB
100
AcDbXrecord
280
     1
  0
LAYER_INDEX
  5
1827
102
{ACAD_REACTORS
330
1826
102
}
330
1826
100
AcDbIndex
 40
2454389.677988912
100
AcDbLayerIndex
  8
0
360
1C12
 90
        0
  8
mechanical
360
1C13
 90
       42
  8
copper
360
1C14
 90
       52
  8
Defpoints
360
1C15
 90
        0
  8
kapton
360
1C16
 90
       18
  0
DICTIONARY
  5
27C7
330
14D
100
AcDbDictionary
280
     1
281
     1
  3
ACAD_XREC_ROUNDTRIP
360
27C8
  0
DICTIONARY
  5
27C5
330
146
100
AcDbDictionary
280
     1
281
     1
  3
ACAD_XREC_ROUNDTRIP
360
27C6
  0
DICTIONARY
  5
16CA
330
16C9
100
AcDbDictionary
280
     1
281
     1
  3
ACAD_XREC_ROUNDTRIP
360
27CE
  3
BUMPTILE
360
16CC
  3
DIFFUSETILE
360
16CB
  3
OPACITYTILE
360
16CF
  3
REFLECTIONTILE
360
16CE
  3
REFRACTIONTILE
360
16D0
  3
SPECULARTILE
360
16CD
  0
DICTIONARY
  5
16C2
330
16C1
100
AcDbDictionary
280
     1
281
     1
  3
ACAD_XREC_ROUNDTRIP
360
27CD
  3
BUMPTILE
360
16C4
  3
DIFFUSETILE
360
16C3
  3
OPACITYTILE
360
16C7
  3
REFLECTIONTILE
360
16C6
  3
REFRACTIONTILE
360
16C8
  3
SPECULARTILE
360
16C5
  0
DICTIONARY
  5
16D2
330
16D1
100
AcDbDictionary
280
     1
281
     1
  3
ACAD_XREC_ROUNDTRIP
360
27CF
  3
BUMPTILE
360
16D4
  3
DIFFUSETILE
360
16D3
  3
OPACITYTILE
360
16D7
  3
REFLECTIONTILE
360
16D6
  3
REFRACTIONTILE
360
16D8
  3
SPECULARTILE
360
16D5
  0
DICTIONARY
  5
1924
330
16EB
100
AcDbDictionary
280
     1
281
     1
  3
ACAD_ROUNDTRIP_2008_TABLESTYLE_CELLSTYLEMAP
360
27C3
  3
ACAD_XREC_ROUNDTRIP
360
27D0
  0
IDBUFFER
  5
1C12
330
0
100
AcDbIdBuffer
  0
IDBUFFER
  5
1C13
330
0
100
AcDbIdBuffer
330
273F
330
2740
330
2741
330
2742
330
2743
330
2744
330
2745
330
2746
330
2747
330
2748
330
2749
330
274A
330
274B
330
274C
330
274D
330
274E
330
2761
330
2762
330
2763
330
2764
330
2765
330
2766
330
2767
330
2768
330
2769
330
276A
330
276B
330
276C
330
276D
330
276E
330
276F
330
2770
330
2771
330
2772
330
2773
330
2774
330
2775
330
2776
330
2777
330
2778
330
2779
330
277A
  0
IDBUFFER
  5
1C14
330
0
100
AcDbIdBuffer
330
1A4E
330
1A4F
330
1A50
330
1A51
330
1A52
330
1A53
330
1A56
330
1A57
330
1A58
330
1DC1
330
1DC2
330
1DC3
330
1DC4
330
1DC5
330
1DC6
330
1FE4
330
1FE5
330
1FE6
330
2110
330
2111
330
2112
330
2113
330
2114
330
2115
330
245E
330
245F
330
2460
330
2461
330
2462
330
2463
330
2464
330
2465
330
2466
330
2467
330
2468
330
2469
330
265C
330
265D
330
265E
330
26FA
330
278D
330
278E
330
278F
330
2790
330
2792
330
2793
330
2794
330
2795
330
2796
330
2797
330
2798
330
2799
  0
IDBUFFER
  5
1C15
330
0
100
AcDbIdBuffer
  0
IDBUFFER
  5
1C16
330
0
100
AcDbIdBuffer
330
274F
330
2750
330
2751
330
2752
330
2753
330
2754
330
2755
330
2756
330
2757
330
2758
330
2759
330
275A
330
275B
330
275C
330
275D
330
275E
330
275F
330
2760
  0
XRECORD
  5
27C8
102
{ACAD_REACTORS
330
27C7
102
}
330
27C7
100
AcDbXrecord
280
     1
102
SHADEPLOT
 70
     0
102
SHADEPLOTRESLEVEL
 70
     2
102
SHADEPLOTCUSTOMDPI
 70
   300
  0
XRECORD
  5
27C6
102
{ACAD_REACTORS
330
27C5
102
}
330
27C5
100
AcDbXrecord
280
     1
102
SHADEPLOT
 70
     0
102
SHADEPLOTRESLEVEL
 70
     2
102
SHADEPLOTCUSTOMDPI
 70
   300
  0
XRECORD
  5
27CE
102
{ACAD_REACTORS
330
16CA
102
}
330
16CA
100
AcDbXrecord
280
     1
102
MATERIAL
148
0.0
149
0.0
149
0.0
 93
        0
 94
      127
282
     0
 72
     0
 77
     0
171
     0
175
     0
179
     0
273
     0
  0
XRECORD
  5
16CC
102
{ACAD_REACTORS
330
16CA
102
}
330
16CA
100
AcDbXrecord
280
     1
270
     1
271
     1
  0
XRECORD
  5
16CB
102
{ACAD_REACTORS
330
16CA
102
}
330
16CA
100
AcDbXrecord
280
     1
270
     1
271
     1
  0
XRECORD
  5
16CF
102
{ACAD_REACTORS
330
16CA
102
}
330
16CA
100
AcDbXrecord
280
     1
270
     1
271
     1
  0
XRECORD
  5
16CE
102
{ACAD_REACTORS
330
16CA
102
}
330
16CA
100
AcDbXrecord
280
     1
270
     1
271
     1
  0
XRECORD
  5
16D0
102
{ACAD_REACTORS
330
16CA
102
}
330
16CA
100
AcDbXrecord
280
     1
270
     1
271
     1
  0
XRECORD
  5
16CD
102
{ACAD_REACTORS
330
16CA
102
}
330
16CA
100
AcDbXrecord
280
     1
270
     1
271
     1
  0
XRECORD
  5
27CD
102
{ACAD_REACTORS
330
16C2
102
}
330
16C2
100
AcDbXrecord
280
     1
102
MATERIAL
148
0.0
149
0.0
149
0.0
 93
        0
 94
      127
282
     0
 72
     0
 77
     0
171
     0
175
     0
179
     0
273
     0
  0
XRECORD
  5
16C4
102
{ACAD_REACTORS
330
16C2
102
}
330
16C2
100
AcDbXrecord
280
     1
270
     1
271
     1
  0
XRECORD
  5
16C3
102
{ACAD_REACTORS
330
16C2
102
}
330
16C2
100
AcDbXrecord
280
     1
270
     1
271
     1
  0
XRECORD
  5
16C7
102
{ACAD_REACTORS
330
16C2
102
}
330
16C2
100
AcDbXrecord
280
     1
270
     1
271
     1
  0
XRECORD
  5
16C6
102
{ACAD_REACTORS
330
16C2
102
}
330
16C2
100
AcDbXrecord
280
     1
270
     1
271
     1
  0
XRECORD
  5
16C8
102
{ACAD_REACTORS
330
16C2
102
}
330
16C2
100
AcDbXrecord
280
     1
270
     1
271
     1
  0
XRECORD
  5
16C5
102
{ACAD_REACTORS
330
16C2
102
}
330
16C2
100
AcDbXrecord
280
     1
270
     1
271
     1
  0
XRECORD
  5
27CF
102
{ACAD_REACTORS
330
16D2
102
}
330
16D2
100
AcDbXrecord
280
     1
102
MATERIAL
148
0.0
149
0.0
149
0.0
 93
        0
 94
      127
282
     0
 72
     0
 77
     0
171
     0
175
     0
179
     0
273
     0
  0
XRECORD
  5
16D4
102
{ACAD_REACTORS
330
16D2
102
}
330
16D2
100
AcDbXrecord
280
     1
270
     1
271
     1
  0
XRECORD
  5
16D3
102
{ACAD_REACTORS
330
16D2
102
}
330
16D2
100
AcDbXrecord
280
     1
270
     1
271
     1
  0
XRECORD
  5
16D7
102
{ACAD_REACTORS
330
16D2
102
}
330
16D2
100
AcDbXrecord
280
     1
270
     1
271
     1
  0
XRECORD
  5
16D6
102
{ACAD_REACTORS
330
16D2
102
}
330
16D2
100
AcDbXrecord
280
     1
270
     1
271
     1
  0
XRECORD
  5
16D8
102
{ACAD_REACTORS
330
16D2
102
}
330
16D2
100
AcDbXrecord
280
     1
270
     1
271
     1
  0
XRECORD
  5
16D5
102
{ACAD_REACTORS
330
16D2
102
}
330
16D2
100
AcDbXrecord
280
     1
270
     1
271
     1
  0
CELLSTYLEMAP
  5
27C3
102
{ACAD_REACTORS
330
1924
102
}
330
1924
100
AcDbCellStyleMap
 90
        3
300
CELLSTYLE
  1
TABLEFORMAT_BEGIN
 90
        5
170
     1
 91
        0
 92
    32768
 62
   257
 93
        1
300
CONTENTFORMAT
  1
CONTENTFORMAT_BEGIN
 90
        0
 91
        0
 92
      512
 93
        0
300

 40
0.0
140
1.0
 94
        5
 62
     0
340
150
144
6.0
309
CONTENTFORMAT_END
171
     1
301
MARGIN
  1
CELLMARGIN_BEGIN
 40
1.5
 40
1.5
 40
1.5
 40
1.5
 40
4.5
 40
4.5
309
CELLMARGIN_END
 94
        6
 95
        1
302
GRIDFORMAT
  1
GRIDFORMAT_BEGIN
 90
        0
 91
        1
 62
     0
 92
       -2
340
0
 93
        0
 40
1.125
309
GRIDFORMAT_END
 95
        2
302
GRIDFORMAT
  1
GRIDFORMAT_BEGIN
 90
        0
 91
        1
 62
     0
 92
       -2
340
0
 93
        0
 40
1.125
309
GRIDFORMAT_END
 95
        4
302
GRIDFORMAT
  1
GRIDFORMAT_BEGIN
 90
        0
 91
        1
 62
     0
 92
       -2
340
0
 93
        0
 40
1.125
309
GRIDFORMAT_END
 95
        8
302
GRIDFORMAT
  1
GRIDFORMAT_BEGIN
 90
        0
 91
        1
 62
     0
 92
       -2
340
0
 93
        0
 40
1.125
309
GRIDFORMAT_END
 95
       16
302
GRIDFORMAT
  1
GRIDFORMAT_BEGIN
 90
        0
 91
        1
 62
     0
 92
       -2
340
0
 93
        0
 40
1.125
309
GRIDFORMAT_END
 95
       32
302
GRIDFORMAT
  1
GRIDFORMAT_BEGIN
 90
        0
 91
        1
 62
     0
 92
       -2
340
0
 93
        0
 40
1.125
309
GRIDFORMAT_END
309
TABLEFORMAT_END
  1
CELLSTYLE_BEGIN
 90
        1
 91
        1
300
_TITLE
309
CELLSTYLE_END
300
CELLSTYLE
  1
TABLEFORMAT_BEGIN
 90
        5
170
     1
 91
        0
 92
        0
 62
   257
 93
        1
300
CONTENTFORMAT
  1
CONTENTFORMAT_BEGIN
 90
        0
 91
        0
 92
      512
 93
        0
300

 40
0.0
140
1.0
 94
        5
 62
     0
340
150
144
4.5
309
CONTENTFORMAT_END
171
     1
301
MARGIN
  1
CELLMARGIN_BEGIN
 40
1.5
 40
1.5
 40
1.5
 40
1.5
 40
4.5
 40
4.5
309
CELLMARGIN_END
 94
        6
 95
        1
302
GRIDFORMAT
  1
GRIDFORMAT_BEGIN
 90
        0
 91
        1
 62
     0
 92
       -2
340
0
 93
        0
 40
1.125
309
GRIDFORMAT_END
 95
        2
302
GRIDFORMAT
  1
GRIDFORMAT_BEGIN
 90
        0
 91
        1
 62
     0
 92
       -2
340
0
 93
        0
 40
1.125
309
GRIDFORMAT_END
 95
        4
302
GRIDFORMAT
  1
GRIDFORMAT_BEGIN
 90
        0
 91
        1
 62
     0
 92
       -2
340
0
 93
        0
 40
1.125
309
GRIDFORMAT_END
 95
        8
302
GRIDFORMAT
  1
GRIDFORMAT_BEGIN
 90
        0
 91
        1
 62
     0
 92
       -2
340
0
 93
        0
 40
1.125
309
GRIDFORMAT_END
 95
       16
302
GRIDFORMAT
  1
GRIDFORMAT_BEGIN
 90
        0
 91
        1
 62
     0
 92
       -2
340
0
 93
        0
 40
1.125
309
GRIDFORMAT_END
 95
       32
302
GRIDFORMAT
  1
GRIDFORMAT_BEGIN
 90
        0
 91
        1
 62
     0
 92
       -2
340
0
 93
        0
 40
1.125
309
GRIDFORMAT_END
309
TABLEFORMAT_END
  1
CELLSTYLE_BEGIN
 90
        2
 91
        1
300
_HEADER
309
CELLSTYLE_END
300
CELLSTYLE
  1
TABLEFORMAT_BEGIN
 90
        5
170
     1
 91
        0
 92
        0
 62
   257
 93
        1
300
CONTENTFORMAT
  1
CONTENTFORMAT_BEGIN
 90
        0
 91
        0
 92
      512
 93
        0
300

 40
0.0
140
1.0
 94
        2
 62
     0
340
150
144
4.5
309
CONTENTFORMAT_END
171
     1
301
MARGIN
  1
CELLMARGIN_BEGIN
 40
1.5
 40
1.5
 40
1.5
 40
1.5
 40
4.5
 40
4.5
309
CELLMARGIN_END
 94
        6
 95
        1
302
GRIDFORMAT
  1
GRIDFORMAT_BEGIN
 90
        0
 91
        1
 62
     0
 92
       -2
340
0
 93
        0
 40
1.125
309
GRIDFORMAT_END
 95
        2
302
GRIDFORMAT
  1
GRIDFORMAT_BEGIN
 90
        0
 91
        1
 62
     0
 92
       -2
340
0
 93
        0
 40
1.125
309
GRIDFORMAT_END
 95
        4
302
GRIDFORMAT
  1
GRIDFORMAT_BEGIN
 90
        0
 91
        1
 62
     0
 92
       -2
340
0
 93
        0
 40
1.125
309
GRIDFORMAT_END
 95
        8
302
GRIDFORMAT
  1
GRIDFORMAT_BEGIN
 90
        0
 91
        1
 62
     0
 92
       -2
340
0
 93
        0
 40
1.125
309
GRIDFORMAT_END
 95
       16
302
GRIDFORMAT
  1
GRIDFORMAT_BEGIN
 90
        0
 91
        1
 62
     0
 92
       -2
340
0
 93
        0
 40
1.125
309
GRIDFORMAT_END
 95
       32
302
GRIDFORMAT
  1
GRIDFORMAT_BEGIN
 90
        0
 91
        1
 62
     0
 92
       -2
340
0
 93
        0
 40
1.125
309
GRIDFORMAT_END
309
TABLEFORMAT_END
  1
CELLSTYLE_BEGIN
 90
        3
 91
        2
300
_DATA
309
CELLSTYLE_END
  0
XRECORD
  5
27D0
102
{ACAD_REACTORS
330
1924
102
}
330
1924
100
AcDbXrecord
280
     1
102
ACAD_ROUNDTRIP_PRE2007_TABLESTYLE
 90
      512
 91
        0
  1

 92
      512
 93
        0
  2

 94
      512
 95
        0
  3

  0
ENDSEC
  0
EOF
