  0
SECTION
  2
HEADER
  9
$ACADVER
  1
AC1015
  9
$ACADMAINTVER
 70
    20
  9
$DWGCODEPAGE
  3
ANSI_1252
  9
$INSBASE
 10
0.0
 20
0.0
 30
0.0
  9
$EXTMIN
 10
-0.0308828432382598
 20
-0.0121022761082941
 30
-0.0000000349181948
  9
$EXTMAX
 10
987.504335037403
 20
320.0063194802916
 30
0.0000000814935746
  9
$LIMMIN
 10
0.0
 20
0.0
  9
$LIMMAX
 10
0.0
 20
0.0
  9
$ORTHOMODE
 70
     1
  9
$REGENMODE
 70
     1
  9
$FILLMODE
 70
     1
  9
$QTEXTMODE
 70
     0
  9
$MIRRTEXT
 70
     1
  9
$LTSCALE
 40
1.0
  9
$ATTMODE
 70
     1
  9
$TEXTSIZE
 40
10.0
  9
$TRACEWID
 40
0.05
  9
$TEXTSTYLE
  7
STANDARD
  9
$CLAYER
  8
copper
  9
$CELTYPE
  6
CONTINUOUS
  9
$CECOLOR
 62
   256
  9
$CELTSCALE
 40
1.0
  9
$DISPSILH
 70
     0
  9
$DIMSCALE
 40
1.0
  9
$DIMASZ
 40
0.18
  9
$DIMEXO
 40
0.0625
  9
$DIMDLI
 40
0.38
  9
$DIMRND
 40
0.0
  9
$DIMDLE
 40
0.0
  9
$DIMEXE
 40
0.18
  9
$DIMTP
 40
0.0
  9
$DIMTM
 40
0.0
  9
$DIMTXT
 40
10.0
  9
$DIMCEN
 40
0.09
  9
$DIMTSZ
 40
0.0
  9
$DIMTOL
 70
     0
  9
$DIMLIM
 70
     0
  9
$DIMTIH
 70
     1
  9
$DIMTOH
 70
     1
  9
$DIMSE1
 70
     0
  9
$DIMSE2
 70
     0
  9
$DIMTAD
 70
     0
  9
$DIMZIN
 70
     0
  9
$DIMBLK
  1

  9
$DIMASO
 70
     1
  9
$DIMSHO
 70
     1
  9
$DIMPOST
  1

  9
$DIMAPOST
  1

  9
$DIMALT
 70
     0
  9
$DIMALTD
 70
     2
  9
$DIMALTF
 40
25.4
  9
$DIMLFAC
 40
1.0
  9
$DIMTOFL
 70
     0
  9
$DIMTVP
 40
0.0
  9
$DIMTIX
 70
     0
  9
$DIMSOXD
 70
     0
  9
$DIMSAH
 70
     0
  9
$DIMBLK1
  1

  9
$DIMBLK2
  1

  9
$DIMSTYLE
  2
STANDARD
  9
$DIMCLRD
 70
     0
  9
$DIMCLRE
 70
     0
  9
$DIMCLRT
 70
     0
  9
$DIMTFAC
 40
1.0
  9
$DIMGAP
 40
0.09
  9
$DIMJUST
 70
     0
  9
$DIMSD1
 70
     0
  9
$DIMSD2
 70
     0
  9
$DIMTOLJ
 70
     1
  9
$DIMTZIN
 70
     0
  9
$DIMALTZ
 70
     0
  9
$DIMALTTZ
 70
     0
  9
$DIMUPT
 70
     0
  9
$DIMDEC
 70
     4
  9
$DIMTDEC
 70
     4
  9
$DIMALTU
 70
     2
  9
$DIMALTTD
 70
     2
  9
$DIMTXSTY
  7
STANDARD
  9
$DIMAUNIT
 70
     0
  9
$DIMADEC
 70
     5
  9
$DIMALTRND
 40
0.0
  9
$DIMAZIN
 70
     0
  9
$DIMDSEP
 70
    46
  9
$DIMATFIT
 70
     3
  9
$DIMFRAC
 70
     0
  9
$DIMLDRBLK
  1

  9
$DIMLUNIT
 70
     2
  9
$DIMLWD
 70
    -2
  9
$DIMLWE
 70
    -2
  9
$DIMTMOVE
 70
     0
  9
$LUNITS
 70
     2
  9
$LUPREC
 70
     4
  9
$SKETCHINC
 40
0.1
  9
$FILLETRAD
 40
0.0
  9
$AUNITS
 70
     0
  9
$AUPREC
 70
     0
  9
$MENU
  1
acad
  9
$ELEVATION
 40
0.0
  9
$PELEVATION
 40
0.0
  9
$THICKNESS
 40
0.0
  9
$LIMCHECK
 70
     0
  9
$CHAMFERA
 40
0.0
  9
$CHAMFERB
 40
0.0
  9
$CHAMFERC
 40
0.0
  9
$CHAMFERD
 40
0.0
  9
$SKPOLY
 70
     0
  9
$TDCREATE
 40
2311946.475710706
  9
$TDUCREATE
 40
2311946.434044039
  9
$TDUPDATE
 40
2454392.392458924
  9
$TDUUPDATE
 40
2454392.350792257
  9
$TDINDWG
 40
1.1185157755
  9
$TDUSRTIMER
 40
1.1185156597
  9
$USRTIMER
 70
     1
  9
$ANGBASE
 50
0.0
  9
$ANGDIR
 70
     0
  9
$PDMODE
 70
     0
  9
$PDSIZE
 40
0.0
  9
$PLINEWID
 40
1.199999999999999
  9
$SPLFRAME
 70
     0
  9
$SPLINETYPE
 70
     6
  9
$SPLINESEGS
 70
     8
  9
$HANDSEED
  5
3640
  9
$SURFTAB1
 70
     6
  9
$SURFTAB2
 70
     6
  9
$SURFTYPE
 70
     6
  9
$SURFU
 70
     6
  9
$SURFV
 70
     6
  9
$UCSBASE
  2

  9
$UCSNAME
  2

  9
$UCSORG
 10
0.0
 20
0.0
 30
0.0
  9
$UCSXDIR
 10
1.0
 20
0.0
 30
0.0
  9
$UCSYDIR
 10
0.0
 20
1.0
 30
0.0
  9
$UCSORTHOREF
  2

  9
$UCSORTHOVIEW
 70
     0
  9
$UCSORGTOP
 10
0.0
 20
0.0
 30
0.0
  9
$UCSORGBOTTOM
 10
0.0
 20
0.0
 30
0.0
  9
$UCSORGLEFT
 10
0.0
 20
0.0
 30
0.0
  9
$UCSORGRIGHT
 10
0.0
 20
0.0
 30
0.0
  9
$UCSORGFRONT
 10
0.0
 20
0.0
 30
0.0
  9
$UCSORGBACK
 10
0.0
 20
0.0
 30
0.0
  9
$PUCSBASE
  2

  9
$PUCSNAME
  2

  9
$PUCSORG
 10
0.0
 20
0.0
 30
0.0
  9
$PUCSXDIR
 10
1.0
 20
0.0
 30
0.0
  9
$PUCSYDIR
 10
0.0
 20
1.0
 30
0.0
  9
$PUCSORTHOREF
  2

  9
$PUCSORTHOVIEW
 70
     0
  9
$PUCSORGTOP
 10
0.0
 20
0.0
 30
0.0
  9
$PUCSORGBOTTOM
 10
0.0
 20
0.0
 30
0.0
  9
$PUCSORGLEFT
 10
0.0
 20
0.0
 30
0.0
  9
$PUCSORGRIGHT
 10
0.0
 20
0.0
 30
0.0
  9
$PUCSORGFRONT
 10
0.0
 20
0.0
 30
0.0
  9
$PUCSORGBACK
 10
0.0
 20
0.0
 30
0.0
  9
$USERI1
 70
     0
  9
$USERI2
 70
     0
  9
$USERI3
 70
     0
  9
$USERI4
 70
     0
  9
$USERI5
 70
     0
  9
$USERR1
 40
0.0
  9
$USERR2
 40
0.0
  9
$USERR3
 40
0.0
  9
$USERR4
 40
0.0
  9
$USERR5
 40
0.0
  9
$WORLDVIEW
 70
     1
  9
$SHADEDGE
 70
     3
  9
$SHADEDIF
 70
    70
  9
$TILEMODE
 70
     1
  9
$MAXACTVP
 70
    16
  9
$PINSBASE
 10
0.0
 20
0.0
 30
0.0
  9
$PLIMCHECK
 70
     0
  9
$PEXTMIN
 10
114.7487361907958
 20
78.54526405334468
 30
0.0
  9
$PEXTMAX
 10
1032.738625717163
 20
706.9073764801025
 30
0.0
  9
$PLIMMIN
 10
-20.1082763671875
 20
-27.22033309936524
  9
$PLIMMAX
 10
1167.765014648437
 20
812.6729774475098
  9
$UNITMODE
 70
     0
  9
$VISRETAIN
 70
     0
  9
$PLINEGEN
 70
     1
  9
$PSLTSCALE
 70
     0
  9
$TREEDEPTH
 70
  3020
  9
$CMLSTYLE
  2
STANDARD
  9
$CMLJUST
 70
     0
  9
$CMLSCALE
 40
1.0
  9
$PROXYGRAPHICS
 70
     1
  9
$MEASUREMENT
 70
     1
  9
$CELWEIGHT
370
    -1
  9
$ENDCAPS
280
     0
  9
$JOINSTYLE
280
     0
  9
$LWDISPLAY
290
     0
  9
$INSUNITS
 70
     0
  9
$HYPERLINKBASE
  1

  9
$STYLESHEET
  1
monochrome.ctb
  9
$XEDIT
290
     1
  9
$CEPSNTYPE
380
     0
  9
$PSTYLEMODE
290
     1
  9
$FINGERPRINTGUID
  2
{44CFACF6-FF42-4479-A730-8E27374F1164}
  9
$VERSIONGUID
  2
{EA98C44F-D79F-4CD5-A62D-58165A73F0E9}
  9
$EXTNAMES
290
     1
  9
$PSVPSCALE
 40
0.0
  9
$OLESTARTUP
290
     0
  0
ENDSEC
  0
SECTION
  2
CLASSES
  0
CLASS
  1
IMAGE
  2
AcDbRasterImage
  3
ISM
 90
    32895
280
     0
281
     1
  0
CLASS
  1
DICTIONARYVAR
  2
AcDbDictionaryVar
  3
ObjectDBX Classes
 90
        0
280
     0
281
     0
  0
CLASS
  1
RASTERVARIABLES
  2
AcDbRasterVariables
  3
ISM
 90
    32768
280
     0
281
     0
  0
CLASS
  1
IMAGEDEF
  2
AcDbRasterImageDef
  3
ISM
 90
    32768
280
     0
281
     0
  0
CLASS
  1
IMAGEDEF_REACTOR
  2
AcDbRasterImageDefReactor
  3
ISM
 90
    32769
280
     0
281
     0
  0
CLASS
  1
IDBUFFER
  2
AcDbIdBuffer
  3
ObjectDBX Classes
 90
        0
280
     0
281
     0
  0
CLASS
  1
SPATIAL_FILTER
  2
AcDbSpatialFilter
  3
ObjectDBX Classes
 90
    32768
280
     0
281
     0
  0
CLASS
  1
SORTENTSTABLE
  2
AcDbSortentsTable
  3
ObjectDBX Classes
 90
        0
280
     0
281
     0
  0
CLASS
  1
LAYER_INDEX
  2
AcDbLayerIndex
  3
ObjectDBX Classes
 90
        0
280
     0
281
     0
  0
CLASS
  1
SPATIAL_INDEX
  2
AcDbSpatialIndex
  3
ObjectDBX Classes
 90
    32768
280
     0
281
     0
  0
CLASS
  1
OBJECT_PTR
  2
CAseDLPNTableRecord
  3
ASE-LPNTableRecord
 90
    32769
280
     0
281
     0
  0
CLASS
  1
LAYOUT
  2
AcDbLayout
  3
ObjectDBX Classes
 90
        0
280
     0
281
     0
  0
CLASS
  1
PLOTSETTINGS
  2
AcDbPlotSettings
  3
ObjectDBX Classes
 90
    32768
280
     0
281
     0
  0
CLASS
  1
ACDBDICTIONARYWDFLT
  2
AcDbDictionaryWithDefault
  3
ObjectDBX Classes
 90
        0
280
     0
281
     0
  0
CLASS
  1
ACDBPLACEHOLDER
  2
AcDbPlaceHolder
  3
ObjectDBX Classes
 90
        0
280
     0
281
     0
  0
CLASS
  1
VBA_PROJECT
  2
AcDbVbaProject
  3
acad
 90
    32768
280
     0
281
     0
  0
CLASS
  1
WIPEOUT
  2
AcDbWipeout
  3
WipeOut|AutoCAD Express Tool|expresstools@autodesk.com
 90
    32895
280
     0
281
     1
  0
CLASS
  1
WIPEOUTVARIABLES
  2
AcDbWipeoutVariables
  3
WipeOut|AutoCAD Express Tool|expresstools@autodesk.com
 90
    32768
280
     0
281
     0
  0
CLASS
  1
RTEXT
  2
RText
  3
RText|AutoCAD Express Tool|expresstools@autodesk.com
 90
    32768
280
     0
281
     1
  0
CLASS
  1
ARCALIGNEDTEXT
  2
AcDbArcAlignedText
  3
ATEXT|AutoCAD Express Tool|expresstools@autodesk.com
 90
    32768
280
     0
281
     1
  0
CLASS
  1
MATERIAL
  2
AcDbMaterial
  3
ObjectDBX Classes
 90
     1153
280
     0
281
     0
  0
CLASS
  1
VISUALSTYLE
  2
AcDbVisualStyle
  3
ObjectDBX Classes
 90
     4095
280
     0
281
     0
  0
CLASS
  1
TABLESTYLE
  2
AcDbTableStyle
  3
ObjectDBX Classes
 90
     4095
280
     0
281
     0
  0
CLASS
  1
SCALE
  2
AcDbScale
  3
ObjectDBX Classes
 90
     1153
280
     0
281
     0
  0
CLASS
  1
MLEADERSTYLE
  2
AcDbMLeaderStyle
  3
ACDB_MLEADERSTYLE_CLASS
 90
     4095
280
     0
281
     0
  0
CLASS
  1
ACME_DOCUMENT
  2
AcMeDbDoc
  3
AcMeServices
 90
     1024
280
     0
281
     0
  0
CLASS
  1
AMGSETTINGSOBJ
  2
AmgSettingsObj
  3
"AcadM|Product Description: AutoCAD Mechanical|Company: Autodesk, Inc."
 90
     1024
280
     0
281
     0
  0
CLASS
  1
ACMESCOPE
  2
AcMeScope
  3
AcMeServices
 90
     1024
280
     0
281
     0
  0
CLASS
  1
ACMECOMMANDHISTORY
  2
AcMeCommandHistory
  3
AcMeServices
 90
     1024
280
     0
281
     0
  0
CLASS
  1
ACIMSYSVARMAN
  2
AcImSysVarManager
  3
AcMeServices
 90
     1024
280
     0
281
     0
  0
CLASS
  1
ACIMREALSYSVAR
  2
AcImRealSysVar
  3
AcMeServices
 90
     1024
280
     0
281
     0
  0
CLASS
  1
ACIMINTSYSVAR
  2
AcImIntSysVar
  3
AcMeServices
 90
     1024
280
     0
281
     0
  0
CLASS
  1
ACMEDRAWINGMAN
  2
AcMeDrawingMan
  3
AcMeServices
 90
     1024
280
     0
281
     0
  0
CLASS
  1
ACMEVIEW
  2
AcMeView
  3
AcMeServices
 90
     1024
280
     0
281
     0
  0
CLASS
  1
ACDBENTITYCACHE
  2
AcMeEntityCache
  3
AcMeServices
 90
     1024
280
     0
281
     0
  0
CLASS
  1
GSMANAGER
  2
AcMeGSManager
  3
AcMeServices
 90
     1024
280
     0
281
     0
  0
CLASS
  1
AMDTINTERNALREACTOR
  2
AmdtInternalReactor
  3
AcMeServices
 90
     1024
280
     0
281
     0
  0
CLASS
  1
ACMESTATEMGR
  2
AcMeStateMgr
  3
AcMeServices
 90
     1024
280
     0
281
     0
  0
CLASS
  1
ACGREFMASTER
  2
AcGrefMaster
  3
AcAttribServices
 90
     1024
280
     0
281
     0
  0
CLASS
  1
AM_DRAWING_MGR
  2
AcDmDwgMgr
  3
AcMechDwgViewMgmt
 90
     1024
280
     0
281
     0
  0
CLASS
  1
AM_DWG_DOCUMENT
  2
AcDmDwgDocument
  3
AcMechDwgViewMgmt
 90
     1024
280
     0
281
     0
  0
CLASS
  1
AM_DWG_SHEET
  2
AcDmSheet
  3
AcMechDwgViewMgmt
 90
     1024
280
     0
281
     0
  0
CLASS
  1
AM_VIEWDIMPARMAP
  2
AcDmViewDimParMap
  3
AcMechDwgViewMgmt
 90
     1024
280
     0
281
     0
  0
CLASS
  1
AM_DWGMGR_NAME
  2
AcDmDwgMgrName
  3
AcMechDwgViewMgmt
 90
     1024
280
     0
281
     0
  0
CLASS
  1
ACME_DATABASE
  2
AcMeDbDatabase
  3
AcMeServices
 90
     1024
280
     0
281
     0
  0
CLASS
  1
ACRFINSADJUSTERMGR
  2
AcRfInsAdjusterMgr
  3
AcMeServices
 90
     1024
280
     0
281
     0
  0
CLASS
  1
ACGREFACADMASTER
  2
AcGrefacadMaster
  3
AcGrefServices
 90
     1024
280
     0
281
     0
  0
CLASS
  1
AMDTMENUSTATEMGR
  2
AmdtMenuStateMgr
  3
McadcomServices
 90
     1024
280
     0
281
     0
  0
CLASS
  1
AMDTMCOMMENUSTATE
  2
AmdtMcomMenuState
  3
McadcomServices
 90
     1024
280
     0
281
     0
  0
CLASS
  1
AMIMASTER
  2
AmiMaster
  3
AmiServices
 90
     1024
280
     0
281
     0
  0
CLASS
  1
ASAPP
  2
AcAsAppObject
  3
AutoSurfServices
 90
     1024
280
     0
281
     0
  0
CLASS
  1
IM_STATIC_MAN
  2
AcImStaticVarManager
  3
AcMeServices
 90
     1024
280
     0
281
     0
  0
CLASS
  1
ACIMSTRSYSVAR
  2
AcImStrSysVar
  3
AcMeServices
 90
     1024
280
     0
281
     0
  0
CLASS
  1
ACIMDBLSTATICVAR
  2
AcImDblStaticVar
  3
AcMeServices
 90
     1024
280
     0
281
     0
  0
CLASS
  1
ACIMSTRSTATICVAR
  2
AcImStrStaticVar
  3
AcMeServices
 90
     1024
280
     0
281
     0
  0
CLASS
  1
ACIMINTSTATICVAR
  2
AcImIntStaticVar
  3
AcMeServices
 90
     1024
280
     0
281
     0
  0
CLASS
  1
ACASGREFMASTER
  2
AcAsGrefMaster
  3
AutoSurfResolverServices
 90
     1024
280
     0
281
     0
  0
CLASS
  1
ACADGREFMODULE
  2
AcAdGrefModule
  3
AdGrefServices
 90
     1024
280
     0
281
     0
  0
CLASS
  1
AMDTMAPISURFMOUDULE
  2
AmdtMApiSurfModule
  3
MApiSurfServices
 90
     1024
280
     0
281
     0
  0
CLASS
  1
MAPIAMMOUDLE
  2
MApiAmModule
  3
MApiAmServices
 90
     1024
280
     0
281
     0
  0
CLASS
  1
AMDTADMENUSTATE
  2
AmdtAdMenuState
  3
DesignerServices
 90
     1024
280
     0
281
     0
  0
CLASS
  1
ADAPPL
  2
AcAdAppl
  3
DesignerServices
 90
     1024
280
     0
281
     0
  0
CLASS
  1
DEPMGR
  2
AcAdDepMgr
  3
DesignerServices
 90
     1024
280
     0
281
     0
  0
CLASS
  1
PARAMMGR
  2
AcAdParamMgr
  3
DesignerServices
 90
     1024
280
     0
281
     0
  0
CLASS
  1
PARAMSCOPE
  2
AcAdParamScope
  3
DesignerServices
 90
     1024
280
     0
281
     0
  0
CLASS
  1
NAMEDAPPL
  2
AcAdNamedAppl
  3
DesignerServices
 90
     1024
280
     0
281
     0
  0
CLASS
  1
AMDTDMMENUSTATE
  2
AmdtDmMenuState
  3
AcMechDwgViewMgmt
 90
     1024
280
     0
281
     0
  0
CLASS
  1
MAPIADMODULE
  2
MApiAdModule
  3
MApiAdServices
 90
     1024
280
     0
281
     0
  0
CLASS
  1
AMDTAMMENUSTATE
  2
AmdtAmMenuState
  3
DesignerAssemblies
 90
     1024
280
     0
281
     0
  0
CLASS
  1
ACAMPROJECT
  2
AcAmProject
  3
DesignerAssemblies
 90
     1024
280
     0
281
     0
  0
CLASS
  1
ACAMGRCOMPDEF
  2
AcAmGrCompDef
  3
DesignerAssemblies
 90
     1024
280
     0
281
     0
  0
CLASS
  1
ACCMCONTEXT
  2
AcCmContext
  3
DesignerAssemblies
 90
     1024
280
     0
281
     0
  0
CLASS
  1
ACAMCOMPDEF
  2
AcAmCompDef
  3
DesignerAssemblies
 90
     1024
280
     0
281
     0
  0
CLASS
  1
ACAMCOMPDEFMGR
  2
AcAmCompDefMgr
  3
DesignerAssemblies
 90
     1024
280
     0
281
     0
  0
CLASS
  1
AMCONTEXTMGR
  2
AcAmContextMgr
  3
DesignerAssemblies
 90
     1024
280
     0
281
     0
  0
CLASS
  1
ACAMCONTEXTMODELER
  2
AcAmContextModeler
  3
DesignerAssemblies
 90
     1024
280
     0
281
     0
  0
CLASS
  1
ACMDATADICTIONARY
  2
AcmDataDictionary
  3
"AcmSymBB|Product Description: AutoCAD Mechanical|Company: Autodesk, Inc."
 90
     1024
280
     0
281
     0
  0
CLASS
  1
ACMDATAENTRYBLOCK
  2
AcmDataEntryBlock
  3
AcmSymBB|Product Description: AutoCAD Mechanical|Company: Autodesk, Inc.
 90
     1024
280
     0
281
     0
  0
CLASS
  1
ACRFATTGENMGR
  2
AcRfAttGeneralMgr
  3
AcAttribServices
 90
     1024
280
     0
281
     0
  0
CLASS
  1
ACRFOBJATTMGR
  2
AcRfObjAttGroupMgr
  3
AcAttribServices
 90
     1024
280
     0
281
     0
  0
CLASS
  1
ACRFMCADAPIATTHOLDER
  2
AcRfMCADAPIAttHolder
  3
AcAttribServices
 90
     1024
280
     0
281
     0
  0
CLASS
  1
AMDTSYSATTR
  2
AmdtSystemAttribute
  3
AcAttribServices
 90
     1024
280
     0
281
     0
  0
CLASS
  1
CATALOGSTATE
  2
AcAmCatalogState
  3
DesignerAssemblies
 90
     1024
280
     0
281
     0
  0
CLASS
  1
ACAMGRCOMPDEFSET
  2
AcAmGrCompDefSet
  3
DesignerAssemblies
 90
     1024
280
     0
281
     0
  0
CLASS
  1
AMDTBROWSERDBTAB
  2
AmdtBrowserDbTab
  3
McadcomServices
 90
     1024
280
     0
281
     0
  0
CLASS
  1
CBROWSERAPPOBJECT
  2
CBrowserAppObject
  3
McadcomServices
 90
     1024
280
     0
281
     0
  0
CLASS
  1
DM_PLACEHOLDER
  2
AcDmSelsetPlaceholder
  3
AcMechDwgViewMgmt
 90
     1024
280
     0
281
     0
  0
CLASS
  1
ACMSTANDARDISO
  2
AcmStandardISO
  3
"Amdt_StdImp|Product Description: AutoCAD Mechanical|Company: Autodesk, Inc."
 90
     1024
280
     0
281
     0
  0
CLASS
  1
AMGOBJPROPCFG
  2
AmgObjPropCfg
  3
"AmgLay|Product Description: AutoCAD Mechanical|Company: Autodesk, Inc."
 90
     1025
280
     0
281
     0
  0
CLASS
  1
AMDTEDGESTANDARDISO13715
  2
AmdtEdgeStdISO13715
  3
"Amdt_StdImp|Product Description: AutoCAD Mechanical|Company: Autodesk, Inc."
 90
     1024
280
     0
281
     0
  0
CLASS
  1
ACMSURFSTANDARDISO2002
  2
AcmSurfTextStdISO2002
  3
"Amdt_StdImp|Product Description: AutoCAD Mechanical|Company: Autodesk, Inc."
 90
     1024
280
     0
281
     0
  0
CLASS
  1
ACMFCFSTANDARDISO
  2
AcmFCFStdISO
  3
"Amdt_StdImp|Product Description: AutoCAD Mechanical|Company: Autodesk, Inc."
 90
     1024
280
     0
281
     0
  0
CLASS
  1
ACMWELDSTANDARDISO
  2
AcmWeldingStdISO
  3
"Amdt_StdImp|Product Description: AutoCAD Mechanical|Company: Autodesk, Inc."
 90
     1024
280
     0
281
     0
  0
CLASS
  1
ACMIDSTANDARDISO
  2
AcmIdStdISO
  3
"Amdt_StdImp|Product Description: AutoCAD Mechanical|Company: Autodesk, Inc."
 90
     1024
280
     0
281
     0
  0
CLASS
  1
ACMDATUMSTANDARDISO
  2
AcmDatumStdISO
  3
"Amdt_StdImp|Product Description: AutoCAD Mechanical|Company: Autodesk, Inc."
 90
     1024
280
     0
281
     0
  0
CLASS
  1
ACMBOMSTANDARDISO
  2
AcmBOMStdISO
  3
"Amdt_StdImp|Product Description: AutoCAD Mechanical|Company: Autodesk, Inc."
 90
     1024
280
     0
281
     0
  0
CLASS
  1
ACMDETAILSTANDARDISO
  2
AmdtDetailSymStdISO
  3
"Amdt_StdImp|Product Description: AutoCAD Mechanical|Company: Autodesk, Inc."
 90
     1024
280
     0
281
     0
  0
CLASS
  1
ACMSECTIONSTANDARDISO2001
  2
AmdtSectionSymStdISO2001
  3
"Amdt_StdImp|Product Description: AutoCAD Mechanical|Company: Autodesk, Inc."
 90
     1024
280
     0
281
     0
  0
CLASS
  1
ACMCENTERLINESTANDARDISO
  2
AmdtCenterLineStdISO
  3
"Amdt_StdImp|Product Description: AutoCAD Mechanical|Company: Autodesk, Inc."
 90
     1024
280
     0
281
     0
  0
CLASS
  1
ACMTHREADLINESTANDARDISO
  2
AmdtThreadLineStdISO
  3
"Amdt_StdImp|Product Description: AutoCAD Mechanical|Company: Autodesk, Inc."
 90
     1024
280
     0
281
     0
  0
CLASS
  1
ACMNOTESTANDARDISO
  2
AmdtNoteStdISO
  3
"Amdt_StdImp|Product Description: AutoCAD Mechanical|Company: Autodesk, Inc."
 90
     1024
280
     0
281
     0
  0
CLASS
  1
ACMTAPERSTANDARDISO
  2
AcmTaperStdISO
  3
"Amdt_StdImp|Product Description: AutoCAD Mechanical|Company: Autodesk, Inc."
 90
     1024
280
     0
281
     0
  0
CLASS
  1
ACMANOOTATIONVIEWSTANDARDISO
  2
AmdtAnViewStdISO
  3
"Amdt_StdImp|Product Description: AutoCAD Mechanical|Company: Autodesk, Inc."
 90
     1024
280
     0
281
     0
  0
CLASS
  1
AMDTNOTETEMPLATEDB
  2
AmdtNoteTemplateDB
  3
AcmSymBB|Product Description: AutoCAD Mechanical|Company: Autodesk, Inc.
 90
     1024
280
     0
281
     0
  0
CLASS
  1
ACAMGLAYSTD
  2
AcAmgLayStd
  3
"AmgLay|Product Description: AutoCAD Mechanical|Company: Autodesk, Inc."
 90
     1024
280
     0
281
     0
  0
CLASS
  1
ACAMGDIMSTD
  2
AcAmgDimStd
  3
"AmgDim|Product Description: AutoCAD Mechanical|Company: Autodesk, Inc."
 90
     1024
280
     0
281
     0
  0
CLASS
  1
ACAMGHOLECHARTSTDISO
  2
AcAmgHoleChartStdISO
  3
AmgDim|Product Description: AutoCAD Mechanical|Company: Autodesk, Inc.
 90
     1024
280
     0
281
     0
  0
CLASS
  1
ACAMGTITLESTD
  2
AcAmgTitleStd
  3
"AmgTitle|Product Description: AutoCAD Mechanical|Company: Autodesk, Inc."
 90
     4095
280
     0
281
     0
  0
CLASS
  1
CELLSTYLEMAP
  2
AcDbCellStyleMap
  3
ObjectDBX Classes
 90
     1152
280
     0
281
     0
  0
CLASS
  1
ACAMGFILTERDAT
  2
AcAmgFilterDat
  3
"AcadM|Product Description: AutoCAD Mechanical|Company: Autodesk, Inc."
 90
     1024
280
     0
281
     0
  0
ENDSEC
  0
SECTION
  2
TABLES
  0
TABLE
  2
VPORT
  5
157
330
0
100
AcDbSymbolTable
 70
     1
  0
VPORT
  5
16BF
330
157
100
AcDbSymbolTableRecord
100
AcDbViewportTableRecord
  2
*Active
 70
     0
 10
0.0
 20
0.0
 11
1.0
 21
1.0
 12
-159.8215957531129
 22
-65.07206572538348
 13
0.0
 23
0.0
 14
1.0
 24
1.0
 15
0.0
 25
0.0
 16
0.0
 26
0.0
 36
1.0
 17
653.5583218501953
 27
225.0691743274751
 37
0.0
 40
641.4701991606998
 41
1.5470737913486
 42
50.0
 43
0.0
 44
0.0
 50
0.0
 51
0.0
 71
     0
 72
   100
 73
     1
 74
     1
 75
     0
 76
     0
 77
     0
 78
     0
281
     0
 65
     0
110
0.0
120
0.0
130
0.0
111
1.0
121
0.0
131
0.0
112
0.0
122
1.0
132
0.0
 79
     0
146
0.0
  0
ENDTAB
  0
TABLE
  2
LTYPE
  5
152
330
0
100
AcDbSymbolTable
 70
    16
  0
LTYPE
  5
153
330
152
100
AcDbSymbolTableRecord
100
AcDbLinetypeTableRecord
  2
BYBLOCK
 70
     0
  3

 72
    65
 73
     0
 40
0.0
  0
LTYPE
  5
154
330
152
100
AcDbSymbolTableRecord
100
AcDbLinetypeTableRecord
  2
BYLAYER
 70
     0
  3

 72
    65
 73
     0
 40
0.0
  0
LTYPE
  5
A
330
152
100
AcDbSymbolTableRecord
100
AcDbLinetypeTableRecord
  2
CONTINUOUS
 70
     0
  3
Solid line
 72
    65
 73
     0
 40
0.0
  0
LTYPE
  5
174B
330
152
100
AcDbSymbolTableRecord
100
AcDbLinetypeTableRecord
  2
HIDDEN
 70
     0
  3
Hidden __ __ __ __ __ __ __ __ __ __ __ __ __ _
 72
    65
 73
     2
 40
9.524999999999998
 49
6.349999999999999
 74
     0
 49
-3.174999999999999
 74
     0
  0
LTYPE
  5
174C
330
152
100
AcDbSymbolTableRecord
100
AcDbLinetypeTableRecord
  2
PHANTOM2
 70
     0
  3
Phantom (.5x) ___ _ _ ___ _ _ ___ _ _ ___ _ _
 72
    65
 73
     6
 40
31.75
 49
15.875
 74
     0
 49
-3.174999999999999
 74
     0
 49
3.174999999999999
 74
     0
 49
-3.174999999999999
 74
     0
 49
3.174999999999999
 74
     0
 49
-3.174999999999999
 74
     0
  0
LTYPE
  5
174D
330
152
100
AcDbSymbolTableRecord
100
AcDbLinetypeTableRecord
  2
CENTER
 70
     0
  3
Center ____ _ ____ _ ____ _ ____ _ ____ _ ____
 72
    65
 73
     4
 40
50.8
 49
31.75
 74
     0
 49
-6.349999999999999
 74
     0
 49
6.349999999999999
 74
     0
 49
-6.349999999999999
 74
     0
  0
LTYPE
  5
17E8
330
152
100
AcDbSymbolTableRecord
100
AcDbLinetypeTableRecord
  2
AM_ISO02W050
 70
     0
  3
__ __ __ __ __ __ __ __ __ __ __ __ __ __ __
 72
    65
 73
     2
 40
7.5
 49
6.0
 74
     0
 49
-1.5
 74
     0
  0
LTYPE
  5
17E9
330
152
100
AcDbSymbolTableRecord
100
AcDbLinetypeTableRecord
  2
AM_ISO08W050
 70
     0
  3
____ . ____ . ____ . ____ . ____ . ____ . ____
 72
    65
 73
     4
 40
18.0
 49
12.0
 74
     0
 49
-1.5
 74
     0
 49
3.0
 74
     0
 49
-1.5
 74
     0
  0
LTYPE
  5
17EA
330
152
100
AcDbSymbolTableRecord
100
AcDbLinetypeTableRecord
  2
AM_ISO09W050
 70
     0
  3
_____ . . _____ . . _____ . . ____ .. ____
 72
    65
 73
     6
 40
22.5
 49
12.0
 74
     0
 49
-1.5
 74
     0
 49
3.0
 74
     0
 49
-1.5
 74
     0
 49
3.0
 74
     0
 49
-1.5
 74
     0
  0
LTYPE
  5
17EB
330
152
100
AcDbSymbolTableRecord
100
AcDbLinetypeTableRecord
  2
Amconstr
 70
     0
  3
_______________________
 72
    65
 73
     2
 40
9999.0
 49
9999.0
 74
     0
 49
0.0
 74
     0
  0
LTYPE
  5
17EC
330
152
100
AcDbSymbolTableRecord
100
AcDbLinetypeTableRecord
  2
AM_ISO08W050x2
 70
     0
  3
__ . __ . __ . __ . __ . __
 72
    65
 73
     4
 40
9.0
 49
6.0
 74
     0
 49
-0.75
 74
     0
 49
1.5
 74
     0
 49
-0.75
 74
     0
  0
LTYPE
  5
17ED
330
152
100
AcDbSymbolTableRecord
100
AcDbLinetypeTableRecord
  2
AM_ISO02W050x2
 70
     0
  3
 _ _ _ _ _ _ _ _ _ _ _ _
 72
    65
 73
     2
 40
3.75
 49
3.0
 74
     0
 49
-0.75
 74
     0
  0
LTYPE
  5
17F0
330
152
100
AcDbSymbolTableRecord
100
AcDbLinetypeTableRecord
  2
Amzigzag
 70
     0
  3
/\/-/\/-/\/-/\/-/\/-/\/
 72
    65
 73
     2
 40
11.0001
 49
0.0001
 74
     4
 75
   136
340
17EF
 46
0.04
 50
0.0
 44
0.0
 45
0.0
 49
-11.0
 74
     0
  0
LTYPE
  5
1801
330
152
100
AcDbSymbolTableRecord
100
AcDbLinetypeTableRecord
  2
ACISOWELD
 70
     0
  3
_ _ _ _ _
 72
    65
 73
     2
 40
2.0
 49
2.0
 74
     0
 49
-1.0
 74
     0
  0
LTYPE
  5
1802
330
152
100
AcDbSymbolTableRecord
100
AcDbLinetypeTableRecord
  2
ACISOTGB
 70
     0
  3
__ . . __ . .
 72
    65
 73
     6
 40
9.0
 49
4.0
 74
     0
 49
-1.0
 74
     0
 49
1.0
 74
     0
 49
-1.0
 74
     0
 49
1.0
 74
     0
 49
-1.0
 74
     0
  0
LTYPE
  5
1803
330
152
100
AcDbSymbolTableRecord
100
AcDbLinetypeTableRecord
  2
ACISOTGL
 70
     0
  3
_ _ _ _ _
 72
    65
 73
     2
 40
3.0
 49
2.0
 74
     0
 49
-1.0
 74
     0
  0
LTYPE
  5
3623
330
152
100
AcDbSymbolTableRecord
100
AcDbLinetypeTableRecord
  2
ASULTYPE
 70
     0
  3
Solid line
 72
    65
 73
     2
 40
3.0
 49
2.5
 74
     0
 49
0.5
 74
     0
  0
LTYPE
  5
3624
330
152
100
AcDbSymbolTableRecord
100
AcDbLinetypeTableRecord
  2
ASVLTYPE
 70
     0
  3
__ __ __ __ __ __ __ __ __ __ __ __ __ __ __ __ __ __ __ __ __
 72
    65
 73
     2
 40
0.75
 49
0.5
 74
     0
 49
-0.25
 74
     0
  0
ENDTAB
  0
TABLE
  2
LAYER
  5
14E
102
{ACAD_XDICTIONARY
360
1852
102
}
330
0
100
AcDbSymbolTable
 70
     5
  0
LAYER
  5
6
102
{ACAD_XDICTIONARY
360
181E
102
}
330
14E
100
AcDbSymbolTableRecord
100
AcDbLayerTableRecord
  2
0
 70
     0
 62
     7
  6
CONTINUOUS
370
    -3
390
7
  0
LAYER
  5
C
102
{ACAD_XDICTIONARY
360
1820
102
}
330
14E
100
AcDbSymbolTableRecord
100
AcDbLayerTableRecord
  2
mechanical
 70
     0
 62
     6
  6
CONTINUOUS
370
    -3
390
7
  0
LAYER
  5
174
102
{ACAD_XDICTIONARY
360
1822
102
}
330
14E
100
AcDbSymbolTableRecord
100
AcDbLayerTableRecord
  2
copper
 70
     0
 62
     1
  6
CONTINUOUS
370
    -3
390
7
  0
LAYER
  5
41F
330
14E
100
AcDbSymbolTableRecord
100
AcDbLayerTableRecord
  2
Defpoints
 70
     0
 62
     7
  6
CONTINUOUS
290
     0
370
    -3
390
7
  0
LAYER
  5
794
102
{ACAD_XDICTIONARY
360
1824
102
}
330
14E
100
AcDbSymbolTableRecord
100
AcDbLayerTableRecord
  2
kapton
 70
     0
 62
     2
  6
CONTINUOUS
370
    -3
390
7
  0
ENDTAB
  0
TABLE
  2
STYLE
  5
14F
330
0
100
AcDbSymbolTable
 70
     4
  0
STYLE
  5
150
330
14F
100
AcDbSymbolTableRecord
100
AcDbTextStyleTableRecord
  2
STANDARD
 70
     0
 40
0.0
 41
1.0
 50
0.0
 71
     0
 42
10.0
  3
txt
  4

  0
STYLE
  5
17EF
330
14F
100
AcDbSymbolTableRecord
100
AcDbTextStyleTableRecord
  2

 70
     1
 40
0.0
 41
1.0
 50
0.0
 71
     0
 42
0.0
  3
genltshp.shx
  4

  0
STYLE
  5
17F1
330
14F
100
AcDbSymbolTableRecord
100
AcDbTextStyleTableRecord
  2
ACISOTS
 70
     0
 40
1.0
 41
1.0
 50
0.0
 71
     0
 42
0.0
  3
isocp.shx
  4

  0
STYLE
  5
1800
330
14F
100
AcDbSymbolTableRecord
100
AcDbTextStyleTableRecord
  2
ACISOGDT
 70
     0
 40
0.0
 41
1.0
 50
0.0
 71
     0
 42
0.0
  3
amgdt.shx
  4

  0
ENDTAB
  0
TABLE
  2
VIEW
  5
155
330
0
100
AcDbSymbolTable
 70
     0
  0
ENDTAB
  0
TABLE
  2
UCS
  5
156
330
0
100
AcDbSymbolTable
 70
     0
  0
ENDTAB
  0
TABLE
  2
APPID
  5
159
330
0
100
AcDbSymbolTable
 70
    22
  0
APPID
  5
15A
330
159
100
AcDbSymbolTableRecord
100
AcDbRegAppTableRecord
  2
ACAD
 70
     0
  0
APPID
  5
189
330
159
100
AcDbSymbolTableRecord
100
AcDbRegAppTableRecord
  2
DCO15
 70
     0
  0
APPID
  5
1710
330
159
100
AcDbSymbolTableRecord
100
AcDbRegAppTableRecord
  2
ACAD_MLEADERVER
 70
     0
  0
APPID
  5
1717
330
159
100
AcDbSymbolTableRecord
100
AcDbRegAppTableRecord
  2
GENIUS_GENDIM_13
 70
     0
  0
APPID
  5
1718
330
159
100
AcDbSymbolTableRecord
100
AcDbRegAppTableRecord
  2
GENIUS_GENDTOL_13
 70
     0
  0
APPID
  5
1719
330
159
100
AcDbSymbolTableRecord
100
AcDbRegAppTableRecord
  2
GENIUS_GE3DTOL_13
 70
     0
  0
APPID
  5
171C
330
159
100
AcDbSymbolTableRecord
100
AcDbRegAppTableRecord
  2
MCAD_NO_VIS
 70
     0
  0
APPID
  5
171D
330
159
100
AcDbSymbolTableRecord
100
AcDbRegAppTableRecord
  2
ACAD_TEMP_GRAPHIC
 70
     0
  0
APPID
  5
174F
330
159
100
AcDbSymbolTableRecord
100
AcDbRegAppTableRecord
  2
AD_DRAW
 70
     0
  0
APPID
  5
1752
330
159
100
AcDbSymbolTableRecord
100
AcDbRegAppTableRecord
  2
ACATTRIBSERVICES
 70
     0
  0
APPID
  5
179E
330
159
100
AcDbSymbolTableRecord
100
AcDbRegAppTableRecord
  2
ASURF_PCURVE_APPNAME
 70
     0
  0
APPID
  5
17A3
330
159
100
AcDbSymbolTableRecord
100
AcDbRegAppTableRecord
  2
AMG_3D2D_5.0
 70
     0
  0
APPID
  5
17D4
330
159
100
AcDbSymbolTableRecord
100
AcDbRegAppTableRecord
  2
DESIGNERASSEMBLIES
 70
     0
  0
APPID
  5
17DF
330
159
100
AcDbSymbolTableRecord
100
AcDbRegAppTableRecord
  2
ACADM_DIM_EDIT
 70
     0
  0
APPID
  5
17E0
330
159
100
AcDbSymbolTableRecord
100
AcDbRegAppTableRecord
  2
AMDT_DM_ADJ
 70
     0
  0
APPID
  5
181B
330
159
100
AcDbSymbolTableRecord
100
AcDbRegAppTableRecord
  2
GENIUS_GENSCREG_15
 70
     0
  0
APPID
  5
181C
330
159
100
AcDbSymbolTableRecord
100
AcDbRegAppTableRecord
  2
GENIUS_GENODEF_13
 70
     0
  0
APPID
  5
181D
330
159
100
AcDbSymbolTableRecord
100
AcDbRegAppTableRecord
  2
GENIUS_GENOBJ-N-SDF_13
 70
     0
  0
APPID
  5
183D
330
159
100
AcDbSymbolTableRecord
100
AcDbRegAppTableRecord
  2
ACAD_EXEMPT_FROM_CAD_STANDARDS
 70
     0
  0
APPID
  5
1850
330
159
100
AcDbSymbolTableRecord
100
AcDbRegAppTableRecord
  2
AcAecLayerStandard
 70
     0
  0
APPID
  5
18CC
330
159
100
AcDbSymbolTableRecord
100
AcDbRegAppTableRecord
  2
ACAD_DSTYLE_DIMINSPECT
 70
     0
  0
APPID
  5
363F
330
159
100
AcDbSymbolTableRecord
100
AcDbRegAppTableRecord
  2
ACAD_DSTYLE_DIMARC_LENGTH_SYMBOL
 70
     0
  0
ENDTAB
  0
TABLE
  2
DIMSTYLE
  5
15B
330
0
100
AcDbSymbolTable
 70
     9
100
AcDbDimStyleTable
 71
     1
340
15C
  0
DIMSTYLE
105
15C
330
15B
100
AcDbSymbolTableRecord
100
AcDbDimStyleTableRecord
  2
STANDARD
 70
     0
140
10.0
179
     5
340
150
  0
DIMSTYLE
105
180E
330
15B
100
AcDbSymbolTableRecord
100
AcDbDimStyleTableRecord
  2
AM_ISO
 70
     0
  4
"
 41
2.5
 42
1.0
 43
10.0
 44
1.0
 47
0.1
 48
0.1
 73
     0
 74
     0
 77
     1
 78
     8
 79
     2
140
3.5
141
0.0
143
0.0393701
146
0.71
147
1.5
172
     1
176
   256
177
   256
178
     2
271
     2
272
     3
274
     4
283
     0
284
     8
340
150
371
    -1
372
    -1
1001
ACAD_DSTYLE_DIMARC_LENGTH_SYMBOL
1070
   379
1070
     1
  0
DIMSTYLE
105
180F
330
15B
100
AcDbSymbolTableRecord
100
AcDbDimStyleTableRecord
  2
AM_ISO$3
 70
     0
  4
"
 41
2.5
 42
1.0
 43
10.0
 44
1.0
 47
0.1
 48
0.1
 73
     0
 77
     1
 78
     8
 79
     2
140
3.5
141
0.0
143
0.0393701
146
0.71
147
1.5
176
   256
177
   256
178
     2
271
     2
272
     3
274
     4
283
     0
284
     8
288
     1
289
     0
340
150
371
    -1
372
    -1
1001
ACAD_DSTYLE_DIMARC_LENGTH_SYMBOL
1070
   379
1070
     1
  0
DIMSTYLE
105
1810
330
15B
100
AcDbSymbolTableRecord
100
AcDbDimStyleTableRecord
  2
AM_ISO$4
 70
     0
  4
"
 41
2.5
 42
1.0
 43
10.0
 44
1.0
 47
0.1
 48
0.1
 73
     0
 77
     1
 78
     8
 79
     2
140
3.5
141
0.0
143
0.0393701
146
0.71
147
1.5
176
   256
177
   256
178
     2
271
     2
272
     3
274
     4
283
     0
284
     8
288
     1
289
     0
340
150
371
    -1
372
    -1
1001
ACAD_DSTYLE_DIMARC_LENGTH_SYMBOL
1070
   379
1070
     1
  0
DIMSTYLE
105
1811
330
15B
100
AcDbSymbolTableRecord
100
AcDbDimStyleTableRecord
  2
AM_ISO$6
 70
     0
  4
"
 41
2.5
 42
1.0
 43
10.0
 44
1.0
 47
0.1
 48
0.1
 73
     0
 74
     0
 78
     8
 79
     2
140
3.5
141
0.0
143
0.0393701
146
0.71
147
1.5
172
     1
176
   256
177
   256
178
     2
271
     2
272
     3
274
     4
283
     0
284
     8
340
150
371
    -1
372
    -1
1001
ACAD_DSTYLE_DIMARC_LENGTH_SYMBOL
1070
   379
1070
     1
  0
DIMSTYLE
105
1812
330
15B
100
AcDbSymbolTableRecord
100
AcDbDimStyleTableRecord
  2
AM_ISO$7
 70
     0
  4
"
 41
2.5
 42
1.0
 43
10.0
 44
1.0
 47
0.1
 48
0.1
 73
     0
 74
     0
 77
     1
 78
     8
 79
     2
140
5.0
141
0.0
143
0.0393701
146
0.71
147
1.5
172
     1
176
   256
177
   256
178
     2
271
     2
272
     3
274
     4
283
     0
284
     8
340
150
371
    -1
372
    -1
1001
ACAD_DSTYLE_DIMARC_LENGTH_SYMBOL
1070
   379
1070
     1
  0
DIMSTYLE
105
1813
330
15B
100
AcDbSymbolTableRecord
100
AcDbDimStyleTableRecord
  2
AM_ISO$SF
 70
     0
  4
"
 41
2.5
 42
1.0
 43
10.0
 44
1.0
 47
0.1
 48
0.1
 73
     0
 74
     0
 75
     1
 76
     1
 77
     1
 78
     8
 79
     2
140
3.5
141
0.0
143
0.0393701
146
0.71
147
1.5
172
     1
176
   256
177
   256
178
     2
271
     2
272
     3
274
     4
283
     0
284
     8
340
150
371
    -1
372
    -1
1001
ACAD_DSTYLE_DIMARC_LENGTH_SYMBOL
1070
   379
1070
     1
  0
DIMSTYLE
105
1818
330
15B
100
AcDbSymbolTableRecord
100
AcDbDimStyleTableRecord
  2
AM_ISO$SH
 70
     0
  4
"
 41
2.5
 42
1.0
 43
10.0
 44
1.0
 47
0.1
 48
0.1
 73
     0
 74
     0
 75
     1
 76
     1
 77
     1
 78
     8
 79
     2
140
3.5
141
0.0
143
0.0393701
144
2.0
146
0.71
147
1.5
172
     1
173
     1
176
   256
177
   256
178
     2
271
     2
272
     3
274
     4
283
     0
284
     8
340
150
343
1814
371
    -1
372
    -1
1001
ACAD_DSTYLE_DIMARC_LENGTH_SYMBOL
1070
   379
1070
     1
  0
DIMSTYLE
105
18B0
330
15B
100
AcDbSymbolTableRecord
100
AcDbDimStyleTableRecord
  2
STANDARD$0
 70
     0
140
10.0
179
     5
340
150
  0
ENDTAB
  0
TABLE
  2
BLOCK_RECORD
  5
1
330
0
100
AcDbSymbolTable
 70
     2
  0
BLOCK_RECORD
  5
2
102
{ACAD_XDICTIONARY
360
3
102
}
330
1
100
AcDbSymbolTableRecord
100
AcDbBlockTableRecord
  2
*MODEL_SPACE
340
146
  0
BLOCK_RECORD
  5
148
102
{ACAD_XDICTIONARY
360
149
102
}
330
1
100
AcDbSymbolTableRecord
100
AcDbBlockTableRecord
  2
*PAPER_SPACE
340
14D
  0
BLOCK_RECORD
  5
1814
330
1
100
AcDbSymbolTableRecord
100
AcDbBlockTableRecord
  2
GENAXEH
340
0
  0
ENDTAB
  0
ENDSEC
  0
SECTION
  2
BLOCKS
  0
BLOCK
  5
5
330
2
100
AcDbEntity
  8
0
100
AcDbBlockBegin
  2
*MODEL_SPACE
 70
     0
 10
0.0
 20
0.0
 30
0.0
  3
*MODEL_SPACE
  1

  0
ENDBLK
  5
145
330
2
100
AcDbEntity
  8
0
100
AcDbBlockEnd
  0
BLOCK
  5
14B
330
148
100
AcDbEntity
 67
     1
  8
0
100
AcDbBlockBegin
  2
*PAPER_SPACE
 70
     0
 10
0.0
 20
0.0
 30
0.0
  3
*PAPER_SPACE
  1

  0
ENDBLK
  5
14C
330
148
100
AcDbEntity
 67
     1
  8
0
100
AcDbBlockEnd
  0
BLOCK
  5
1816
330
1814
100
AcDbEntity
  8
0
100
AcDbBlockBegin
  2
GENAXEH
 70
     0
 10
0.0
 20
0.0
 30
0.0
  3
GENAXEH
  1

  0
LINE
  5
1815
330
1814
100
AcDbEntity
  8
0
100
AcDbLine
 10
-1.0
 20
0.0
 30
0.0
 11
1.0
 21
0.0
 31
0.0
  0
ENDBLK
  5
1817
330
1814
100
AcDbEntity
  8
0
100
AcDbBlockEnd
  0
ENDSEC
  0
SECTION
  2
ENTITIES
  0
LWPOLYLINE
  5
2FE8
330
2
100
AcDbEntity
  8
copper
  6
Continuous
100
AcDbPolyline
 90
        2
 70
   129
 43
1.75
 10
490.2354648979135
 20
15.75000000000011
 42
-1.0
 10
491.9854648979135
 20
15.75000000000011
 42
-1.0
  0
LWPOLYLINE
  5
2FE9
330
2
100
AcDbEntity
  8
copper
  6
Continuous
100
AcDbPolyline
 90
        2
 70
   129
 43
1.75
 10
490.2354648979135
 20
14.25000000000034
 42
-1.0
 10
491.9854648979135
 20
14.25000000000034
 42
-1.0
  0
LWPOLYLINE
  5
2FEA
330
2
100
AcDbEntity
  8
copper
  6
Continuous
100
AcDbPolyline
 90
        2
 70
   129
 43
1.75
 10
484.9854648979134
 20
15.75000000000011
 42
-1.0
 10
486.7354648979135
 20
15.75000000000011
 42
-1.0
  0
LWPOLYLINE
  5
2FEB
330
2
100
AcDbEntity
  8
copper
  6
Continuous
100
AcDbPolyline
 90
        2
 70
   129
 43
1.75
 10
484.9854648979134
 20
14.25000000000034
 42
-1.0
 10
486.7354648979135
 20
14.25000000000034
 42
-1.0
  0
LWPOLYLINE
  5
2FEC
330
2
100
AcDbEntity
  8
copper
  6
Continuous
100
AcDbPolyline
 90
        2
 70
   129
 43
1.75
 10
479.7354648979135
 20
16.75000000000011
 42
-1.0
 10
481.4854648979134
 20
16.75000000000011
 42
-1.0
  0
LWPOLYLINE
  5
2FED
330
2
100
AcDbEntity
  8
copper
  6
Continuous
100
AcDbPolyline
 90
        2
 70
   129
 43
1.75
 10
479.7354648979135
 20
14.25000000000023
 42
-1.0
 10
481.4854648979134
 20
14.25000000000023
 42
-1.0
  0
LWPOLYLINE
  5
2FEE
330
2
100
AcDbEntity
  8
copper
  6
Continuous
100
AcDbPolyline
 90
        2
 70
   128
 43
3.5
 10
491.1104648979135
 20
15.75000000000011
 10
491.1104648979135
 20
14.25000000000034
  0
LWPOLYLINE
  5
2FEF
330
2
100
AcDbEntity
  8
copper
  6
Continuous
100
AcDbPolyline
 90
        2
 70
   128
 43
3.5
 10
485.8604648979135
 20
15.75000000000011
 10
485.8604648979135
 20
14.25000000000034
  0
LWPOLYLINE
  5
2FF0
330
2
100
AcDbEntity
  8
copper
  6
Continuous
100
AcDbPolyline
 90
        2
 70
   128
 43
3.5
 10
480.6104648979135
 20
16.75000000000011
 10
480.6104648979135
 20
14.25000000000023
  0
LWPOLYLINE
  5
2FF1
330
2
100
AcDbEntity
  8
copper
  6
Continuous
100
AcDbPolyline
 90
        8
 70
   128
 10
485.8604648979135
 20
15.75000000000011
 40
0.5
 41
0.5
 10
491.3567852414735
 20
21.24632034355955
 40
0.5
 41
0.5
 42
0.1989123673796343
 10
492.2354648979135
 20
23.36764068711921
 40
0.5
 41
0.5
 10
492.2354648979135
 20
181.0674999999996
 40
0.5
 41
0.5
 42
0.4142135623730951
 10
489.2354648979135
 20
184.0674999999996
 40
0.5
 41
0.5
 10
442.3307039883844
 20
184.0674999999996
 40
0.5
 41
0.5
 42
0.1754754094373938
 10
440.4099448265555
 20
183.3719921874997
 40
0.5
 41
0.5
 42
-0.1754754094373958
 10
434.1354648979131
 20
181.1000000000001
 40
0.0
 41
0.0
  0
LWPOLYLINE
  5
2FF2
330
2
100
AcDbEntity
  8
copper
  6
Continuous
100
AcDbPolyline
 90
        2
 70
   129
 43
1.75
 10
474.4854648979135
 20
16.75000000000011
 42
-1.0
 10
476.2354648979135
 20
16.75000000000011
 42
-1.0
  0
LWPOLYLINE
  5
2FF3
330
2
100
AcDbEntity
  8
copper
  6
Continuous
100
AcDbPolyline
 90
        2
 70
   129
 43
1.75
 10
474.4854648979135
 20
14.25000000000023
 42
-1.0
 10
476.2354648979135
 20
14.25000000000023
 42
-1.0
  0
LWPOLYLINE
  5
2FF4
330
2
100
AcDbEntity
  8
copper
  6
Continuous
100
AcDbPolyline
 90
        2
 70
   128
 43
3.5
 10
475.3604648979135
 20
16.75000000000011
 10
475.3604648979135
 20
14.25000000000023
  0
LWPOLYLINE
  5
2FF5
330
2
100
AcDbEntity
  8
copper
  6
Continuous
100
AcDbPolyline
 90
        8
 70
   128
 10
491.1104648979135
 20
15.75000000000011
 40
0.5
 41
0.5
 10
492.3567852414731
 20
16.99632034355966
 40
0.5
 41
0.5
 42
0.1989123673796386
 10
493.2354648979135
 20
19.11764068711932
 40
0.5
 41
0.5
 10
493.2354648979135
 20
181.0674999999996
 40
0.5
 41
0.5
 42
0.4142135623730951
 10
489.2354648979135
 20
185.0674999999994
 40
0.5
 41
0.5
 10
441.0145595876224
 20
185.0674999999994
 40
0.5
 41
0.5
 42
0.1538152149446242
 10
438.7215280243858
 20
184.3449999999998
 40
0.5
 41
0.5
 42
-0.1538152149446229
 10
434.1354648979131
 20
182.9
 40
0.0
 41
0.0
  0
LWPOLYLINE
  5
2FF6
330
2
100
AcDbEntity
  8
copper
  6
Continuous
100
AcDbPolyline
 90
        2
 70
   128
 43
0.5
 10
485.9439275317695
 20
17.24767619622878
 42
0.2134217652834111
 10
488.2321731430401
 20
18.12170824512657
  0
LWPOLYLINE
  5
2FF7
330
2
100
AcDbEntity
  8
copper
  6
Continuous
100
AcDbPolyline
 90
        2
 70
   128
 43
0.5
 10
488.2321731430397
 20
18.12170824512634
 42
0.2134217652833702
 10
487.3581410941424
 20
15.83346263385579
  0
LWPOLYLINE
  5
2FF8
330
2
100
AcDbEntity
  8
copper
  6
Continuous
100
AcDbPolyline
 90
        2
 70
   128
 43
0.5
 10
492.9016994288968
 20
17.7424340023656
 42
0.1546638204980161
 10
492.596287918569
 20
15.95574243920419
  0
LWPOLYLINE
  5
2FF9
330
2
100
AcDbEntity
  8
copper
  6
Continuous
100
AcDbPolyline
 90
        2
 70
   128
 43
0.5
 10
491.3927815931406
 20
17.22319288743745
 42
0.3865611629219576
 10
493.114731678821
 20
18.2751308626307
  0
LWPOLYLINE
  5
311B
330
2
100
AcDbEntity
  8
copper
  6
Continuous
100
AcDbPolyline
 90
        2
 70
   129
 43
0.6
 10
433.8354648979129
 20
182.9000000000003
 42
1.0
 10
434.4354648979133
 20
182.9000000000003
 42
1.0
  0
LWPOLYLINE
  5
311C
330
2
100
AcDbEntity
  8
copper
  6
Continuous
100
AcDbPolyline
 90
        2
 70
   129
 43
0.6
 10
430.0354648979127
 20
182.9000000000003
 42
1.0
 10
430.6354648979131
 20
182.9000000000003
 42
1.0
  0
LWPOLYLINE
  5
311D
330
2
100
AcDbEntity
  8
copper
  6
Continuous
100
AcDbPolyline
 90
        2
 70
   128
 43
1.199999999999999
 10
430.3354648979129
 20
182.9000000000003
 10
434.1354648979131
 20
182.9000000000003
  0
LWPOLYLINE
  5
311E
330
2
100
AcDbEntity
  8
copper
  6
Continuous
100
AcDbPolyline
 90
        2
 70
   129
 43
0.6
 10
433.8354648979129
 20
181.1000000000003
 42
1.0
 10
434.4354648979133
 20
181.1000000000003
 42
1.0
  0
LWPOLYLINE
  5
311F
330
2
100
AcDbEntity
  8
copper
  6
Continuous
100
AcDbPolyline
 90
        2
 70
   129
 43
0.6
 10
430.0354648979127
 20
181.1000000000001
 42
1.0
 10
430.6354648979131
 20
181.1000000000001
 42
1.0
  0
LWPOLYLINE
  5
3120
330
2
100
AcDbEntity
  8
copper
  6
Continuous
100
AcDbPolyline
 90
        2
 70
   128
 43
1.199999999999999
 10
430.3354648979129
 20
181.1000000000001
 10
434.1354648979131
 20
181.1000000000003
  0
LWPOLYLINE
  5
31EF
330
2
100
AcDbEntity
  8
mechanical
  6
Continuous
100
AcDbPolyline
 90
        2
 70
   129
 43
0.127
 10
9.936500000001819
 20
10.00000000000361
 42
1.0
 10
10.06350000000182
 20
10.00000000000361
 42
1.0
  0
LWPOLYLINE
  5
31F0
330
2
100
AcDbEntity
  8
mechanical
  6
Continuous
100
AcDbPolyline
 90
        2
 70
   129
 43
0.127
 10
977.4074297958261
 20
10.00000000000011
 42
1.0
 10
977.5344297958261
 20
10.00000000000011
 42
1.0
  0
LWPOLYLINE
  5
31F1
330
2
100
AcDbEntity
  8
mechanical
  6
Continuous
100
AcDbPolyline
 90
        2
 70
   128
 43
0.254
 10
977.4709297958242
 20
10.00000000000358
 42
0.6201736729460374
 10
10.00000000000182
 20
10.00000000000361
  0
LWPOLYLINE
  5
31F2
330
2
100
AcDbEntity
  8
mechanical
  6
Continuous
100
AcDbPolyline
 90
        2
 70
   128
 43
0.254
 10
977.4709297958262
 20
10.00000000000011
 10
10.0
 20
10.00000000000011
  0
LWPOLYLINE
  5
31F3
330
2
100
AcDbEntity
  8
mechanical
  6
Continuous
100
AcDbPolyline
 90
        2
 70
   128
 43
2.0
 10
0.0000000000004547
 20
1.000000000000117
 10
2.000000000000454
 20
1.000000000000117
  0
LWPOLYLINE
  5
3243
330
2
100
AcDbEntity
  8
mechanical
  6
Continuous
100
AcDbPolyline
 90
        2
 70
   128
 43
2.0
 10
100.0000000000004
 20
1.000000000000117
 10
102.0000000000004
 20
1.000000000000117
  0
LWPOLYLINE
  5
3244
330
2
100
AcDbEntity
  8
mechanical
  6
Continuous
100
AcDbPolyline
 90
        2
 70
   128
 43
2.0
 10
200.0000000000004
 20
1.000000000000117
 10
202.0000000000004
 20
1.000000000000117
  0
LWPOLYLINE
  5
3245
330
2
100
AcDbEntity
  8
mechanical
  6
Continuous
100
AcDbPolyline
 90
        2
 70
   128
 43
2.0
 10
300.0000000000004
 20
1.000000000000117
 10
302.0000000000004
 20
1.000000000000117
  0
LWPOLYLINE
  5
3246
330
2
100
AcDbEntity
  8
mechanical
  6
Continuous
100
AcDbPolyline
 90
        2
 70
   128
 43
2.0
 10
400.0000000000004
 20
1.000000000000117
 10
402.0000000000004
 20
1.000000000000117
  0
LWPOLYLINE
  5
3247
330
2
100
AcDbEntity
  8
mechanical
  6
Continuous
100
AcDbPolyline
 90
        2
 70
   128
 43
2.0
 10
500.0000000000004
 20
1.000000000000117
 10
502.0000000000004
 20
1.000000000000117
  0
LWPOLYLINE
  5
3248
330
2
100
AcDbEntity
  8
mechanical
  6
Continuous
100
AcDbPolyline
 90
        2
 70
   128
 43
2.0
 10
600.0000000000004
 20
1.000000000000117
 10
602.0000000000004
 20
1.000000000000117
  0
LWPOLYLINE
  5
3249
330
2
100
AcDbEntity
  8
mechanical
  6
Continuous
100
AcDbPolyline
 90
        2
 70
   128
 43
2.0
 10
700.0000000000004
 20
1.000000000000117
 10
702.0000000000004
 20
1.000000000000117
  0
LWPOLYLINE
  5
324A
330
2
100
AcDbEntity
  8
mechanical
  6
Continuous
100
AcDbPolyline
 90
        2
 70
   128
 43
2.0
 10
800.0000000000005
 20
1.000000000000117
 10
802.0000000000004
 20
1.000000000000117
  0
LWPOLYLINE
  5
324B
330
2
100
AcDbEntity
  8
mechanical
  6
Continuous
100
AcDbPolyline
 90
        2
 70
   128
 43
2.0
 10
900.0000000000005
 20
1.000000000000117
 10
902.0000000000004
 20
1.000000000000117
  0
LWPOLYLINE
  5
3256
330
2
100
AcDbEntity
  8
mechanical
  6
Continuous
100
AcDbPolyline
 90
        2
 70
   128
 43
2.0
 10
987.4709297958256
 20
1.000000000000117
 10
985.4709297958256
 20
1.000000000000117
  0
LWPOLYLINE
  5
325A
330
2
100
AcDbEntity
  8
mechanical
  6
Continuous
100
AcDbPolyline
 90
        2
 70
   128
 43
2.0
 10
0.0000000000004547
 20
319.0000000000001
 10
2.000000000000454
 20
319.0000000000001
  0
LWPOLYLINE
  5
325B
330
2
100
AcDbEntity
  8
mechanical
  6
Continuous
100
AcDbPolyline
 90
        2
 70
   128
 43
2.0
 10
100.0000000000004
 20
319.0000000000001
 10
102.0000000000004
 20
319.0000000000001
  0
LWPOLYLINE
  5
325C
330
2
100
AcDbEntity
  8
mechanical
  6
Continuous
100
AcDbPolyline
 90
        2
 70
   128
 43
2.0
 10
200.0000000000004
 20
319.0000000000001
 10
202.0000000000004
 20
319.0000000000001
  0
LWPOLYLINE
  5
325D
330
2
100
AcDbEntity
  8
mechanical
  6
Continuous
100
AcDbPolyline
 90
        2
 70
   128
 43
2.0
 10
300.0000000000004
 20
319.0000000000001
 10
302.0000000000004
 20
319.0000000000001
  0
LWPOLYLINE
  5
325E
330
2
100
AcDbEntity
  8
mechanical
  6
Continuous
100
AcDbPolyline
 90
        2
 70
   128
 43
2.0
 10
400.0000000000004
 20
319.0000000000001
 10
402.0000000000004
 20
319.0000000000001
  0
LWPOLYLINE
  5
325F
330
2
100
AcDbEntity
  8
mechanical
  6
Continuous
100
AcDbPolyline
 90
        2
 70
   128
 43
2.0
 10
500.0000000000004
 20
319.0000000000001
 10
502.0000000000004
 20
319.0000000000001
  0
LWPOLYLINE
  5
3260
330
2
100
AcDbEntity
  8
mechanical
  6
Continuous
100
AcDbPolyline
 90
        2
 70
   128
 43
2.0
 10
600.0000000000004
 20
319.0000000000001
 10
602.0000000000004
 20
319.0000000000001
  0
LWPOLYLINE
  5
3261
330
2
100
AcDbEntity
  8
mechanical
  6
Continuous
100
AcDbPolyline
 90
        2
 70
   128
 43
2.0
 10
700.0000000000004
 20
319.0000000000001
 10
702.0000000000004
 20
319.0000000000001
  0
LWPOLYLINE
  5
3262
330
2
100
AcDbEntity
  8
mechanical
  6
Continuous
100
AcDbPolyline
 90
        2
 70
   128
 43
2.0
 10
800.0000000000005
 20
319.0000000000001
 10
802.0000000000004
 20
319.0000000000001
  0
LWPOLYLINE
  5
3263
330
2
100
AcDbEntity
  8
mechanical
  6
Continuous
100
AcDbPolyline
 90
        2
 70
   128
 43
2.0
 10
900.0000000000005
 20
319.0000000000001
 10
902.0000000000004
 20
319.0000000000001
  0
LWPOLYLINE
  5
3264
330
2
100
AcDbEntity
  8
mechanical
  6
Continuous
100
AcDbPolyline
 90
        2
 70
   128
 43
2.0
 10
987.4709297958256
 20
319.0000000000001
 10
985.4709297958256
 20
319.0000000000001
  0
LWPOLYLINE
  5
326B
330
2
100
AcDbEntity
  8
kapton
  6
Continuous
100
AcDbPolyline
 90
        2
 70
   128
 43
0.254
 10
977.4709297958242
 20
10.00000000000358
 42
0.6201736729460374
 10
10.00000000000182
 20
10.00000000000364
  0
LWPOLYLINE
  5
326C
330
2
100
AcDbEntity
  8
kapton
  6
Continuous
100
AcDbPolyline
 90
        2
 70
   128
 43
0.254
 10
977.4709297958262
 20
10.00000000000011
 10
10.0
 20
10.00000000000011
  0
LWPOLYLINE
  5
326E
330
2
100
AcDbEntity
  8
kapton
  6
Continuous
100
AcDbPolyline
 90
        2
 70
   129
 43
0.127
 10
9.936500000001819
 20
10.00000000000364
 42
1.0
 10
10.06350000000182
 20
10.00000000000364
 42
1.0
  0
LWPOLYLINE
  5
326F
330
2
100
AcDbEntity
  8
kapton
  6
Continuous
100
AcDbPolyline
 90
        2
 70
   129
 43
0.127
 10
977.4074297958261
 20
10.00000000000011
 42
1.0
 10
977.5344297958261
 20
10.00000000000011
 42
1.0
  0
HATCH
  5
3270
330
2
100
AcDbEntity
  8
kapton
  6
Continuous
100
AcDbHatch
 10
0.0
 20
0.0
 30
0.0
210
0.0
220
0.0
230
1.0
  2
ANSI37
 70
     0
 71
     0
 91
        1
 92
        7
 72
     0
 73
     1
 93
        4
 10
513.3604648979135
 20
13.00000000000023
 10
513.3604648979135
 20
18.0
 10
474.1104648979134
 20
18.0
 10
474.1104648979134
 20
13.00000000000023
 97
        0
 75
     0
 76
     1
 52
180.0
 41
0.5
 77
     0
 78
     2
 53
225.0
 43
-1265.592390831556
 44
548.0000000000006
 45
1.122532015133643
 46
-1.122532015133644
 79
     0
 53
315.0
 43
-1265.592390831556
 44
548.0000000000006
 45
1.122532015133644
 46
1.122532015133643
 79
     0
 47
0.1100430533196564
 98
        1
 10
493.9516300213508
 20
14.5706341012783
1001
ACAD
1010
0.0
1020
0.0
1030
0.0
  0
LWPOLYLINE
  5
3271
330
2
100
AcDbEntity
  8
kapton
  6
Continuous
100
AcDbPolyline
 90
        4
 70
     1
 43
0.254
 10
513.3604648979135
 20
13.00000000000023
 10
474.1104648979134
 20
13.00000000000023
 10
474.1104648979134
 20
18.0
 10
513.3604648979135
 20
18.0
  0
LWPOLYLINE
  5
35A6
330
2
100
AcDbEntity
  8
copper
  6
Continuous
100
AcDbPolyline
 90
        2
 70
   129
 43
1.75
 10
497.2354648979126
 20
15.75000000000011
 42
1.0
 10
495.4854648979126
 20
15.75000000000011
 42
1.0
  0
LWPOLYLINE
  5
35A7
330
2
100
AcDbEntity
  8
copper
  6
Continuous
100
AcDbPolyline
 90
        2
 70
   129
 43
1.75
 10
497.2354648979126
 20
14.25000000000034
 42
1.0
 10
495.4854648979126
 20
14.25000000000034
 42
1.0
  0
LWPOLYLINE
  5
35A8
330
2
100
AcDbEntity
  8
copper
  6
Continuous
100
AcDbPolyline
 90
        2
 70
   129
 43
1.75
 10
502.4854648979125
 20
15.75000000000011
 42
1.0
 10
500.7354648979125
 20
15.75000000000011
 42
1.0
  0
LWPOLYLINE
  5
35A9
330
2
100
AcDbEntity
  8
copper
  6
Continuous
100
AcDbPolyline
 90
        2
 70
   129
 43
1.75
 10
502.4854648979125
 20
14.25000000000034
 42
1.0
 10
500.7354648979125
 20
14.25000000000034
 42
1.0
  0
LWPOLYLINE
  5
35AA
330
2
100
AcDbEntity
  8
copper
  6
Continuous
100
AcDbPolyline
 90
        2
 70
   129
 43
1.75
 10
507.7354648979126
 20
16.75000000000011
 42
1.0
 10
505.9854648979126
 20
16.75000000000011
 42
1.0
  0
LWPOLYLINE
  5
35AB
330
2
100
AcDbEntity
  8
copper
  6
Continuous
100
AcDbPolyline
 90
        2
 70
   129
 43
1.75
 10
507.7354648979126
 20
14.25000000000023
 42
1.0
 10
505.9854648979126
 20
14.25000000000023
 42
1.0
  0
LWPOLYLINE
  5
35AC
330
2
100
AcDbEntity
  8
copper
  6
Continuous
100
AcDbPolyline
 90
        2
 70
   128
 43
3.5
 10
496.3604648979126
 20
15.75000000000011
 10
496.3604648979126
 20
14.25000000000034
  0
LWPOLYLINE
  5
35AD
330
2
100
AcDbEntity
  8
copper
  6
Continuous
100
AcDbPolyline
 90
        2
 70
   128
 43
3.5
 10
501.6104648979125
 20
15.75000000000011
 10
501.6104648979125
 20
14.25000000000034
  0
LWPOLYLINE
  5
35AE
330
2
100
AcDbEntity
  8
copper
  6
Continuous
100
AcDbPolyline
 90
        2
 70
   128
 43
3.5
 10
506.8604648979126
 20
16.75000000000011
 10
506.8604648979126
 20
14.25000000000023
  0
LWPOLYLINE
  5
35AF
330
2
100
AcDbEntity
  8
copper
  6
Continuous
100
AcDbPolyline
 90
        8
 70
   128
 10
501.6104648979125
 20
15.75000000000011
 40
0.5
 41
0.5
 10
496.1141445543526
 20
21.24632034355955
 40
0.5
 41
0.5
 42
-0.1989123673796343
 10
495.2354648979126
 20
23.36764068711921
 40
0.5
 41
0.5
 10
495.2354648979126
 20
181.0674999999996
 40
0.5
 41
0.5
 42
-0.4142135623730951
 10
498.2354648979126
 20
184.0674999999996
 40
0.5
 41
0.5
 10
545.1402258074417
 20
184.0674999999996
 40
0.5
 41
0.5
 42
-0.1754754094373938
 10
547.0609849692705
 20
183.3719921874997
 40
0.5
 41
0.5
 42
0.1754754094373958
 10
553.335464897913
 20
181.1000000000001
 40
0.0
 41
0.0
  0
LWPOLYLINE
  5
35B0
330
2
100
AcDbEntity
  8
copper
  6
Continuous
100
AcDbPolyline
 90
        2
 70
   129
 43
1.75
 10
512.9854648979126
 20
16.75000000000011
 42
1.0
 10
511.2354648979126
 20
16.75000000000011
 42
1.0
  0
LWPOLYLINE
  5
35B1
330
2
100
AcDbEntity
  8
copper
  6
Continuous
100
AcDbPolyline
 90
        2
 70
   129
 43
1.75
 10
512.9854648979126
 20
14.25000000000023
 42
1.0
 10
511.2354648979126
 20
14.25000000000023
 42
1.0
  0
LWPOLYLINE
  5
35B2
330
2
100
AcDbEntity
  8
copper
  6
Continuous
100
AcDbPolyline
 90
        2
 70
   128
 43
3.5
 10
512.1104648979126
 20
16.75000000000011
 10
512.1104648979126
 20
14.25000000000023
  0
LWPOLYLINE
  5
35B3
330
2
100
AcDbEntity
  8
copper
  6
Continuous
100
AcDbPolyline
 90
        8
 70
   128
 10
496.3604648979126
 20
15.75000000000011
 40
0.5
 41
0.5
 10
495.114144554353
 20
16.99632034355966
 40
0.5
 41
0.5
 42
-0.1989123673796386
 10
494.2354648979126
 20
19.11764068711932
 40
0.5
 41
0.5
 10
494.2354648979126
 20
181.0674999999996
 40
0.5
 41
0.5
 42
-0.4142135623730951
 10
498.2354648979126
 20
185.0674999999994
 40
0.5
 41
0.5
 10
546.4563702082037
 20
185.0674999999994
 40
0.5
 41
0.5
 42
-0.1538152149446242
 10
548.7494017714403
 20
184.3449999999998
 40
0.5
 41
0.5
 42
0.1538152149446229
 10
553.335464897913
 20
182.9
 40
0.0
 41
0.0
  0
LWPOLYLINE
  5
35B4
330
2
100
AcDbEntity
  8
copper
  6
Continuous
100
AcDbPolyline
 90
        2
 70
   128
 43
0.5
 10
501.5270022640565
 20
17.24767619622878
 42
-0.2134217652834111
 10
499.2387566527859
 20
18.12170824512657
  0
LWPOLYLINE
  5
35B5
330
2
100
AcDbEntity
  8
copper
  6
Continuous
100
AcDbPolyline
 90
        2
 70
   128
 43
0.5
 10
499.2387566527863
 20
18.12170824512634
 42
-0.2134217652833702
 10
500.1127887016837
 20
15.83346263385579
  0
LWPOLYLINE
  5
35B6
330
2
100
AcDbEntity
  8
copper
  6
Continuous
100
AcDbPolyline
 90
        2
 70
   128
 43
0.5
 10
494.5692303669293
 20
17.7424340023656
 42
-0.1546638204980161
 10
494.8746418772571
 20
15.95574243920419
  0
LWPOLYLINE
  5
35B7
330
2
100
AcDbEntity
  8
copper
  6
Continuous
100
AcDbPolyline
 90
        2
 70
   128
 43
0.5
 10
496.0781482026854
 20
17.22319288743745
 42
-0.3865611629219576
 10
494.356198117005
 20
18.2751308626307
  0
LWPOLYLINE
  5
35C6
330
2
100
AcDbEntity
  8
copper
  6
Continuous
100
AcDbPolyline
 90
        2
 70
   129
 43
0.6
 10
553.6354648979131
 20
182.9000000000003
 42
-1.0
 10
553.0354648979128
 20
182.9000000000003
 42
-1.0
  0
LWPOLYLINE
  5
35C7
330
2
100
AcDbEntity
  8
copper
  6
Continuous
100
AcDbPolyline
 90
        2
 70
   129
 43
0.6
 10
557.4354648979133
 20
182.9000000000003
 42
-1.0
 10
556.835464897913
 20
182.9000000000003
 42
-1.0
  0
LWPOLYLINE
  5
35C8
330
2
100
AcDbEntity
  8
copper
  6
Continuous
100
AcDbPolyline
 90
        2
 70
   128
 43
1.199999999999999
 10
557.1354648979131
 20
182.9000000000003
 10
553.335464897913
 20
182.9000000000003
  0
LWPOLYLINE
  5
35C9
330
2
100
AcDbEntity
  8
copper
  6
Continuous
100
AcDbPolyline
 90
        2
 70
   129
 43
0.6
 10
553.6354648979131
 20
181.1000000000003
 42
-1.0
 10
553.0354648979128
 20
181.1000000000003
 42
-1.0
  0
LWPOLYLINE
  5
35CA
330
2
100
AcDbEntity
  8
copper
  6
Continuous
100
AcDbPolyline
 90
        2
 70
   129
 43
0.6
 10
557.4354648979133
 20
181.1000000000001
 42
-1.0
 10
556.835464897913
 20
181.1000000000001
 42
-1.0
  0
LWPOLYLINE
  5
35CB
330
2
100
AcDbEntity
  8
copper
  6
Continuous
100
AcDbPolyline
 90
        2
 70
   128
 43
1.199999999999999
 10
557.1354648979131
 20
181.1000000000001
 10
553.335464897913
 20
181.1000000000003
  0
LWPOLYLINE
  5
3601
330
2
100
AcDbEntity
  8
copper
  6
Continuous
100
AcDbPolyline
 90
      375
 70
   128
 43
1.575
 10
475.3604648979135
 20
16.75000000000011
 10
475.3604648979135
 20
17.66125000000033
 42
-0.4142135623730951
 10
480.2129648979135
 20
22.5137500000003
 10
483.1723215910915
 20
22.5137500000003
 42
0.9999999999999998
 10
483.1723215910915
 20
25.7487500000002
 10
472.6692148979132
 20
25.74875000000031
 42
0.4142135623730951
 10
471.0517148979134
 20
24.13125000000036
 10
471.0517148979138
 20
17.66125000000022
 42
-0.4142135623730951
 10
466.1992148979134
 20
12.80875000000026
 10
37.18429936441021
 20
12.80875000000026
 42
-0.9999999999999998
 10
37.18429936441021
 20
22.51375000000018
 10
459.7292148979136
 20
22.5137500000003
 42
0.9999999999999998
 10
459.7292148979136
 20
25.7487500000002
 10
44.44485738424623
 20
25.74875000000031
 42
-0.9999999999999998
 10
44.44485738424623
 20
35.45375000000024
 10
485.0742148979129
 20
35.45375000000035
 42
0.9999999999999998
 10
485.0742148979129
 20
38.68875000000026
 10
52.20376043038573
 20
38.68875000000026
 42
-0.9999999999999998
 10
52.20376043038573
 20
48.39375000000041
 10
485.0742148979129
 20
48.39375000000041
 42
0.9999999999999998
 10
485.0742148979129
 20
51.62875000000031
 10
60.48778181120588
 20
51.62875000000031
 42
-0.9999999999999998
 10
60.48778181120588
 20
61.33375000000024
 10
485.0742148979129
 20
61.33375000000047
 42
0.9999999999999998
 10
485.0742148979129
 20
64.56875000000036
 10
69.32766978806831
 20
64.56875000000036
 42
-0.9999999999999998
 10
69.32766978806831
 20
74.27375000000029
 10
485.0742148979129
 20
74.27375000000052
 42
0.9999999999999998
 10
485.0742148979129
 20
77.50875000000042
 10
78.75894628511264
 20
77.50875000000042
 42
-0.9999999999999998
 10
78.75894628511264
 20
87.21375000000035
 10
485.0742148979129
 20
87.21375000000056
 42
0.9999999999999998
 10
485.0742148979129
 20
90.44875000000047
 10
88.82293329386426
 20
90.44875000000047
 42
-0.9999999999999998
 10
88.82293329386426
 20
100.1537500000004
 10
485.0742148979129
 20
100.1537500000006
 42
0.9999999999999998
 10
485.0742148979129
 20
103.3887500000005
 10
99.5680914383638
 20
103.3887500000005
 42
-0.9999999999999998
 10
99.5680914383638
 20
113.0937500000004
 10
485.0742148979129
 20
113.0937500000004
 42
0.9999999999999998
 10
485.0742148979129
 20
116.3287500000006
 10
111.0517950738667
 20
116.3287500000006
 42
-0.9999999999999998
 10
111.0517950738667
 20
126.0337500000005
 10
485.0742148979129
 20
126.0337500000005
 42
0.9999999999999998
 10
485.0742148979129
 20
129.2687500000006
 10
123.3427317078576
 20
129.2687500000006
 42
-0.9999999999999998
 10
123.3427317078576
 20
138.9737500000005
 10
485.0742148979129
 20
138.9737500000005
 42
0.9999999999999998
 10
485.0742148979129
 20
142.2087500000007
 10
136.524217524598
 20
142.2087500000007
 42
-0.9999999999999998
 10
136.524217524598
 20
151.9137500000006
 10
485.0742148979129
 20
151.9137500000008
 42
0.9999999999999998
 10
485.0742148979129
 20
155.1487500000007
 10
150.6988976051541
 20
155.1487500000007
 42
-0.9999999999999998
 10
150.6988976051541
 20
164.8537500000007
 10
485.0742148979129
 20
164.8537500000009
 42
0.4142135623730951
 10
486.6917148979127
 20
166.4712500000007
 10
486.6917148979132
 20
176.7837499999982
 42
0.9999999999999998
 10
483.4567148979131
 20
176.7837499999982
 10
483.4567148979131
 20
172.9412500000007
 42
-0.9999999999999998
 10
473.7517148979131
 20
172.9412500000007
 10
473.7517148979127
 20
176.7837499999982
 42
0.9999999999999998
 10
470.5167148979135
 20
176.7837499999982
 10
470.516714897913
 20
172.9412500000007
 42
-0.9999999999999998
 10
460.8117148979131
 20
172.9412500000007
 10
460.8117148979131
 20
176.7837499999982
 42
0.9999999999999998
 10
457.576714897913
 20
176.7837499999982
 10
457.576714897913
 20
172.9412500000007
 42
-0.9999999999999998
 10
447.871714897913
 20
172.9412500000007
 10
447.871714897913
 20
176.7837499999982
 42
0.9999999999999998
 10
444.6367148979134
 20
176.7837499999982
 10
444.6367148979129
 20
172.9412500000007
 42
-0.9999999999999998
 10
434.931714897913
 20
172.9412500000007
 42
0.9999999999999998
 10
431.6967148979129
 20
172.9412500000007
 42
-0.9041766135547426
 10
422.0895258061455
 20
171.9718750000002
 42
0.8166937785106613
 10
418.9197330783008
 20
171.9718749999999
 42
-0.3564606271454117
 10
414.1650439865329
 20
168.088750000001
 10
165.9956129573847
 20
168.0887500000008
 42
-0.891102733464319
 10
164.8889649424088
 20
177.6658755323524
 42
0.2274913796533338
 10
165.9793745053982
 20
178.543059930234
 42
-0.6200818887841432
 10
174.6716632820748
 20
178.6709343978825
 42
0.2809073498165387
 10
176.1098006396523
 20
177.7937500000007
 10
400.0742148979129
 20
177.7937500000009
 42
0.9999999999999998
 10
400.0742148979129
 20
181.0287500000008
 10
182.5798006396526
 20
181.0287500000008
 42
-0.966118132332765
 10
182.2456083944046
 20
190.722228392146
 42
0.291198624755046
 10
183.6431722630934
 20
191.7533570895559
 42
-0.6849462284590024
 10
192.6924752136815
 20
191.7648786974107
 42
0.3092894370973037
 10
194.1999482467736
 20
190.7337500000008
 10
487.2654648979128
 20
190.733750000001
 42
0.9999999999999998
 10
487.2654648979128
 20
193.9687500000009
 10
200.6699482467734
 20
193.9687500000009
 42
-0.9999999999999998
 10
200.6699482467734
 20
203.6737500000008
 10
201.5862915810021
 20
203.6737500000011
 42
0.3402670223829161
 10
203.1498900613692
 20
204.8771654166203
 42
-0.7696447852371496
 10
212.5314809435724
 20
204.8771654166201
 42
0.3402670223829162
 10
214.0950794239393
 20
203.6737500000008
 10
487.2654648979128
 20
203.6737500000011
 42
0.9999999999999998
 10
487.2654648979128
 20
206.9087500000009
 10
220.5650794239395
 20
206.9087500000009
 42
-0.9999999999999998
 10
220.5650794239395
 20
216.6137500000009
 10
223.4049455909662
 20
216.6137500000011
 42
0.3746759836428559
 10
225.007322997426
 20
218.0105853284581
 42
-0.8717267997076882
 10
234.6215874361849
 20
218.0105853284581
 42
0.3746759836428559
 10
236.2239648426448
 20
216.6137500000009
 10
487.2654648979128
 20
216.6137500000011
 42
0.9999999999999998
 10
487.2654648979128
 20
219.848750000001
 10
242.6939648426448
 20
219.848750000001
 42
-0.9999999999999998
 10
242.6939648426448
 20
229.5537500000009
 10
248.3017431340256
 20
229.5537500000012
 42
0.4142135623730951
 10
249.9192431340257
 20
231.1712500000005
 42
-0.9999999999999998
 10
259.6242431340256
 20
231.171250000001
 42
0.4142135623730951
 10
261.2417431340259
 20
229.5537500000009
 10
487.2654648979128
 20
229.5537500000012
 42
0.9999999999999998
 10
487.2654648979128
 20
232.7887500000011
 10
267.7117431340257
 20
232.7887500000011
 42
-0.9999999999999998
 10
267.7117431340257
 20
242.493750000001
 10
277.3058627005703
 20
242.4937500000012
 42
0.4142135623730951
 10
278.9233627005701
 20
244.1112500000006
 10
278.9233627005701
 20
245.0705494415502
 42
-0.9999999999999998
 10
288.6283627005705
 20
245.0705494415502
 10
288.6283627005705
 20
244.1112500000011
 42
0.4142135623730951
 10
290.2458627005703
 20
242.493750000001
 10
487.2654648979128
 20
242.4937500000012
 42
0.9999999999999998
 10
487.2654648979128
 20
245.7287500000011
 10
296.7158627005706
 20
245.7287500000011
 42
-0.9999999999999998
 10
296.7158627005706
 20
255.4337500000011
 10
300.5562904060152
 20
255.4337500000013
 42
0.2986786665216181
 10
302.0398494706269
 20
256.4067666784106
 42
-0.6558664913446824
 10
310.9412038582977
 20
256.4067666784101
 42
0.8135408642433624
 10
314.0422629229088
 20
257.0512500000007
 10
314.0422629229092
 20
259.0866901015099
 42
-0.9999999999999998
 10
323.7472629229092
 20
259.0866901015099
 10
323.7472629229092
 20
257.0512500000011
 42
0.4142135623730951
 10
325.3647629229095
 20
255.4337500000011
 10
487.2654648979128
 20
255.4337500000013
 42
0.9999999999999998
 10
487.2654648979128
 20
258.6687500000012
 10
331.8347629229092
 20
258.6687500000012
 42
-0.9999999999999998
 10
331.8347629229092
 20
268.3737500000011
 10
335.4495536301802
 20
268.3737500000011
 42
0.2495473784963588
 10
336.7912686519194
 20
269.0878635652794
 42
-0.5322393755065284
 10
344.8415587823542
 20
269.0878635652794
 42
0.7330849634549587
 10
347.8004922816108
 20
269.9610730886782
 42
-0.9815143165529637
 10
357.5038031467138
 20
269.9610730886786
 42
0.9907144459857061
 10
360.738521624231
 20
269.9912500000012
 10
360.7385216242315
 20
273.3428882577371
 42
-0.9999999999999998
 10
370.4435216242314
 20
273.3428882577371
 10
370.4435216242314
 20
269.9912500000012
 42
0.4142135623730951
 10
372.0610216242312
 20
268.3737500000011
 10
487.2654648979128
 20
268.3737500000013
 42
0.9999999999999998
 10
487.2654648979128
 20
271.6087500000012
 10
378.531021624231
 20
271.6087500000012
 42
-0.9999999999999998
 10
378.531021624231
 20
281.3137500000012
 10
386.3454595558933
 20
281.3137500000014
 42
0.2473953729541638
 10
387.6798063743968
 20
282.0170154469733
 42
-0.5270484683741613
 10
395.6858872854159
 20
282.0170154469729
 42
0.6526479912274642
 10
398.5958879531681
 20
282.5657076668219
 42
-0.7945638995629674
 10
408.0498110486637
 20
282.5657076668221
 42
0.8920542580883161
 10
411.2429648979127
 20
282.9312500000012
 10
411.2429648979127
 20
283.5631333162094
 42
-0.9999999999999998
 10
420.9479648979127
 20
283.5631333162094
 10
420.9479648979131
 20
282.9312500000012
 42
0.9999999999999998
 10
424.1829648979128
 20
282.9312500000012
 10
424.1829648979132
 20
285.3532492393567
 42
-0.9999999999999998
 10
433.8879648979132
 20
285.3532492393567
 10
433.8879648979132
 20
282.9312500000012
 42
0.9999999999999998
 10
437.1229648979128
 20
282.9312500000012
 10
437.1229648979128
 20
286.8132775979761
 42
-0.9999999999999998
 10
446.8279648979128
 20
286.8132775979761
 10
446.8279648979128
 20
282.9312500000012
 42
0.9999999999999998
 10
450.0629648979129
 20
282.9312500000012
 10
450.0629648979134
 20
287.9460098326492
 42
-0.9999999999999998
 10
459.7679648979132
 20
287.9460098326492
 10
459.7679648979132
 20
282.9312500000012
 42
0.9999999999999998
 10
463.002964897913
 20
282.9312500000012
 10
463.002964897913
 20
288.7535899649877
 42
-0.9999999999999998
 10
472.7079648979128
 20
288.7535899649877
 10
472.7079648979128
 20
282.9312500000012
 42
0.9999999999999998
 10
475.942964897913
 20
282.9312500000012
 10
475.942964897913
 20
289.2375351431777
 42
-0.9999999999999998
 10
485.647964897913
 20
289.2375351431777
 10
485.647964897913
 20
282.9312500000012
 42
0.9999999999999998
 10
488.8829648979126
 20
282.9312500000012
 10
488.8829648979131
 20
295.828946832107
 42
0.4178218591359936
 10
487.2455640671446
 20
297.446324403033
 42
0.2753040364324459
 10
26.81067091487012
 20
15.40370963568443
 42
-0.9999999999999998
 10
18.21991594142559
 20
19.91879036433613
 42
-0.278615924231929
 10
493.735464897913
 20
307.1912500000001
 42
-0.2786159242319849
 10
969.2510138544417
 20
19.91879036425757
 42
-0.9999999999999998
 10
960.6602588809661
 20
15.40370963566522
 42
0.2753040364325017
 10
500.2253657286828
 20
297.4463244030328
 42
0.4178218591359936
 10
498.5879648979135
 20
295.828946832107
 10
498.587964897913
 20
282.9312500000012
 42
0.9999999999999998
 10
501.8229648979131
 20
282.9312500000012
 10
501.8229648979131
 20
289.2375351431777
 42
-0.9999999999999998
 10
511.5279648979131
 20
289.2375351431777
 10
511.5279648979131
 20
282.9312500000012
 42
0.9999999999999998
 10
514.7629648979127
 20
282.9312500000012
 10
514.7629648979131
 20
288.7535899649877
 42
-0.9999999999999998
 10
524.4679648979131
 20
288.7535899649877
 10
524.4679648979131
 20
282.9312500000012
 42
0.9999999999999998
 10
527.7029648979127
 20
282.9312500000012
 10
527.7029648979127
 20
287.9460098326492
 42
-0.9999999999999998
 10
537.4079648979127
 20
287.9460098326492
 10
537.4079648979127
 20
282.9312500000012
 42
0.9999999999999998
 10
540.6429648979128
 20
282.9312500000012
 10
540.6429648979133
 20
286.8132775979761
 42
-0.9999999999999998
 10
550.3479648979132
 20
286.8132775979761
 10
550.3479648979132
 20
282.9312500000012
 42
0.9999999999999998
 10
553.5829648979129
 20
282.9312500000012
 10
553.5829648979129
 20
285.3532492393567
 42
-0.9999999999999998
 10
563.2879648979128
 20
285.3532492393567
 10
563.2879648979128
 20
282.9312500000012
 42
0.9999999999999998
 10
566.522964897913
 20
282.9312500000012
 10
566.522964897913
 20
283.5631333162094
 42
-0.9999999999999998
 10
576.2279648979133
 20
283.5631333162094
 10
576.2279648979133
 20
282.9312500000012
 42
0.8920542580882939
 10
579.4211187471623
 20
282.5657076668219
 42
-0.7945638995629247
 10
588.8750418426575
 20
282.5657076668219
 42
0.6526479912275081
 10
591.7850425104107
 20
282.0170154469736
 42
-0.5270484683742739
 10
599.7911234214306
 20
282.0170154469722
 42
0.2473953729542095
 10
601.1254702399328
 20
281.3137500000012
 10
608.9399081715951
 20
281.3137500000014
 42
-0.9999999999999998
 10
608.9399081715951
 20
271.6087500000012
 10
500.2054648979132
 20
271.6087500000012
 42
0.9999999999999998
 10
500.2054648979132
 20
268.3737500000011
 10
615.4099081715949
 20
268.3737500000013
 42
0.4142135623730951
 10
617.0274081715947
 20
269.9912500000012
 10
617.0274081715947
 20
273.3428882577371
 42
-0.9999999999999998
 10
626.7324081715947
 20
273.3428882577371
 10
626.7324081715947
 20
269.9912500000012
 42
0.9907144459857057
 10
629.9671266491123
 20
269.9610730886782
 42
-0.9815143165529626
 10
639.6704375142153
 20
269.9610730886786
 42
0.7330849634550038
 10
642.6293710134719
 20
269.0878635652796
 42
-0.5322393755066046
 10
650.6796611439076
 20
269.0878635652789
 42
0.2495473784963902
 10
652.0213761656459
 20
268.3737500000011
 10
655.6361668729168
 20
268.3737500000011
 42
-0.9999999999999998
 10
655.6361668729168
 20
258.6687500000012
 10
500.2054648979132
 20
258.6687500000012
 42
0.9999999999999998
 10
500.2054648979132
 20
255.4337500000011
 10
662.1061668729167
 20
255.4337500000013
 42
0.4142135623730951
 10
663.7236668729165
 20
257.0512500000011
 10
663.7236668729169
 20
259.0866901015099
 42
-0.9999999999999998
 10
673.4286668729168
 20
259.0866901015099
 10
673.4286668729168
 20
257.0512500000007
 42
0.8135408642433773
 10
676.5297259375288
 20
256.4067666784101
 42
-0.6558664913447082
 10
685.4310803251991
 20
256.4067666784101
 42
0.298678666521628
 10
686.9146393898108
 20
255.4337500000011
 10
690.7550670952555
 20
255.4337500000013
 42
-0.9999999999999998
 10
690.7550670952555
 20
245.7287500000011
 10
500.2054648979132
 20
245.7287500000011
 42
0.9999999999999998
 10
500.2054648979132
 20
242.493750000001
 10
697.2250670952558
 20
242.4937500000012
 42
0.4142135623730951
 10
698.8425670952556
 20
244.1112500000011
 10
698.8425670952556
 20
245.0705494415502
 42
-0.9999999999999998
 10
708.5475670952555
 20
245.0705494415502
 10
708.5475670952559
 20
244.1112500000006
 42
0.4142135623730951
 10
710.1650670952558
 20
242.4937500000005
 10
719.7591866618004
 20
242.4937500000012
 42
-0.9999999999999998
 10
719.7591866618004
 20
232.7887500000011
 10
500.2054648979132
 20
232.7887500000011
 42
0.9999999999999998
 10
500.2054648979132
 20
229.5537500000009
 10
726.2291866618002
 20
229.5537500000012
 42
0.4142135623730951
 10
727.8466866618
 20
231.171250000001
 42
-0.9999999999999998
 10
737.5516866618004
 20
231.171250000001
 42
0.4142135623730951
 10
739.1691866618007
 20
229.5537500000005
 10
744.7769649531815
 20
229.5537500000012
 42
-0.9999999999999998
 10
744.7769649531815
 20
219.848750000001
 10
500.2054648979132
 20
219.848750000001
 42
0.9999999999999998
 10
500.2054648979132
 20
216.6137500000009
 10
751.2469649531813
 20
216.6137500000011
 42
0.374675983642845
 10
752.849342359641
 20
218.0105853284581
 42
-0.8717267997076548
 10
762.4636067984002
 20
218.0105853284583
 42
0.374675983642845
 10
764.0659842048599
 20
216.6137500000009
 10
766.9058503718865
 20
216.6137500000011
 42
-0.9999999999999998
 10
766.9058503718865
 20
206.9087500000009
 10
500.2054648979132
 20
206.9087500000009
 42
0.9999999999999998
 10
500.2054648979132
 20
203.6737500000008
 10
773.3758503718868
 20
203.6737500000011
 42
0.3402670223829451
 10
774.9394488522539
 20
204.8771654166203
 42
-0.7696447852372322
 10
784.3210397344569
 20
204.8771654166196
 42
0.340267022382945
 10
785.8846382148239
 20
203.6737500000008
 10
786.8009815490527
 20
203.6737500000011
 42
-0.9999999999999998
 10
786.8009815490527
 20
193.9687500000009
 10
500.2054648979132
 20
193.9687500000009
 42
0.9999999999999998
 10
500.2054648979132
 20
190.7337500000008
 10
793.2709815490525
 20
190.733750000001
 42
0.3092894370973346
 10
794.7784545821446
 20
191.7648786974112
 42
-0.6849462284590617
 10
803.8277575327329
 20
191.7533570895559
 42
0.2911986247551824
 10
805.2253214014212
 20
190.722228392146
 42
-0.9661181323325461
 10
804.8911291561735
 20
181.0287500000008
 10
587.3967148979131
 20
181.0287500000008
 42
0.9999999999999998
 10
587.3967148979131
 20
177.7937500000007
 10
811.3611291561737
 20
177.7937500000009
 42
0.2809073498165919
 10
812.7992665137512
 20
178.6709343978823
 42
-0.6200818887842651
 10
821.4915552904276
 20
178.5430599302335
 42
0.2274913796533153
 10
822.5819648534169
 20
177.6658755323528
 42
-0.8911027334642181
 10
821.4753168384413
 20
168.0887500000008
 10
573.3058858092931
 20
168.0887500000006
 42
-0.3564606271453882
 10
568.5511967175257
 20
171.9718749999997
 42
0.8166937785105927
 10
565.3814039896806
 20
171.9718749999999
 42
-0.9041766135547042
 10
555.7742148979132
 20
172.9412500000007
 42
0.9999999999999998
 10
552.5392148979135
 20
172.9412500000007
 42
-0.9999999999999998
 10
542.8342148979131
 20
172.9412500000007
 10
542.8342148979131
 20
176.7837499999982
 42
0.9999999999999998
 10
539.599214897913
 20
176.7837499999982
 10
539.599214897913
 20
172.9412500000007
 42
-0.9999999999999998
 10
529.8942148979131
 20
172.9412500000007
 10
529.8942148979131
 20
176.7837499999982
 42
0.9999999999999998
 10
526.6592148979134
 20
176.7837499999982
 10
526.6592148979129
 20
172.9412500000007
 42
-0.9999999999999998
 10
516.9542148979131
 20
172.9412500000007
 10
516.9542148979131
 20
176.7837499999982
 42
0.9999999999999998
 10
513.7192148979129
 20
176.7837499999982
 10
513.7192148979133
 20
172.9412500000007
 42
-0.9999999999999998
 10
504.0142148979129
 20
172.9412500000007
 10
504.0142148979129
 20
176.7837499999982
 42
0.9999999999999998
 10
500.7792148979133
 20
176.7837499999982
 10
500.7792148979128
 20
166.4712500000007
 42
0.4142135623730951
 10
502.3967148979131
 20
164.8537500000007
 10
836.7720321906721
 20
164.8537500000009
 42
-0.9999999999999998
 10
836.7720321906721
 20
155.1487500000007
 10
502.3967148979131
 20
155.1487500000007
 42
0.9999999999999998
 10
502.3967148979131
 20
151.9137500000006
 10
850.946712271228
 20
151.9137500000008
 42
-0.9999999999999998
 10
850.946712271228
 20
142.2087500000007
 10
502.3967148979131
 20
142.2087500000007
 42
0.9999999999999998
 10
502.3967148979131
 20
138.9737500000005
 10
864.1281980879684
 20
138.9737500000005
 42
-0.9999999999999998
 10
864.1281980879684
 20
129.2687500000006
 10
502.3967148979131
 20
129.2687500000006
 42
0.9999999999999998
 10
502.3967148979131
 20
126.0337500000005
 10
876.4191347219593
 20
126.0337500000007
 42
-0.9999999999999998
 10
876.4191347219593
 20
116.3287500000006
 10
502.3967148979131
 20
116.3287500000006
 42
0.9999999999999998
 10
502.3967148979131
 20
113.0937500000004
 10
887.9028383574622
 20
113.0937500000007
 42
-0.9999999999999998
 10
887.9028383574622
 20
103.3887500000005
 10
502.3967148979131
 20
103.3887500000005
 42
0.9999999999999998
 10
502.3967148979131
 20
100.1537500000004
 10
898.647996501962
 20
100.1537500000004
 42
-0.9999999999999998
 10
898.647996501962
 20
90.44875000000047
 10
502.3967148979131
 20
90.44875000000047
 42
0.9999999999999998
 10
502.3967148979131
 20
87.21375000000035
 10
908.7119835107136
 20
87.21375000000056
 42
-0.9999999999999998
 10
908.7119835107136
 20
77.50875000000042
 10
502.3967148979131
 20
77.50875000000042
 42
0.9999999999999998
 10
502.3967148979131
 20
74.27375000000029
 10
918.1432600077577
 20
74.27375000000052
 42
-0.9999999999999998
 10
918.1432600077577
 20
64.56875000000036
 10
502.3967148979131
 20
64.56875000000036
 42
0.9999999999999998
 10
502.3967148979131
 20
61.33375000000024
 10
926.9831479846201
 20
61.33375000000047
 42
-0.9999999999999998
 10
926.9831479846201
 20
51.62875000000031
 10
502.3967148979131
 20
51.62875000000031
 42
0.9999999999999998
 10
502.3967148979131
 20
48.39375000000018
 10
935.2671693654405
 20
48.39375000000041
 42
-0.9999999999999998
 10
935.2671693654405
 20
38.68875000000037
 10
502.3967148979131
 20
38.68875000000026
 42
0.9999999999999998
 10
502.3967148979131
 20
35.45375000000035
 10
943.02607241158
 20
35.45375000000035
 42
-0.9999999999999998
 10
943.02607241158
 20
25.74875000000031
 10
527.7417148979124
 20
25.74875000000031
 42
0.9999999999999998
 10
527.7417148979124
 20
22.5137500000003
 10
950.2866304314162
 20
22.5137500000003
 42
-0.9999999999999998
 10
950.2866304314162
 20
12.80875000000026
 10
521.2717148979127
 20
12.80875000000026
 42
-0.4142135623730951
 10
516.4192148979127
 20
17.66125000000022
 10
516.4192148979123
 20
24.13125000000025
 42
0.4142135623730951
 10
514.8017148979128
 20
25.74875000000031
 10
504.2986082047345
 20
25.74875000000031
 42
0.9999999999999998
 10
504.2986082047345
 20
22.5137500000003
 10
507.2579648979126
 20
22.5137500000003
 42
-0.4142135623730951
 10
512.1104648979126
 20
17.66125000000033
 10
512.1104648979126
 20
16.75000000000011
  0
LWPOLYLINE
  5
3602
330
2
100
AcDbEntity
  8
copper
  6
Continuous
100
AcDbPolyline
 90
      375
 70
   128
 43
1.575
 10
480.6104648979135
 20
16.75000000000011
 10
480.6104648979135
 20
17.66125000000033
 42
-0.4142135623730951
 10
482.2279648979133
 20
19.27875000000028
 10
483.1723215910915
 20
19.27875000000028
 42
0.9999999999999998
 10
483.1723215910915
 20
28.98375000000021
 10
472.6692148979132
 20
28.98375000000033
 42
0.4142135623730951
 10
467.8167148979132
 20
24.13125000000036
 10
467.8167148979132
 20
17.66125000000022
 42
-0.4142135623730951
 10
466.1992148979134
 20
16.04375000000027
 10
37.18429936441021
 20
16.04375000000027
 42
-0.9999999999999998
 10
37.18429936441021
 20
19.27875000000017
 10
459.7292148979136
 20
19.27875000000017
 42
0.9999999999999998
 10
459.7292148979136
 20
28.98375000000021
 10
44.44485738424623
 20
28.98375000000033
 42
-0.9999999999999998
 10
44.44485738424623
 20
32.21875000000023
 10
485.0742148979129
 20
32.21875000000023
 42
0.9999999999999998
 10
485.0742148979129
 20
41.92375000000026
 10
52.20376043038573
 20
41.92375000000026
 42
-0.9999999999999998
 10
52.20376043038573
 20
45.15875000000028
 10
485.0742148979129
 20
45.15875000000028
 42
0.9999999999999998
 10
485.0742148979129
 20
54.86375000000021
 10
60.48778181120588
 20
54.86375000000021
 42
-0.9999999999999998
 10
60.48778181120588
 20
58.09875000000033
 10
485.0742148979129
 20
58.09875000000033
 42
0.9999999999999998
 10
485.0742148979129
 20
67.80375000000026
 10
69.32766978806831
 20
67.80375000000026
 42
-0.9999999999999998
 10
69.32766978806831
 20
71.03875000000039
 10
485.0742148979129
 20
71.03875000000039
 42
0.9999999999999998
 10
485.0742148979129
 20
80.74375000000031
 10
78.75894628511264
 20
80.74375000000054
 42
-0.9999999999999998
 10
78.75894628511264
 20
83.97875000000045
 10
485.0742148979129
 20
83.97875000000045
 42
0.9999999999999998
 10
485.0742148979129
 20
93.68375000000037
 10
88.82293329386426
 20
93.68375000000037
 42
-0.9999999999999998
 10
88.82293329386426
 20
96.91875000000051
 10
485.0742148979129
 20
96.91875000000051
 42
0.9999999999999998
 10
485.0742148979129
 20
106.6237500000004
 10
99.5680914383638
 20
106.6237500000004
 42
-0.9999999999999998
 10
99.5680914383638
 20
109.8587500000005
 10
485.0742148979129
 20
109.8587500000005
 42
0.9999999999999998
 10
485.0742148979129
 20
119.5637500000005
 10
111.0517950738667
 20
119.5637500000005
 42
-0.9999999999999998
 10
111.0517950738667
 20
122.7987500000006
 10
485.0742148979129
 20
122.7987500000006
 42
0.9999999999999998
 10
485.0742148979129
 20
132.5037500000005
 10
123.3427317078576
 20
132.5037500000005
 42
-0.9999999999999998
 10
123.3427317078576
 20
135.7387500000006
 10
485.0742148979129
 20
135.7387500000006
 42
0.9999999999999998
 10
485.0742148979129
 20
145.4437500000006
 10
136.524217524598
 20
145.4437500000006
 42
-0.9999999999999998
 10
136.524217524598
 20
148.6787500000007
 10
485.0742148979129
 20
148.6787500000007
 42
0.9999999999999998
 10
485.0742148979129
 20
158.3837500000006
 10
150.6988976051541
 20
158.3837500000008
 42
-0.9999999999999998
 10
150.6988976051541
 20
161.6187500000007
 10
485.0742148979129
 20
161.6187500000007
 42
0.4142135623730951
 10
489.9267148979129
 20
166.4712500000007
 10
489.9267148979129
 20
176.7837499999982
 42
0.9999999999999998
 10
480.221714897913
 20
176.7837499999982
 10
480.221714897913
 20
172.9412500000007
 42
-0.9999999999999998
 10
476.9867148979133
 20
172.9412500000007
 10
476.9867148979133
 20
176.7837499999982
 42
0.9999999999999998
 10
467.2817148979134
 20
176.7837499999982
 10
467.2817148979134
 20
172.9412500000007
 42
-0.9999999999999998
 10
464.0467148979133
 20
172.9412500000007
 10
464.0467148979127
 20
176.7837499999982
 42
0.9999999999999998
 10
454.3417148979129
 20
176.7837499999982
 10
454.3417148979129
 20
172.9412500000007
 42
-0.9999999999999998
 10
451.1067148979131
 20
172.9412500000007
 10
451.1067148979131
 20
176.7837499999982
 42
0.9999999999999998
 10
441.4017148979133
 20
176.7837499999982
 10
441.4017148979133
 20
172.9412500000007
 42
-0.9999999999999998
 10
438.1667148979131
 20
172.9412500000007
 42
0.9999999999999998
 10
428.4617148979127
 20
172.9412500000007
 42
-0.9041766135547167
 10
425.2593185339906
 20
172.6181250000004
 42
0.8166937785106851
 10
415.7499403504557
 20
172.6181250000006
 42
-0.3564606271454199
 10
414.1650439865329
 20
171.3237500000009
 10
165.9956129573847
 20
171.3237500000009
 42
-0.891102733464319
 10
165.6267302857261
 20
174.5161251774514
 42
0.2274913796533335
 10
168.8979589746943
 20
177.1476783710957
 42
-0.6200818887841431
 10
171.7953885669201
 20
177.1903031936453
 42
0.2809073498165657
 10
176.1098006396523
 20
174.5587500000008
 10
400.0742148979129
 20
174.5587500000008
 42
0.9999999999999998
 10
400.0742148979129
 20
184.2637500000007
 10
182.5798006396526
 20
184.263750000001
 42
-0.966118132332765
 10
182.46840322457
 20
187.4949094640492
 42
0.291198624755046
 10
186.6610948306354
 20
190.5882955562793
 42
-0.6849462284590026
 10
189.677529147498
 20
190.5921360922309
 42
0.3092894370973037
 10
194.1999482467736
 20
187.4987500000009
 10
487.2654648979128
 20
187.4987500000009
 42
0.9999999999999998
 10
487.2654648979128
 20
197.2037500000008
 10
200.6699482467734
 20
197.2037500000008
 42
-0.9999999999999998
 10
200.6699482467734
 20
200.4387500000009
 10
201.5862915810021
 20
200.4387500000009
 42
0.3402670223829161
 10
206.2770870221036
 20
204.0489962498589
 42
-0.7696447852371494
 10
209.404283982838
 20
204.0489962498587
 42
0.3402670223829161
 10
214.0950794239393
 20
200.4387500000009
 10
487.2654648979128
 20
200.4387500000009
 42
0.9999999999999998
 10
487.2654648979128
 20
210.1437500000009
 10
220.5650794239395
 20
210.1437500000009
 42
-0.9999999999999998
 10
220.5650794239395
 20
213.378750000001
 10
223.4049455909662
 20
213.378750000001
 42
0.3746759836428559
 10
228.2120778103456
 20
217.5692559853724
 42
-0.8717267997076882
 10
231.4168326232652
 20
217.5692559853724
 42
0.3746759836428559
 10
236.2239648426448
 20
213.378750000001
 10
487.2654648979128
 20
213.378750000001
 42
0.9999999999999998
 10
487.2654648979128
 20
223.0837500000009
 10
242.6939648426448
 20
223.0837500000009
 42
-0.9999999999999998
 10
242.6939648426448
 20
226.3187500000011
 10
248.3017431340256
 20
226.3187500000011
 42
0.4142135623730951
 10
253.1542431340256
 20
231.1712500000005
 42
-0.9999999999999998
 10
256.3892431340255
 20
231.171250000001
 42
0.4142135623730951
 10
261.2417431340259
 20
226.3187500000011
 10
487.2654648979128
 20
226.3187500000011
 42
0.9999999999999998
 10
487.2654648979128
 20
236.023750000001
 10
267.7117431340257
 20
236.023750000001
 42
-0.9999999999999998
 10
267.7117431340257
 20
239.2587500000011
 10
277.3058627005703
 20
239.2587500000011
 42
0.4142135623730951
 10
282.1583627005702
 20
244.1112500000006
 10
282.1583627005707
 20
245.0705494415502
 42
-0.9999999999999998
 10
285.3933627005704
 20
245.0705494415502
 10
285.3933627005704
 20
244.1112500000011
 42
0.4142135623730951
 10
290.2458627005703
 20
239.2587500000011
 10
487.2654648979128
 20
239.2587500000011
 42
0.9999999999999998
 10
487.2654648979128
 20
248.963750000001
 10
296.7158627005706
 20
248.9637500000013
 42
-0.9999999999999998
 10
296.7158627005706
 20
252.1987500000012
 10
300.5562904060152
 20
252.1987500000012
 42
0.2986786665216181
 10
305.0069675998507
 20
255.1178000352297
 42
-0.655866491344682
 10
307.974085729074
 20
255.1178000352293
 42
0.8135408642433624
 10
317.2772629229089
 20
257.0512500000007
 10
317.2772629229089
 20
259.0866901015099
 42
-0.9999999999999998
 10
320.512262922909
 20
259.0866901015099
 10
320.512262922909
 20
257.0512500000011
 42
0.4142135623730951
 10
325.3647629229095
 20
252.1987500000012
 10
487.2654648979128
 20
252.1987500000012
 42
0.9999999999999998
 10
487.2654648979128
 20
261.9037500000011
 10
331.8347629229092
 20
261.9037500000011
 42
-0.9999999999999998
 10
331.8347629229092
 20
265.1387500000012
 10
335.4495536301802
 20
265.1387500000012
 42
0.2495473784963588
 10
339.4746986953978
 20
267.2810906958357
 42
-0.5322393755065284
 10
342.1581287388758
 20
267.2810906958357
 42
0.7330849634549588
 10
351.034929236645
 20
269.9007192660324
 42
-0.9815143165529637
 10
354.2693661916796
 20
269.9007192660328
 42
0.9907144459857061
 10
363.9735216242311
 20
269.9912500000012
 10
363.9735216242311
 20
273.3428882577371
 42
-0.9999999999999998
 10
367.2085216242312
 20
273.3428882577371
 10
367.2085216242312
 20
269.9912500000012
 42
0.4142135623730951
 10
372.0610216242312
 20
265.1387500000012
 10
487.2654648979128
 20
265.1387500000012
 42
0.9999999999999998
 10
487.2654648979128
 20
274.8437500000012
 10
378.531021624231
 20
274.8437500000012
 42
-0.9999999999999998
 10
378.531021624231
 20
278.0787500000013
 10
386.3454595558933
 20
278.0787500000013
 42
0.2473953729541572
 10
390.3485000114033
 20
280.1885463409174
 42
-0.5270484683741611
 10
393.0171936484094
 20
280.1885463409171
 42
0.6526479912274644
 10
401.7471956516665
 20
281.8346230004636
 42
-0.7945638995629202
 10
404.8985033501653
 20
281.8346230004638
 42
0.8920542580883163
 10
414.4779648979128
 20
282.9312500000012
 10
414.4779648979133
 20
283.5631333162094
 42
-0.9999999999999998
 10
417.7129648979125
 20
283.5631333162094
 10
417.712964897913
 20
282.9312500000012
 42
0.9999999999999998
 10
427.4179648979129
 20
282.9312500000012
 10
427.4179648979129
 20
285.3532492393567
 42
-0.9999999999999998
 10
430.6529648979131
 20
285.3532492393567
 10
430.6529648979131
 20
282.9312500000012
 42
0.9999999999999998
 10
440.357964897913
 20
282.9312500000012
 10
440.357964897913
 20
286.8132775979761
 42
-0.9999999999999998
 10
443.5929648979127
 20
286.8132775979761
 10
443.5929648979131
 20
282.9312500000012
 42
0.9999999999999998
 10
453.297964897913
 20
282.9312500000012
 10
453.297964897913
 20
287.9460098326492
 42
-0.9999999999999998
 10
456.5329648979131
 20
287.9460098326492
 10
456.5329648979127
 20
282.9312500000012
 42
0.9999999999999998
 10
466.2379648979131
 20
282.9312500000012
 10
466.2379648979131
 20
288.7535899649877
 42
-0.9999999999999998
 10
469.4729648979127
 20
288.7535899649877
 10
469.4729648979132
 20
282.9312500000012
 42
0.9999999999999998
 10
479.1779648979131
 20
282.9312500000012
 10
479.1779648979131
 20
289.2375351431777
 42
-0.9999999999999998
 10
482.4129648979128
 20
289.2375351431777
 10
482.4129648979128
 20
282.9312500000012
 42
0.9999999999999998
 10
492.1179648979127
 20
282.9312500000012
 10
492.1179648979127
 20
295.828946832107
 42
0.4178218591359936
 10
487.2057624056083
 20
300.6810795448853
 42
0.2753040364324459
 10
23.94708592372535
 20
16.90873654524171
 42
-0.9999999999999998
 10
21.08350093257013
 20
18.41376345477886
 42
-0.278615924231929
 10
493.735464897913
 20
303.9562500000002
 42
-0.2786159242319849
 10
966.3874288632969
 20
18.41376345470098
 42
-0.9999999999999998
 10
963.5238438721108
 20
16.90873654522192
 42
0.2753040364325017
 10
500.2651673902187
 20
300.681079544885
 42
0.4178218591359936
 10
495.3529648979134
 20
295.828946832107
 10
495.3529648979134
 20
282.9312500000012
 42
0.9999999999999998
 10
505.0579648979132
 20
282.9312500000012
 10
505.0579648979132
 20
289.2375351431777
 42
-0.9999999999999998
 10
508.292964897913
 20
289.2375351431777
 10
508.292964897913
 20
282.9312500000012
 42
0.9999999999999998
 10
517.9979648979128
 20
282.9312500000012
 10
517.9979648979128
 20
288.7535899649877
 42
-0.9999999999999998
 10
521.232964897913
 20
288.7535899649877
 10
521.232964897913
 20
282.9312500000012
 42
0.9999999999999998
 10
530.9379648979129
 20
282.9312500000012
 10
530.9379648979134
 20
287.9460098326492
 42
-0.9999999999999998
 10
534.1729648979126
 20
287.9460098326492
 10
534.172964897913
 20
282.9312500000012
 42
0.9999999999999998
 10
543.877964897913
 20
282.9312500000012
 10
543.877964897913
 20
286.8132775979761
 42
-0.9999999999999998
 10
547.1129648979131
 20
286.8132775979761
 10
547.1129648979131
 20
282.9312500000012
 42
0.9999999999999998
 10
556.817964897913
 20
282.9312500000012
 10
556.817964897913
 20
285.3532492393567
 42
-0.9999999999999998
 10
560.0529648979127
 20
285.3532492393567
 10
560.0529648979131
 20
282.9312500000012
 42
0.9999999999999998
 10
569.7579648979131
 20
282.9312500000012
 10
569.7579648979131
 20
283.5631333162094
 42
-0.9999999999999998
 10
572.9929648979132
 20
283.5631333162094
 10
572.9929648979127
 20
282.9312500000012
 42
0.8920542580882942
 10
582.5724264456607
 20
281.8346230004634
 42
-0.7945638995628799
 10
585.7237341441591
 20
281.8346230004638
 42
0.6526479912275081
 10
594.4537361474176
 20
280.1885463409183
 42
-0.5270484683742738
 10
597.1224297844237
 20
280.1885463409169
 42
0.2473953729542051
 10
601.1254702399328
 20
278.0787500000013
 10
608.9399081715951
 20
278.0787500000013
 42
-0.9999999999999998
 10
608.9399081715951
 20
274.8437500000012
 10
500.2054648979132
 20
274.8437500000012
 42
0.9999999999999998
 10
500.2054648979132
 20
265.1387500000012
 10
615.4099081715949
 20
265.1387500000012
 42
0.4142135623730951
 10
620.2624081715948
 20
269.9912500000012
 10
620.2624081715948
 20
273.3428882577371
 42
-0.9999999999999998
 10
623.4974081715945
 20
273.3428882577371
 10
623.4974081715949
 20
269.9912500000012
 42
0.9907144459857057
 10
633.2015636041465
 20
269.9007192660324
 42
-0.9815143165529626
 10
636.4360005591811
 20
269.9007192660328
 42
0.7330849634550038
 10
645.3128010569507
 20
267.2810906958361
 42
-0.5322393755066046
 10
647.9962311004287
 20
267.2810906958355
 42
0.2495473784963902
 10
652.0213761656459
 20
265.1387500000012
 10
655.6361668729168
 20
265.1387500000012
 42
-0.9999999999999998
 10
655.6361668729168
 20
261.9037500000011
 10
500.2054648979132
 20
261.9037500000011
 42
0.9999999999999998
 10
500.2054648979132
 20
252.1987500000012
 10
662.1061668729167
 20
252.1987500000012
 42
0.4142135623730951
 10
666.9586668729166
 20
257.0512500000011
 10
666.9586668729171
 20
259.0866901015099
 42
-0.9999999999999998
 10
670.1936668729167
 20
259.0866901015099
 10
670.1936668729172
 20
257.0512500000007
 42
0.8135408642433773
 10
679.4968440667526
 20
255.1178000352293
 42
-0.6558664913447081
 10
682.4639621959754
 20
255.1178000352293
 42
0.298678666521628
 10
686.9146393898108
 20
252.1987500000012
 10
690.7550670952555
 20
252.1987500000012
 42
-0.9999999999999998
 10
690.7550670952555
 20
248.963750000001
 10
500.2054648979132
 20
248.963750000001
 42
0.9999999999999998
 10
500.2054648979132
 20
239.2587500000011
 10
697.2250670952558
 20
239.2587500000011
 42
0.4142135623730951
 10
702.0775670952557
 20
244.1112500000011
 10
702.0775670952557
 20
245.0705494415502
 42
-0.9999999999999998
 10
705.3125670952554
 20
245.0705494415502
 10
705.3125670952554
 20
244.1112500000006
 42
0.4142135623730951
 10
710.1650670952558
 20
239.2587500000006
 10
719.7591866618004
 20
239.2587500000011
 42
-0.9999999999999998
 10
719.7591866618004
 20
236.023750000001
 10
500.2054648979132
 20
236.023750000001
 42
0.9999999999999998
 10
500.2054648979132
 20
226.3187500000011
 10
726.2291866618002
 20
226.3187500000011
 42
0.4142135623730951
 10
731.0816866618002
 20
231.171250000001
 42
-0.9999999999999998
 10
734.3166866618003
 20
231.171250000001
 42
0.4142135623730951
 10
739.1691866618007
 20
226.3187500000006
 10
744.7769649531815
 20
226.3187500000011
 42
-0.9999999999999998
 10
744.7769649531815
 20
223.0837500000009
 10
500.2054648979132
 20
223.0837500000011
 42
0.9999999999999998
 10
500.2054648979132
 20
213.378750000001
 10
751.2469649531813
 20
213.378750000001
 42
0.374675983642845
 10
756.0540971725608
 20
217.5692559853721
 42
-0.8717267997076548
 10
759.2588519854802
 20
217.5692559853724
 42
0.374675983642845
 10
764.0659842048599
 20
213.378750000001
 10
766.9058503718865
 20
213.378750000001
 42
-0.9999999999999998
 10
766.9058503718865
 20
210.1437500000009
 10
500.2054648979132
 20
210.1437500000009
 42
0.9999999999999998
 10
500.2054648979132
 20
200.4387500000009
 10
773.3758503718868
 20
200.4387500000009
 42
0.3402670223829451
 10
778.0666458129886
 20
204.0489962498593
 42
-0.769644785237232
 10
781.1938427737223
 20
204.0489962498587
 42
0.340267022382945
 10
785.8846382148239
 20
200.4387500000009
 10
786.8009815490527
 20
200.4387500000009
 42
-0.9999999999999998
 10
786.8009815490527
 20
197.2037500000008
 10
500.2054648979132
 20
197.2037500000008
 42
0.9999999999999998
 10
500.2054648979132
 20
187.4987500000009
 10
793.2709815490525
 20
187.4987500000009
 42
0.3092894370973346
 10
797.7934006483283
 20
190.5921360922316
 42
-0.6849462284590621
 10
800.8098349651909
 20
190.5882955562793
 42
0.2911986247551824
 10
805.0025265712575
 20
187.4949094640492
 42
-0.9661181323325461
 10
804.8911291561735
 20
184.2637500000007
 10
587.3967148979131
 20
184.263750000001
 42
0.9999999999999998
 10
587.3967148979131
 20
174.5587500000008
 10
811.3611291561737
 20
174.5587500000008
 42
0.2809073498166132
 10
815.6755412289067
 20
177.190303193646
 42
-0.6200818887842648
 10
818.5729708211315
 20
177.1476783710957
 42
0.2274913796533151
 10
821.8441995100988
 20
174.5161251774518
 42
-0.8911027334642181
 10
821.4753168384413
 20
171.3237500000007
 10
573.3058858092931
 20
171.3237500000007
 42
-0.3564606271453961
 10
571.7209894453708
 20
172.6181250000006
 42
0.8166937785106156
 10
562.2116112618355
 20
172.6181250000006
 42
-0.9041766135546792
 10
559.0092148979133
 20
172.9412500000007
 42
0.9999999999999998
 10
549.3042148979134
 20
172.9412500000007
 42
-0.9999999999999998
 10
546.0692148979132
 20
172.9412500000007
 10
546.0692148979128
 20
176.7837499999982
 42
0.9999999999999998
 10
536.3642148979129
 20
176.7837499999982
 10
536.3642148979129
 20
172.9412500000007
 42
-0.9999999999999998
 10
533.1292148979132
 20
172.9412500000007
 10
533.1292148979132
 20
176.7837499999982
 42
0.9999999999999998
 10
523.4242148979133
 20
176.7837499999982
 10
523.4242148979133
 20
172.9412500000007
 42
-0.9999999999999998
 10
520.1892148979132
 20
172.9412500000007
 10
520.1892148979127
 20
176.7837499999982
 42
0.9999999999999998
 10
510.4842148979128
 20
176.7837499999982
 10
510.4842148979128
 20
172.9412500000007
 42
-0.9999999999999998
 10
507.2492148979131
 20
172.9412500000007
 10
507.2492148979131
 20
176.7837499999982
 42
0.9999999999999998
 10
497.5442148979132
 20
176.7837499999982
 10
497.5442148979132
 20
166.4712500000007
 42
0.4142135623730951
 10
502.3967148979131
 20
161.6187500000007
 10
836.7720321906721
 20
161.6187500000007
 42
-0.9999999999999998
 10
836.7720321906721
 20
158.3837500000006
 10
502.3967148979131
 20
158.3837500000008
 42
0.9999999999999998
 10
502.3967148979131
 20
148.6787500000007
 10
850.946712271228
 20
148.6787500000007
 42
-0.9999999999999998
 10
850.946712271228
 20
145.4437500000006
 10
502.3967148979131
 20
145.4437500000006
 42
0.9999999999999998
 10
502.3967148979131
 20
135.7387500000006
 10
864.1281980879684
 20
135.7387500000006
 42
-0.9999999999999998
 10
864.1281980879684
 20
132.5037500000005
 10
502.3967148979131
 20
132.5037500000005
 42
0.9999999999999998
 10
502.3967148979131
 20
122.7987500000006
 10
876.4191347219593
 20
122.7987500000006
 42
-0.9999999999999998
 10
876.4191347219593
 20
119.5637500000005
 10
502.3967148979131
 20
119.5637500000005
 42
0.9999999999999998
 10
502.3967148979131
 20
109.8587500000005
 10
887.9028383574622
 20
109.8587500000005
 42
-0.9999999999999998
 10
887.9028383574622
 20
106.6237500000004
 10
502.3967148979131
 20
106.6237500000004
 42
0.9999999999999998
 10
502.3967148979131
 20
96.91875000000051
 10
898.647996501962
 20
96.91875000000051
 42
-0.9999999999999998
 10
898.647996501962
 20
93.68375000000037
 10
502.3967148979131
 20
93.68375000000037
 42
0.9999999999999998
 10
502.3967148979131
 20
83.97875000000045
 10
908.7119835107136
 20
83.97875000000045
 42
-0.9999999999999998
 10
908.7119835107136
 20
80.74375000000031
 10
502.3967148979131
 20
80.74375000000031
 42
0.9999999999999998
 10
502.3967148979131
 20
71.03875000000039
 10
918.1432600077577
 20
71.03875000000039
 42
-0.9999999999999998
 10
918.1432600077577
 20
67.80375000000026
 10
502.3967148979131
 20
67.80375000000026
 42
0.9999999999999998
 10
502.3967148979131
 20
58.09875000000033
 10
926.9831479846201
 20
58.09875000000033
 42
-0.9999999999999998
 10
926.9831479846201
 20
54.86375000000021
 10
502.3967148979131
 20
54.86375000000021
 42
0.9999999999999998
 10
502.3967148979131
 20
45.15875000000028
 10
935.2671693654405
 20
45.15875000000028
 42
-0.9999999999999998
 10
935.2671693654405
 20
41.92375000000038
 10
502.3967148979131
 20
41.92375000000026
 42
0.9999999999999998
 10
502.3967148979131
 20
32.21875000000034
 10
943.02607241158
 20
32.21875000000023
 42
-0.9999999999999998
 10
943.02607241158
 20
28.98375000000033
 10
527.7417148979124
 20
28.98375000000033
 42
0.9999999999999998
 10
527.7417148979124
 20
19.27875000000028
 10
950.2866304314162
 20
19.27875000000028
 42
-0.9999999999999998
 10
950.2866304314162
 20
16.04375000000027
 10
521.2717148979127
 20
16.04375000000027
 42
-0.4142135623730951
 10
519.6542148979128
 20
17.66125000000022
 10
519.6542148979128
 20
24.13125000000025
 42
0.4142135623730951
 10
514.8017148979128
 20
28.98375000000033
 10
504.2986082047345
 20
28.98375000000033
 42
0.9999999999999998
 10
504.2986082047345
 20
19.27875000000028
 10
505.2429648979127
 20
19.27875000000028
 42
-0.4142135623730951
 10
506.8604648979126
 20
17.66125000000033
 10
506.8604648979126
 20
16.75000000000011
  0
TEXT
  5
3604
330
2
100
AcDbEntity
  8
mechanical
  6
Continuous
100
AcDbText
 10
30.86516665097872
 20
273.1797840209306
 30
0.0
 40
10.0
  1
CP OUTER
100
AcDbText
  0
TEXT
  5
3605
330
2
100
AcDbEntity
  8
mechanical
  6
Continuous
100
AcDbText
 10
30.86516665097872
 20
256.5131173542639
 30
0.0
 40
10.0
  1
A3
100
AcDbText
  0
TEXT
  5
3606
330
2
100
AcDbEntity
  8
mechanical
  6
Continuous
100
AcDbText
 10
30.86516665097872
 20
239.8464506875972
 30
0.0
 40
10.0
  1
ATLICE 0001
100
AcDbText
  0
VIEWPORT
  5
17F
102
{ACAD_XDICTIONARY
360
3637
102
}
330
148
100
AcDbEntity
 67
     1
  8
0
  6
Continuous
100
AcDbViewport
 10
539.4629528462933
 20
436.6083350012517
 30
0.0
 40
1387.054359180414
 41
867.4927515749562
 68
     1
 69
     1
 12
539.4629528462933
 22
436.6083350012517
 13
0.0
 23
0.0
 14
10.0
 24
10.0
 15
10.0
 25
10.0
 16
0.0
 26
0.0
 36
1.0
 17
0.0
 27
0.0
 37
0.0
 42
50.0
 43
0.0
 44
0.0
 45
867.4927515749562
 50
0.0
 51
0.0
 72
   100
 90
    32800
  1

281
     0
 71
     1
 74
     0
110
0.0
120
0.0
130
0.0
111
1.0
121
0.0
131
0.0
112
0.0
122
1.0
132
0.0
 79
     0
146
0.0
1001
GENIUS_GENSCREG_15
1000
PF
1040
1.0
1000
DF
1040
1.0
1000
MIN
1011
-154.0642267439139
1021
2.861959213773616
1031
0.0
1000
MAX
1011
1232.9901324365
1021
870.3547107887297
1031
0.0
1000
FLAGS
1070
     4
1001
GENIUS_GENODEF_13
1002
{
1000
HIER
1070
     0
1002
}
1002
{
1000
MANEDIT
1070
     0
1002
}
1002
{
1000
NOSEL
1070
     0
1002
}
1002
{
1000
BEHIND
1070
     0
1002
}
1002
{
1000
OTHER
1070
     0
1002
}
1002
{
1000
REACTOR
1002
}
1001
GENIUS_GENOBJ-N-SDF_13
1002
{
1000
OWNER
1000
GEN
1002
}
  0
VIEWPORT
  5
181
102
{ACAD_XDICTIONARY
360
3639
102
}
330
148
100
AcDbEntity
 67
     1
  8
0
  6
Continuous
100
AcDbViewport
 10
573.7436809539794
 20
392.7263202667236
 30
0.0
 40
917.9898895263672
 41
628.3621124267579
 68
     2
 69
     2
 12
454.7134502953538
 22
167.0708391774632
 13
0.0
 23
0.0
 14
1.0
 24
1.0
 15
0.0
 25
0.0
 16
0.0
 26
0.0
 36
1.0
 17
0.0
 27
0.0
 37
0.0
 42
50.0
 43
0.0
 44
0.0
 45
558.6397812350369
 50
0.0
 51
0.0
 72
   100
 90
    32800
  1

281
     0
 71
     1
 74
     0
110
0.0
120
0.0
130
0.0
111
1.0
121
0.0
131
0.0
112
0.0
122
1.0
132
0.0
 79
     1
146
0.0
1001
GENIUS_GENSCREG_15
1000
PF
1040
0.0
1000
DF
1040
0.0
1000
MIN
1011
114.7487361907958
1021
78.54526405334468
1031
0.0
1000
MAX
1011
1032.738625717163
1021
706.9073764801025
1031
0.0
1000
FLAGS
1070
     4
1001
GENIUS_GENODEF_13
1002
{
1000
HIER
1070
     0
1002
}
1002
{
1000
MANEDIT
1070
     0
1002
}
1002
{
1000
NOSEL
1070
     0
1002
}
1002
{
1000
BEHIND
1070
     0
1002
}
1002
{
1000
OTHER
1070
     0
1002
}
1002
{
1000
REACTOR
1002
}
1001
GENIUS_GENOBJ-N-SDF_13
1002
{
1000
OWNER
1000
GEN
1002
}
  0
ENDSEC
  0
SECTION
  2
OBJECTS
  0
DICTIONARY
  5
9
330
0
100
AcDbDictionary
281
     1
  3
ACAD_COLOR
350
162
  3
ACAD_GROUP
350
15E
  3
ACAD_LAYOUT
350
147
  3
ACAD_MATERIAL
350
161
  3
ACAD_MLEADERSTYLE
350
170E
  3
ACAD_MLINESTYLE
350
15F
  3
ACAD_PLOTSETTINGS
350
160
  3
ACAD_PLOTSTYLENAME
350
8
  3
ACAD_SCALELIST
350
16EC
  3
ACAD_TABLESTYLE
350
16EA
  3
ACAD_VISUALSTYLE
350
16D9
  3
ACDB_RECOMPOSE_DATA
350
1926
  3
AcDbVariableDictionary
350
16B
  3
AcmDictionary
350
17D5
  3
AMG
350
1714
  3
AMGSNAPSETTINGS
350
1835
  3
ASE_INDEX_DICTIONARY
350
6DB
  3
DWGPROPS
350
3632
  3
MAPISURF_MODULE
350
17A1
  0
DICTIONARY
  5
1852
330
14E
100
AcDbDictionary
280
     1
281
     1
  3
ACAD_LAYERFILTERS
360
2C8E
  3
ACLYDICTIONARY
360
2C8D
  0
DICTIONARY
  5
181E
330
6
100
AcDbDictionary
280
     1
281
     1
  3
ADSK_XREC_LAYER_RECONCILED
360
181F
  0
DICTIONARY
  5
1820
330
C
100
AcDbDictionary
280
     1
281
     1
  3
ADSK_XREC_LAYER_RECONCILED
360
1821
  0
DICTIONARY
  5
1822
330
174
100
AcDbDictionary
280
     1
281
     1
  3
ADSK_XREC_LAYER_RECONCILED
360
1823
  0
DICTIONARY
  5
1824
330
794
100
AcDbDictionary
280
     1
281
     1
  3
ADSK_XREC_LAYER_RECONCILED
360
1825
  0
DICTIONARY
  5
3
330
2
100
AcDbDictionary
280
     1
281
     1
  3
ACAD_INDEX
360
3608
  3
ACAD_LAYOUTSELFREF
360
4
  3
ACAD_SORTENTS
360
1846
  0
DICTIONARY
  5
149
330
148
100
AcDbDictionary
280
     1
281
     1
  3
ACAD_LAYOUTSELFREF
360
14A
  0
DICTIONARY
  5
3637
330
17F
100
AcDbDictionary
280
     1
281
     1
  3
ACAD_XREC_ROUNDTRIP
360
3638
  0
DICTIONARY
  5
3639
330
181
100
AcDbDictionary
280
     1
281
     1
  3
ACAD_XREC_ROUNDTRIP
360
363A
  0
DICTIONARY
  5
162
102
{ACAD_REACTORS
330
9
102
}
330
9
100
AcDbDictionary
281
     1
  0
DICTIONARY
  5
15E
102
{ACAD_REACTORS
330
9
102
}
330
9
100
AcDbDictionary
281
     1
  0
DICTIONARY
  5
147
102
{ACAD_REACTORS
330
9
102
}
330
9
100
AcDbDictionary
281
     1
  3
Layout1
350
14D
  3
Model
350
146
  0
DICTIONARY
  5
161
102
{ACAD_REACTORS
330
9
102
}
330
9
100
AcDbDictionary
281
     1
  3
ByBlock
350
16C9
  3
ByLayer
350
16C1
  3
Global
350
16D1
  0
DICTIONARY
  5
170E
102
{ACAD_REACTORS
330
9
102
}
330
9
100
AcDbDictionary
281
     1
  3
Standard
350
170F
  0
DICTIONARY
  5
15F
102
{ACAD_REACTORS
330
9
102
}
330
9
100
AcDbDictionary
281
     1
  3
STANDARD
350
163
  0
DICTIONARY
  5
160
102
{ACAD_REACTORS
330
9
102
}
330
9
100
AcDbDictionary
281
     1
  0
ACDBDICTIONARYWDFLT
  5
8
102
{ACAD_REACTORS
330
9
102
}
330
9
100
AcDbDictionary
281
     1
  3
Normal
350
7
100
AcDbDictionaryWithDefault
340
7
  0
DICTIONARY
  5
16EC
102
{ACAD_REACTORS
330
9
102
}
330
9
100
AcDbDictionary
281
     1
  3
A0
350
16ED
  3
A1
350
16EE
  3
A2
350
16EF
  3
A3
350
16F0
  3
A4
350
16F1
  3
A5
350
16F2
  3
A6
350
16F3
  3
A7
350
16F4
  3
A8
350
16F5
  3
A9
350
16F6
  3
B0
350
16F7
  3
B1
350
16F8
  3
B2
350
16F9
  3
B3
350
16FA
  3
B4
350
16FB
  3
B5
350
16FC
  3
B6
350
16FD
  3
B7
350
16FE
  3
B8
350
16FF
  3
B9
350
1700
  3
C0
350
1701
  3
C1
350
1702
  3
C2
350
1703
  3
C3
350
1704
  3
C4
350
1705
  3
C5
350
1706
  3
C6
350
1707
  3
C7
350
1708
  3
C8
350
1709
  3
C9
350
170A
  3
D0
350
170B
  3
D1
350
170C
  3
D2
350
170D
  0
DICTIONARY
  5
16EA
102
{ACAD_REACTORS
330
9
102
}
330
9
100
AcDbDictionary
281
     1
  3
Standard
350
16EB
  0
DICTIONARY
  5
16D9
102
{ACAD_REACTORS
330
9
102
}
330
9
100
AcDbDictionary
281
     1
  3
2dWireframe
350
16DF
  3
3D Hidden
350
16E1
  3
3dWireframe
350
16E0
  3
Basic
350
16DE
  3
Brighten
350
16E5
  3
ColorChange
350
16E9
  3
Conceptual
350
16E2
  3
Dim
350
16E4
  3
Facepattern
350
16E8
  3
Flat
350
16DA
  3
FlatWithEdges
350
16DB
  3
Gouraud
350
16DC
  3
GouraudWithEdges
350
16DD
  3
Linepattern
350
16E7
  3
Realistic
350
16E3
  3
Thicken
350
16E6
  0
XRECORD
  5
1926
102
{ACAD_REACTORS
330
9
102
}
330
9
100
AcDbXrecord
280
     1
 90
        1
330
16EB
  0
DICTIONARY
  5
16B
102
{ACAD_REACTORS
330
9
102
}
330
9
100
AcDbDictionary
281
     1
  3
CANNOSCALE
350
192A
  3
CMLEADERSTYLE
350
1928
  3
CTABLESTYLE
350
1927
  3
DIMASSOC
350
16D
  3
HIDETEXT
350
16C
  3
INDEXCTL
350
3630
  3
LIGHTINGUNITS
350
192B
  3
MSLTSCALE
350
1929
  3
PROJECTNAME
350
16E
  3
SORTENTS
350
7B5
  0
DICTIONARY
  5
17D5
102
{ACAD_REACTORS
330
9
102
}
330
9
100
AcDbDictionary
281
     1
  3
AcmStdDictionary
350
17E5
  3
AMDTSECTSYM_ARROWCOLOR
350
1805
  0
DICTIONARY
  5
1714
102
{ACAD_REACTORS
330
9
102
}
330
9
100
AcDbDictionary
281
     1
  3
AcMgSettings
350
1715
  0
DICTIONARY
  5
1835
102
{ACAD_REACTORS
330
9
102
}
330
9
100
AcDbDictionary
281
     1
  3
DIMENSION
350
183A
  3
FEA
350
1839
  3
HATCH (1)
350
1836
  3
HATCH (2)
350
1837
  3
SIMPLE WELD
350
183B
  3
SYMBOLS
350
1838
  0
DICTIONARY
  5
6DB
102
{ACAD_REACTORS
330
9
102
}
330
9
100
AcDbDictionary
281
     1
  3
ASEBlockHierarchyIndexRecord
350
6DC
1001
DCO15
1040
1546756179.546
  0
XRECORD
  5
3632
102
{ACAD_REACTORS
330
9
102
}
330
9
100
AcDbXrecord
280
     1
  1
DWGPROPS COOKIE
  2

  3

  4

  6

  7

  8
eglangusj
  9

300
AmdtFileType=84
301
=
302
=
303
=
304
=
305
=
306
=
307
=
308
=
309
=
 40
1.118515775462962
 41
2311946.475710706
 42
2454392.392458924
  1

 90
        1
  0
DICTIONARY
  5
2C8E
102
{ACAD_REACTORS
330
1852
102
}
330
1852
100
AcDbDictionary
281
     1
  0
DICTIONARY
  5
2C8D
102
{ACAD_REACTORS
330
1852
102
}
330
1852
100
AcDbDictionary
281
     1
1001
ACAD
1000
<All
  0
XRECORD
  5
181F
102
{ACAD_REACTORS
330
181E
102
}
330
181E
100
AcDbXrecord
280
     1
290
     1
  0
XRECORD
  5
1821
102
{ACAD_REACTORS
330
1820
102
}
330
1820
100
AcDbXrecord
280
     1
290
     1
  0
XRECORD
  5
1823
102
{ACAD_REACTORS
330
1822
102
}
330
1822
100
AcDbXrecord
280
     1
290
     1
  0
XRECORD
  5
1825
102
{ACAD_REACTORS
330
1824
102
}
330
1824
100
AcDbXrecord
280
     1
290
     1
  0
DICTIONARY
  5
3608
102
{ACAD_REACTORS
330
3
102
}
330
3
100
AcDbDictionary
281
     1
  3
*A1
350
3609
  0
XRECORD
  5
4
102
{ACAD_REACTORS
330
3
102
}
330
3
100
AcDbXrecord
280
     1
340
2
  0
SORTENTSTABLE
  5
1846
102
{ACAD_REACTORS
330
3
102
}
330
3
100
AcDbSortentsTable
330
2
331
325E
  5
3260
331
2FF1
  5
2FFD
331
2FF9
  5
3005
331
326E
  5
3270
331
31EF
  5
31F3
331
35A6
  5
35A8
331
3247
  5
3249
331
35AE
  5
35B0
331
2FEA
  5
2FF5
331
35B6
  5
35B8
331
35C6
  5
35C8
331
325F
  5
3261
331
2FF2
  5
2FFE
331
3120
  5
3164
331
326F
  5
3271
331
31F0
  5
3243
331
35A7
  5
35A9
331
35AF
  5
35B1
331
2FEB
  5
2FF6
331
3248
  5
324A
331
35B7
  5
35B9
331
35C7
  5
35C9
331
3260
  5
3262
331
2FF3
  5
2FFF
331
311B
  5
3122
331
3270
  5
3278
331
35A8
  5
35AA
331
2FEC
  5
2FF7
331
3249
  5
324B
331
35B0
  5
35B2
331
35C8
  5
35CA
331
3261
  5
3263
331
2FF4
  5
3000
331
311C
  5
3159
331
3271
  5
3279
331
35A9
  5
35AB
331
2FED
  5
2FF8
331
324A
  5
3256
331
35B1
  5
35B3
331
325A
  5
325C
331
35C9
  5
35CB
331
3262
  5
3264
331
2FF5
  5
3001
331
311D
  5
315F
331
3601
  5
3010
331
31F3
  5
3244
331
3243
  5
3245
331
35AA
  5
35AC
331
2FEE
  5
2FF9
331
35B2
  5
35B4
331
324B
  5
325A
331
325B
  5
325D
331
35CA
  5
35CC
331
3263
  5
3267
331
2FF6
  5
3002
331
311E
  5
3160
331
326B
  5
326E
331
3602
  5
3013
331
3244
  5
3246
331
35AB
  5
35AD
331
2FEF
  5
2FFB
331
35B3
  5
35B5
331
325C
  5
325E
331
35CB
  5
35CE
331
3264
  5
3268
331
2FF7
  5
3003
331
311F
  5
3162
331
326C
  5
326F
331
3245
  5
3247
331
35AC
  5
35AE
331
2FE8
  5
2FF3
331
35B4
  5
35B6
331
325D
  5
325F
331
2FF0
  5
2FFC
331
2FF8
  5
3004
331
3246
  5
3248
331
35AD
  5
35AF
331
2FE9
  5
2FF4
331
35B5
  5
35B7
331
3256
  5
325B
  0
XRECORD
  5
14A
102
{ACAD_REACTORS
330
149
102
}
330
149
100
AcDbXrecord
280
     1
340
148
  0
XRECORD
  5
3638
102
{ACAD_REACTORS
330
3637
102
}
330
3637
100
AcDbXrecord
280
     1
102
SHADEPLOT
 70
     0
  0
XRECORD
  5
363A
102
{ACAD_REACTORS
330
3639
102
}
330
3639
100
AcDbXrecord
280
     1
102
SHADEPLOT
 70
     0
  0
LAYOUT
  5
14D
102
{ACAD_XDICTIONARY
360
3635
102
}
102
{ACAD_REACTORS
330
147
102
}
330
147
100
AcDbPlotSettings
  1

  2
\\ris\laserc
  4
A4
  6

 40
6.805083274841308
 41
5.069413185119628
 42
6.805084228515625
 43
5.027069091796875
 44
209.9733276367187
 45
296.9683227539062
 46
0.0
 47
0.0
 48
0.0
 49
0.0
140
0.0
141
0.0
142
1.0
143
4.0
 70
   688
 72
     1
 73
     1
 74
     5
  7
monochrome.ctb
 75
    18
147
0.25
148
0.0
149
0.0
100
AcDbLayout
  1
Layout1
 70
     0
 71
     1
 10
-20.1082763671875
 20
-27.22033309936524
 11
1167.765014648437
 21
812.6729774475098
 12
0.0
 22
0.0
 32
0.0
 14
114.7487361907958
 24
78.54526405334468
 34
0.0
 15
1032.738625717163
 25
706.9073764801025
 35
0.0
146
0.0
 13
0.0
 23
0.0
 33
0.0
 16
1.0
 26
0.0
 36
0.0
 17
0.0
 27
1.0
 37
0.0
 76
     0
330
148
331
17F
  0
LAYOUT
  5
146
102
{ACAD_XDICTIONARY
360
3633
102
}
102
{ACAD_REACTORS
330
147
102
}
330
147
100
AcDbPlotSettings
  1

  2
\\ris\laserc
  4
A4
  6

 40
6.805083274841308
 41
5.069413185119628
 42
6.805084228515625
 43
5.027069091796875
 44
209.9733276367187
 45
296.9683227539062
 46
11.4
 47
35.65
 48
36.08173645326978
 49
39.13963998603622
140
251.6490471755318
141
212.6978016188405
142
1.0
143
1.0
 70
 11956
 72
     1
 73
     1
 74
     4
  7
monochrome.ctb
 75
    16
147
1.0
148
-36.08173645326978
149
-39.13963998603622
100
AcDbLayout
  1
Model
 70
     1
 71
     0
 10
0.0
 20
0.0
 11
12.0
 21
9.0
 12
0.0
 22
0.0
 32
0.0
 14
0.0
 24
0.0
 34
0.0
 15
0.0
 25
0.0
 35
0.0
146
0.0
 13
0.0
 23
0.0
 33
0.0
 16
1.0
 26
0.0
 36
0.0
 17
0.0
 27
1.0
 37
0.0
 76
     0
330
2
331
16BF
  0
MATERIAL
  5
16C9
102
{ACAD_XDICTIONARY
360
16CA
102
}
102
{ACAD_REACTORS
330
161
102
}
330
161
100
AcDbMaterial
  1
ByBlock
 72
     0
 43
0.0208333333333333
 43
0.0
 43
0.0
 43
0.0
 43
0.0
 43
0.0208333333333333
 43
0.0
 43
0.0
 43
0.0
 43
0.0
 43
1.0
 43
0.0
 43
0.0
 43
0.0
 43
0.0
 43
1.0
 77
     0
 47
0.0208333333333333
 47
0.0
 47
0.0
 47
0.0
 47
0.0
 47
0.0208333333333333
 47
0.0
 47
0.0
 47
0.0
 47
0.0
 47
1.0
 47
0.0
 47
0.0
 47
0.0
 47
0.0
 47
1.0
171
     0
 49
0.0208333333333333
 49
0.0
 49
0.0
 49
0.0
 49
0.0
 49
0.0208333333333333
 49
0.0
 49
0.0
 49
0.0
 49
0.0
 49
1.0
 49
0.0
 49
0.0
 49
0.0
 49
0.0
 49
1.0
175
     0
142
0.0208333333333333
142
0.0
142
0.0
142
0.0
142
0.0
142
0.0208333333333333
142
0.0
142
0.0
142
0.0
142
0.0
142
1.0
142
0.0
142
0.0
142
0.0
142
0.0
142
1.0
179
     0
144
0.0208333333333333
144
0.0
144
0.0
144
0.0
144
0.0
144
0.0208333333333333
144
0.0
144
0.0
144
0.0
144
0.0
144
1.0
144
0.0
144
0.0
144
0.0
144
0.0
144
1.0
147
0.0208333333333333
147
0.0
147
0.0
147
0.0
147
0.0
147
0.0208333333333333
147
0.0
147
0.0
147
0.0
147
0.0
147
1.0
147
0.0
147
0.0
147
0.0
147
0.0
147
1.0
  0
MATERIAL
  5
16C1
102
{ACAD_XDICTIONARY
360
16C2
102
}
102
{ACAD_REACTORS
330
161
102
}
330
161
100
AcDbMaterial
  1
ByLayer
 72
     0
 43
0.0208333333333333
 43
0.0
 43
0.0
 43
0.0
 43
0.0
 43
0.0208333333333333
 43
0.0
 43
0.0
 43
0.0
 43
0.0
 43
1.0
 43
0.0
 43
0.0
 43
0.0
 43
0.0
 43
1.0
 77
     0
 47
0.0208333333333333
 47
0.0
 47
0.0
 47
0.0
 47
0.0
 47
0.0208333333333333
 47
0.0
 47
0.0
 47
0.0
 47
0.0
 47
1.0
 47
0.0
 47
0.0
 47
0.0
 47
0.0
 47
1.0
171
     0
 49
0.0208333333333333
 49
0.0
 49
0.0
 49
0.0
 49
0.0
 49
0.0208333333333333
 49
0.0
 49
0.0
 49
0.0
 49
0.0
 49
1.0
 49
0.0
 49
0.0
 49
0.0
 49
0.0
 49
1.0
175
     0
142
0.0208333333333333
142
0.0
142
0.0
142
0.0
142
0.0
142
0.0208333333333333
142
0.0
142
0.0
142
0.0
142
0.0
142
1.0
142
0.0
142
0.0
142
0.0
142
0.0
142
1.0
179
     0
144
0.0208333333333333
144
0.0
144
0.0
144
0.0
144
0.0
144
0.0208333333333333
144
0.0
144
0.0
144
0.0
144
0.0
144
1.0
144
0.0
144
0.0
144
0.0
144
0.0
144
1.0
147
0.0208333333333333
147
0.0
147
0.0
147
0.0
147
0.0
147
0.0208333333333333
147
0.0
147
0.0
147
0.0
147
0.0
147
1.0
147
0.0
147
0.0
147
0.0
147
0.0
147
1.0
  0
MATERIAL
  5
16D1
102
{ACAD_XDICTIONARY
360
16D2
102
}
102
{ACAD_REACTORS
330
161
102
}
330
161
100
AcDbMaterial
  1
Global
 72
     0
 43
0.0208333333333333
 43
0.0
 43
0.0
 43
0.0
 43
0.0
 43
0.0208333333333333
 43
0.0
 43
0.0
 43
0.0
 43
0.0
 43
1.0
 43
0.0
 43
0.0
 43
0.0
 43
0.0
 43
1.0
 77
     0
 47
0.0208333333333333
 47
0.0
 47
0.0
 47
0.0
 47
0.0
 47
0.0208333333333333
 47
0.0
 47
0.0
 47
0.0
 47
0.0
 47
1.0
 47
0.0
 47
0.0
 47
0.0
 47
0.0
 47
1.0
171
     0
 49
0.0208333333333333
 49
0.0
 49
0.0
 49
0.0
 49
0.0
 49
0.0208333333333333
 49
0.0
 49
0.0
 49
0.0
 49
0.0
 49
1.0
 49
0.0
 49
0.0
 49
0.0
 49
0.0
 49
1.0
175
     0
142
0.0208333333333333
142
0.0
142
0.0
142
0.0
142
0.0
142
0.0208333333333333
142
0.0
142
0.0
142
0.0
142
0.0
142
1.0
142
0.0
142
0.0
142
0.0
142
0.0
142
1.0
179
     0
144
0.0208333333333333
144
0.0
144
0.0
144
0.0
144
0.0
144
0.0208333333333333
144
0.0
144
0.0
144
0.0
144
0.0
144
1.0
144
0.0
144
0.0
144
0.0
144
0.0
144
1.0
147
0.0208333333333333
147
0.0
147
0.0
147
0.0
147
0.0
147
0.0208333333333333
147
0.0
147
0.0
147
0.0
147
0.0
147
1.0
147
0.0
147
0.0
147
0.0
147
0.0
147
1.0
  0
MLEADERSTYLE
  5
170F
102
{ACAD_REACTORS
330
170E
102
}
330
170E
100
AcDbMLeaderStyle
170
     2
171
     1
172
     0
 90
        2
 40
0.0
 41
0.0
173
     1
 91
-1056964608
340
153
 92
       -2
290
     1
 42
2.0
291
     1
 43
0.36
  3
Standard
 44
4.0
300

342
150
174
     1
178
     6
175
     1
176
     0
 93
-1056964608
 45
4.0
292
     0
297
     0
 46
4.0
 94
-1056964608
 47
1.0
 49
1.0
140
1.0
293
     1
141
0.0
294
     1
177
     0
142
1.0
295
     0
296
     0
143
0.125
1001
ACAD_MLEADERVER
1070
     2
  0
MLINESTYLE
  5
163
102
{ACAD_REACTORS
330
15F
102
}
330
15F
100
AcDbMlineStyle
  2
STANDARD
 70
     0
  3

 62
     0
 51
90.0
 52
90.0
 71
     2
 49
0.5
 62
   256
  6
BYLAYER
 49
-0.5
 62
   256
  6
BYLAYER
  0
ACDBPLACEHOLDER
  5
7
102
{ACAD_REACTORS
330
8
102
}
330
8
  0
SCALE
  5
16ED
102
{ACAD_REACTORS
330
16EC
102
}
330
16EC
100
AcDbScale
 70
     0
300
1:1
140
1.0
141
1.0
290
     1
  0
SCALE
  5
16EE
102
{ACAD_REACTORS
330
16EC
102
}
330
16EC
100
AcDbScale
 70
     0
300
1:2
140
1.0
141
2.0
290
     0
  0
SCALE
  5
16EF
102
{ACAD_REACTORS
330
16EC
102
}
330
16EC
100
AcDbScale
 70
     0
300
1:4
140
1.0
141
4.0
290
     0
  0
SCALE
  5
16F0
102
{ACAD_REACTORS
330
16EC
102
}
330
16EC
100
AcDbScale
 70
     0
300
1:5
140
1.0
141
5.0
290
     0
  0
SCALE
  5
16F1
102
{ACAD_REACTORS
330
16EC
102
}
330
16EC
100
AcDbScale
 70
     0
300
1:8
140
1.0
141
8.0
290
     0
  0
SCALE
  5
16F2
102
{ACAD_REACTORS
330
16EC
102
}
330
16EC
100
AcDbScale
 70
     0
300
1:10
140
1.0
141
10.0
290
     0
  0
SCALE
  5
16F3
102
{ACAD_REACTORS
330
16EC
102
}
330
16EC
100
AcDbScale
 70
     0
300
1:16
140
1.0
141
16.0
290
     0
  0
SCALE
  5
16F4
102
{ACAD_REACTORS
330
16EC
102
}
330
16EC
100
AcDbScale
 70
     0
300
1:20
140
1.0
141
20.0
290
     0
  0
SCALE
  5
16F5
102
{ACAD_REACTORS
330
16EC
102
}
330
16EC
100
AcDbScale
 70
     0
300
1:30
140
1.0
141
30.0
290
     0
  0
SCALE
  5
16F6
102
{ACAD_REACTORS
330
16EC
102
}
330
16EC
100
AcDbScale
 70
     0
300
1:40
140
1.0
141
40.0
290
     0
  0
SCALE
  5
16F7
102
{ACAD_REACTORS
330
16EC
102
}
330
16EC
100
AcDbScale
 70
     0
300
1:50
140
1.0
141
50.0
290
     0
  0
SCALE
  5
16F8
102
{ACAD_REACTORS
330
16EC
102
}
330
16EC
100
AcDbScale
 70
     0
300
1:100
140
1.0
141
100.0
290
     0
  0
SCALE
  5
16F9
102
{ACAD_REACTORS
330
16EC
102
}
330
16EC
100
AcDbScale
 70
     0
300
2:1
140
2.0
141
1.0
290
     0
  0
SCALE
  5
16FA
102
{ACAD_REACTORS
330
16EC
102
}
330
16EC
100
AcDbScale
 70
     0
300
4:1
140
4.0
141
1.0
290
     0
  0
SCALE
  5
16FB
102
{ACAD_REACTORS
330
16EC
102
}
330
16EC
100
AcDbScale
 70
     0
300
8:1
140
8.0
141
1.0
290
     0
  0
SCALE
  5
16FC
102
{ACAD_REACTORS
330
16EC
102
}
330
16EC
100
AcDbScale
 70
     0
300
10:1
140
10.0
141
1.0
290
     0
  0
SCALE
  5
16FD
102
{ACAD_REACTORS
330
16EC
102
}
330
16EC
100
AcDbScale
 70
     0
300
100:1
140
100.0
141
1.0
290
     0
  0
SCALE
  5
16FE
102
{ACAD_REACTORS
330
16EC
102
}
330
16EC
100
AcDbScale
 70
     0
300
1/128" = 1'-0"
140
0.0078125
141
12.0
290
     0
  0
SCALE
  5
16FF
102
{ACAD_REACTORS
330
16EC
102
}
330
16EC
100
AcDbScale
 70
     0
300
1/64" = 1'-0"
140
0.015625
141
12.0
290
     0
  0
SCALE
  5
1700
102
{ACAD_REACTORS
330
16EC
102
}
330
16EC
100
AcDbScale
 70
     0
300
1/32" = 1'-0"
140
0.03125
141
12.0
290
     0
  0
SCALE
  5
1701
102
{ACAD_REACTORS
330
16EC
102
}
330
16EC
100
AcDbScale
 70
     0
300
1/16" = 1'-0"
140
0.0625
141
12.0
290
     0
  0
SCALE
  5
1702
102
{ACAD_REACTORS
330
16EC
102
}
330
16EC
100
AcDbScale
 70
     0
300
3/32" = 1'-0"
140
0.09375
141
12.0
290
     0
  0
SCALE
  5
1703
102
{ACAD_REACTORS
330
16EC
102
}
330
16EC
100
AcDbScale
 70
     0
300
1/8" = 1'-0"
140
0.125
141
12.0
290
     0
  0
SCALE
  5
1704
102
{ACAD_REACTORS
330
16EC
102
}
330
16EC
100
AcDbScale
 70
     0
300
3/16" = 1'-0"
140
0.1875
141
12.0
290
     0
  0
SCALE
  5
1705
102
{ACAD_REACTORS
330
16EC
102
}
330
16EC
100
AcDbScale
 70
     0
300
1/4" = 1'-0"
140
0.25
141
12.0
290
     0
  0
SCALE
  5
1706
102
{ACAD_REACTORS
330
16EC
102
}
330
16EC
100
AcDbScale
 70
     0
300
3/8" = 1'-0"
140
0.375
141
12.0
290
     0
  0
SCALE
  5
1707
102
{ACAD_REACTORS
330
16EC
102
}
330
16EC
100
AcDbScale
 70
     0
300
1/2" = 1'-0"
140
0.5
141
12.0
290
     0
  0
SCALE
  5
1708
102
{ACAD_REACTORS
330
16EC
102
}
330
16EC
100
AcDbScale
 70
     0
300
3/4" = 1'-0"
140
0.75
141
12.0
290
     0
  0
SCALE
  5
1709
102
{ACAD_REACTORS
330
16EC
102
}
330
16EC
100
AcDbScale
 70
     0
300
1" = 1'-0"
140
1.0
141
12.0
290
     0
  0
SCALE
  5
170A
102
{ACAD_REACTORS
330
16EC
102
}
330
16EC
100
AcDbScale
 70
     0
300
1-1/2" = 1'-0"
140
1.5
141
12.0
290
     0
  0
SCALE
  5
170B
102
{ACAD_REACTORS
330
16EC
102
}
330
16EC
100
AcDbScale
 70
     0
300
3" = 1'-0"
140
3.0
141
12.0
290
     0
  0
SCALE
  5
170C
102
{ACAD_REACTORS
330
16EC
102
}
330
16EC
100
AcDbScale
 70
     0
300
6" = 1'-0"
140
6.0
141
12.0
290
     0
  0
SCALE
  5
170D
102
{ACAD_REACTORS
330
16EC
102
}
330
16EC
100
AcDbScale
 70
     0
300
1'-0" = 1'-0"
140
12.0
141
12.0
290
     0
  0
TABLESTYLE
  5
16EB
102
{ACAD_XDICTIONARY
360
1924
102
}
102
{ACAD_REACTORS
330
16EA
102
}
330
16EA
100
AcDbTableStyle
  3
Standard
 70
     0
 71
     0
 40
1.5
 41
1.5
280
     0
281
     0
  7
STANDARD
140
4.5
170
     2
 62
     0
 63
     7
283
     0
274
    -2
284
     1
 64
     0
275
    -2
285
     1
 65
     0
276
    -2
286
     1
 66
     0
277
    -2
287
     1
 67
     0
278
    -2
288
     1
 68
     0
279
    -2
289
     1
 69
     0
  7
STANDARD
140
6.0
170
     5
 62
     0
 63
     7
283
     0
274
    -2
284
     1
 64
     0
275
    -2
285
     1
 65
     0
276
    -2
286
     1
 66
     0
277
    -2
287
     1
 67
     0
278
    -2
288
     1
 68
     0
279
    -2
289
     1
 69
     0
  7
STANDARD
140
4.5
170
     5
 62
     0
 63
     7
283
     0
274
    -2
284
     1
 64
     0
275
    -2
285
     1
 65
     0
276
    -2
286
     1
 66
     0
277
    -2
287
     1
 67
     0
278
    -2
288
     1
 68
     0
279
    -2
289
     1
 69
     0
  0
VISUALSTYLE
  5
16DF
102
{ACAD_REACTORS
330
16D9
102
}
330
16D9
100
AcDbVisualStyle
  2
2dWireframe
 70
     4
 71
     0
 72
     2
 73
     0
 90
        0
 40
-0.6
 41
-30.0
 62
     5
 63
     7
 74
     1
 91
        4
 64
     7
 65
   257
 75
     1
175
     1
 42
1.0
 92
        0
 66
   257
 43
1.0
 76
     1
 77
     6
 78
     2
 67
     7
 79
     5
170
     0
171
     0
290
     0
174
     0
 93
        1
 44
0.0
173
     0
291
     0
 45
0.0
1001
ACAD
1000
AcDbSavedByObjectVersion
1070
     0
  0
VISUALSTYLE
  5
16E1
102
{ACAD_REACTORS
330
16D9
102
}
330
16D9
100
AcDbVisualStyle
  2
3D Hidden
 70
     6
 71
     1
 72
     2
 73
     2
 90
        0
 40
-0.6
 41
-30.0
 62
     5
 63
     7
 74
     2
 91
        2
 64
     7
 65
   257
 75
     2
175
     1
 42
40.0
 92
        0
 66
   257
 43
1.0
 76
     1
 77
     6
 78
     2
 67
     7
 79
     3
170
     0
171
     0
290
     0
174
     0
 93
        1
 44
0.0
173
     0
291
     0
 45
0.0
1001
ACAD
1000
AcDbSavedByObjectVersion
1070
     0
  0
VISUALSTYLE
  5
16E0
102
{ACAD_REACTORS
330
16D9
102
}
330
16D9
100
AcDbVisualStyle
  2
3dWireframe
 70
     5
 71
     0
 72
     2
 73
     0
 90
        0
 40
-0.6
 41
-30.0
 62
     5
 63
     7
 74
     1
 91
        4
 64
     7
 65
   257
 75
     1
175
     1
 42
1.0
 92
        0
 66
   257
 43
1.0
 76
     1
 77
     6
 78
     2
 67
     7
 79
     5
170
     0
171
     0
290
     0
174
     0
 93
        1
 44
0.0
173
     0
291
     0
 45
0.0
1001
ACAD
1000
AcDbSavedByObjectVersion
1070
     0
  0
VISUALSTYLE
  5
16DE
102
{ACAD_REACTORS
330
16D9
102
}
330
16D9
100
AcDbVisualStyle
  2
Basic
 70
     7
 71
     1
 72
     0
 73
     1
 90
        0
 40
-0.6
 41
-30.0
 62
     5
 63
     7
 74
     0
 91
        4
 64
     7
 65
   257
 75
     1
175
     1
 42
1.0
 92
        8
 66
     7
 43
1.0
 76
     1
 77
     6
 78
     2
 67
     7
 79
     5
170
     0
171
     0
290
     0
174
     0
 93
        1
 44
0.0
173
     0
291
     1
 45
0.0
1001
ACAD
1000
AcDbSavedByObjectVersion
1070
     0
  0
VISUALSTYLE
  5
16E5
102
{ACAD_REACTORS
330
16D9
102
}
330
16D9
100
AcDbVisualStyle
  2
Brighten
 70
    12
 71
     2
 72
     2
 73
     0
 90
        0
 40
-0.6
 41
-30.0
 62
     5
 63
     7
 74
     1
 91
        4
 64
     7
 65
   257
 75
     1
175
     1
 42
1.0
 92
        8
 66
     7
 43
1.0
 76
     1
 77
     6
 78
     2
 67
     7
 79
     5
170
     0
171
     0
290
     0
174
     0
 93
        1
 44
50.0
173
     0
291
     1
 45
0.0
1001
ACAD
1000
AcDbSavedByObjectVersion
1070
     0
  0
VISUALSTYLE
  5
16E9
102
{ACAD_REACTORS
330
16D9
102
}
330
16D9
100
AcDbVisualStyle
  2
ColorChange
 70
    16
 71
     2
 72
     2
 73
     3
 90
        0
 40
-0.6
 41
-30.0
 62
     5
 63
     8
 74
     1
 91
        4
 64
     7
 65
   257
 75
     1
175
     1
 42
1.0
 92
        8
 66
     8
 43
1.0
 76
     1
 77
     6
 78
     2
 67
     7
 79
     5
170
     0
171
     0
290
     0
174
     0
 93
        1
 44
0.0
173
     0
291
     1
 45
0.0
1001
ACAD
1000
AcDbSavedByObjectVersion
1070
     0
  0
VISUALSTYLE
  5
16E2
102
{ACAD_REACTORS
330
16D9
102
}
330
16D9
100
AcDbVisualStyle
  2
Conceptual
 70
     9
 71
     3
 72
     2
 73
     0
 90
        0
 40
-0.6
 41
-30.0
 62
     5
 63
     7
 74
     2
 91
        2
 64
     7
 65
   257
 75
     1
175
     1
 42
40.0
 92
        8
 66
     7
 43
1.0
 76
     1
 77
     6
 78
     2
 67
     7
 79
     3
170
     0
171
     0
290
     0
174
     0
 93
        1
 44
0.0
173
     0
291
     0
 45
0.0
1001
ACAD
1000
AcDbSavedByObjectVersion
1070
     0
  0
VISUALSTYLE
  5
16E4
102
{ACAD_REACTORS
330
16D9
102
}
330
16D9
100
AcDbVisualStyle
  2
Dim
 70
    11
 71
     2
 72
     2
 73
     0
 90
        0
 40
-0.6
 41
-30.0
 62
     5
 63
     7
 74
     1
 91
        4
 64
     7
 65
   257
 75
     1
175
     1
 42
1.0
 92
        8
 66
     7
 43
1.0
 76
     1
 77
     6
 78
     2
 67
     7
 79
     5
170
     0
171
     0
290
     0
174
     0
 93
        1
 44
-50.0
173
     0
291
     1
 45
0.0
1001
ACAD
1000
AcDbSavedByObjectVersion
1070
     0
  0
VISUALSTYLE
  5
16E8
102
{ACAD_REACTORS
330
16D9
102
}
330
16D9
100
AcDbVisualStyle
  2
Facepattern
 70
    15
 71
     2
 72
     2
 73
     0
 90
        0
 40
-0.6
 41
-30.0
 62
     5
 63
     7
 74
     1
 91
        4
 64
     7
 65
   257
 75
     1
175
     1
 42
1.0
 92
        8
 66
     7
 43
1.0
 76
     1
 77
     6
 78
     2
 67
     7
 79
     5
170
     0
171
     0
290
     0
174
     0
 93
        1
 44
0.0
173
     0
291
     1
 45
0.0
1001
ACAD
1000
AcDbSavedByObjectVersion
1070
     0
  0
VISUALSTYLE
  5
16DA
102
{ACAD_REACTORS
330
16D9
102
}
330
16D9
100
AcDbVisualStyle
  2
Flat
 70
     0
 71
     2
 72
     1
 73
     1
 90
        2
 40
-0.6
 41
30.0
 62
     5
 63
     7
 74
     0
 91
        4
 64
     7
 65
   257
 75
     1
175
     1
 42
1.0
 92
        8
 66
     7
 43
1.0
 76
     1
 77
     6
 78
     2
 67
     7
 79
     5
170
     0
171
     0
290
     0
174
     0
 93
       13
 44
0.0
173
     0
291
     1
 45
0.0
1001
ACAD
1000
AcDbSavedByObjectVersion
1070
     0
  0
VISUALSTYLE
  5
16DB
102
{ACAD_REACTORS
330
16D9
102
}
330
16D9
100
AcDbVisualStyle
  2
FlatWithEdges
 70
     1
 71
     2
 72
     1
 73
     1
 90
        2
 40
-0.6
 41
30.0
 62
     5
 63
     7
 74
     1
 91
        4
 64
     7
 65
   257
 75
     1
175
     1
 42
1.0
 92
        0
 66
   257
 43
1.0
 76
     1
 77
     6
 78
     2
 67
     7
 79
     5
170
     0
171
     0
290
     0
174
     0
 93
       13
 44
0.0
173
     0
291
     1
 45
0.0
1001
ACAD
1000
AcDbSavedByObjectVersion
1070
     0
  0
VISUALSTYLE
  5
16DC
102
{ACAD_REACTORS
330
16D9
102
}
330
16D9
100
AcDbVisualStyle
  2
Gouraud
 70
     2
 71
     2
 72
     2
 73
     1
 90
        2
 40
-0.6
 41
30.0
 62
     5
 63
     7
 74
     0
 91
        4
 64
     7
 65
   257
 75
     1
175
     1
 42
1.0
 92
        0
 66
     7
 43
1.0
 76
     1
 77
     6
 78
     2
 67
     7
 79
     5
170
     0
171
     0
290
     0
174
     0
 93
       13
 44
0.0
173
     0
291
     1
 45
0.0
1001
ACAD
1000
AcDbSavedByObjectVersion
1070
     0
  0
VISUALSTYLE
  5
16DD
102
{ACAD_REACTORS
330
16D9
102
}
330
16D9
100
AcDbVisualStyle
  2
GouraudWithEdges
 70
     3
 71
     2
 72
     2
 73
     1
 90
        2
 40
-0.6
 41
30.0
 62
     5
 63
     7
 74
     1
 91
        4
 64
     7
 65
   257
 75
     1
175
     1
 42
1.0
 92
        0
 66
   257
 43
1.0
 76
     1
 77
     6
 78
     2
 67
     7
 79
     5
170
     0
171
     0
290
     0
174
     0
 93
       13
 44
0.0
173
     0
291
     1
 45
0.0
1001
ACAD
1000
AcDbSavedByObjectVersion
1070
     0
  0
VISUALSTYLE
  5
16E7
102
{ACAD_REACTORS
330
16D9
102
}
330
16D9
100
AcDbVisualStyle
  2
Linepattern
 70
    14
 71
     2
 72
     2
 73
     0
 90
        0
 40
-0.6
 41
-30.0
 62
     5
 63
     7
 74
     1
 91
        4
 64
     7
 65
   257
 75
     7
175
     7
 42
1.0
 92
        8
 66
     7
 43
1.0
 76
     1
 77
     6
 78
     2
 67
     7
 79
     5
170
     0
171
     0
290
     0
174
     0
 93
        1
 44
0.0
173
     0
291
     1
 45
0.0
1001
ACAD
1000
AcDbSavedByObjectVersion
1070
     0
  0
VISUALSTYLE
  5
16E3
102
{ACAD_REACTORS
330
16D9
102
}
330
16D9
100
AcDbVisualStyle
  2
Realistic
 70
     8
 71
     2
 72
     2
 73
     0
 90
        0
 40
-0.6
 41
-30.0
 62
     5
 63
     7
 74
     1
 91
        0
 64
     7
 65
   257
 75
     1
175
     1
 42
1.0
 92
        8
 66
     8
 43
1.0
 76
     1
 77
     6
 78
     2
 67
     7
 79
     5
170
     0
171
     0
290
     0
174
     0
 93
       13
 44
0.0
173
     0
291
     0
 45
0.0
1001
ACAD
1000
AcDbSavedByObjectVersion
1070
     0
  0
VISUALSTYLE
  5
16E6
102
{ACAD_REACTORS
330
16D9
102
}
330
16D9
100
AcDbVisualStyle
  2
Thicken
 70
    13
 71
     2
 72
     2
 73
     0
 90
        0
 40
-0.6
 41
-30.0
 62
     5
 63
     7
 74
     1
 91
        4
 64
     7
 65
   257
 75
     1
175
     1
 42
1.0
 92
       12
 66
     7
 43
1.0
 76
     1
 77
     6
 78
     2
 67
     7
 79
     5
170
     0
171
     0
290
     0
174
     0
 93
        1
 44
0.0
173
     0
291
     1
 45
0.0
1001
ACAD
1000
AcDbSavedByObjectVersion
1070
     0
  0
DICTIONARYVAR
  5
192A
102
{ACAD_REACTORS
330
16B
102
}
330
16B
100
DictionaryVariables
280
     0
  1
1:1
  0
DICTIONARYVAR
  5
1928
102
{ACAD_REACTORS
330
16B
102
}
330
16B
100
DictionaryVariables
280
     0
  1
STANDARD
  0
DICTIONARYVAR
  5
1927
102
{ACAD_REACTORS
330
16B
102
}
330
16B
100
DictionaryVariables
280
     0
  1
STANDARD
  0
DICTIONARYVAR
  5
16D
102
{ACAD_REACTORS
330
16B
102
}
330
16B
100
DictionaryVariables
280
     0
  1
1
  0
DICTIONARYVAR
  5
16C
102
{ACAD_REACTORS
330
16B
102
}
330
16B
100
DictionaryVariables
280
     0
  1
1
  0
DICTIONARYVAR
  5
3630
102
{ACAD_REACTORS
330
16B
102
}
330
16B
100
DictionaryVariables
280
     0
  1
1
  0
DICTIONARYVAR
  5
192B
102
{ACAD_REACTORS
330
16B
102
}
330
16B
100
DictionaryVariables
280
     0
  1
0
  0
DICTIONARYVAR
  5
1929
102
{ACAD_REACTORS
330
16B
102
}
330
16B
100
DictionaryVariables
280
     0
  1
0
  0
DICTIONARYVAR
  5
16E
102
{ACAD_REACTORS
330
16B
102
}
330
16B
100
DictionaryVariables
280
     0
  1

  0
DICTIONARYVAR
  5
7B5
102
{ACAD_REACTORS
330
16B
102
}
330
16B
100
DictionaryVariables
280
     0
  1
96
  0
DICTIONARY
  5
17E5
102
{ACAD_REACTORS
330
17D5
102
}
330
17D5
100
AcDbDictionary
281
     1
  0
XRECORD
  5
1805
102
{ACAD_REACTORS
330
17D5
102
}
330
17D5
100
AcDbXrecord
280
     1
 90
-1023410169
  0
DICTIONARY
  5
1715
102
{ACAD_REACTORS
330
1714
102
}
330
1714
100
AcDbDictionary
281
     1
  3
DWGSETTINGS
350
1716
  3
TRANSSETTINGS
350
171A
  0
ACAMGFILTERDAT
  5
183A
102
{ACAD_REACTORS
330
1835
102
}
330
1835
100
AcAmgFilterDat
 70
    15
  1
DIMENSION,AMDT_*_DIM
  2
*
  3
*
  4
*
  5
*
290
     1
  0
ACAMGFILTERDAT
  5
1839
102
{ACAD_REACTORS
330
1835
102
}
330
1835
100
AcAmgFilterDat
 70
    15
  1
*
  2
AM_FEA-AM_*
  3
*
  4
*
  5
*
290
     1
  0
ACAMGFILTERDAT
  5
1836
102
{ACAD_REACTORS
330
1835
102
}
330
1835
100
AcAmgFilterDat
 70
    15
  1
HATCH
  2
*
  3
*
  4
*
  5
*
290
     1
  0
ACAMGFILTERDAT
  5
1837
102
{ACAD_REACTORS
330
1835
102
}
330
1835
100
AcAmgFilterDat
 70
    15
  1
LINE
  2
8,8N,*-8,*-8N,AM_8,AM_8N,*-AM_8,*-AM_8N
  3
*
  4
*
  5
INSERT,STDPART2D
290
     1
  0
ACAMGFILTERDAT
  5
183B
102
{ACAD_REACTORS
330
1835
102
}
330
1835
100
AcAmgFilterDat
 70
    15
  1
ARC
  2
AM_5
  3
*
  4
2
  5
INSERT
290
     0
  0
ACAMGFILTERDAT
  5
1838
102
{ACAD_REACTORS
330
1835
102
}
330
1835
100
AcAmgFilterDat
 70
    15
  1
ACMFCFRAME,ACMDATUMTARGET,ACMDATUMID,ACMWELDSYM,ACMSURFSYM,ACMFEATID,ACMPARTREF,ACMBALLOON,AMDTEDGESYM,AMGSCREWCALCTABLE
  2
*
  3
*
  4
*
  5
*
290
     1
  0
XRECORD
  5
6DC
102
{ACAD_REACTORS
330
6DB
102
}
330
6DB
100
AcDbXrecord
280
     1
  0
LAYER_INDEX
  5
3609
102
{ACAD_REACTORS
330
3608
102
}
330
3608
100
AcDbIndex
 40
2454392.392458924
100
AcDbLayerIndex
  8
0
360
360A
 90
        0
  8
mechanical
360
360B
 90
       29
  8
copper
360
360C
 90
       50
  8
Defpoints
360
360D
 90
        0
  8
kapton
360
360E
 90
        6
  0
DICTIONARY
  5
3635
330
14D
100
AcDbDictionary
280
     1
281
     1
  3
ACAD_XREC_ROUNDTRIP
360
3636
  0
DICTIONARY
  5
3633
330
146
100
AcDbDictionary
280
     1
281
     1
  3
ACAD_XREC_ROUNDTRIP
360
3634
  0
DICTIONARY
  5
16CA
330
16C9
100
AcDbDictionary
280
     1
281
     1
  3
ACAD_XREC_ROUNDTRIP
360
363C
  3
BUMPTILE
360
16CC
  3
DIFFUSETILE
360
16CB
  3
OPACITYTILE
360
16CF
  3
REFLECTIONTILE
360
16CE
  3
REFRACTIONTILE
360
16D0
  3
SPECULARTILE
360
16CD
  0
DICTIONARY
  5
16C2
330
16C1
100
AcDbDictionary
280
     1
281
     1
  3
ACAD_XREC_ROUNDTRIP
360
363B
  3
BUMPTILE
360
16C4
  3
DIFFUSETILE
360
16C3
  3
OPACITYTILE
360
16C7
  3
REFLECTIONTILE
360
16C6
  3
REFRACTIONTILE
360
16C8
  3
SPECULARTILE
360
16C5
  0
DICTIONARY
  5
16D2
330
16D1
100
AcDbDictionary
280
     1
281
     1
  3
ACAD_XREC_ROUNDTRIP
360
363D
  3
BUMPTILE
360
16D4
  3
DIFFUSETILE
360
16D3
  3
OPACITYTILE
360
16D7
  3
REFLECTIONTILE
360
16D6
  3
REFRACTIONTILE
360
16D8
  3
SPECULARTILE
360
16D5
  0
DICTIONARY
  5
1924
330
16EB
100
AcDbDictionary
280
     1
281
     1
  3
ACAD_ROUNDTRIP_2008_TABLESTYLE_CELLSTYLEMAP
360
3631
  3
ACAD_XREC_ROUNDTRIP
360
363E
  0
IDBUFFER
  5
360A
330
0
100
AcDbIdBuffer
  0
IDBUFFER
  5
360B
330
0
100
AcDbIdBuffer
330
325B
330
325C
330
325D
330
325E
330
325F
330
3260
330
3261
330
3262
330
3263
330
3264
330
3604
330
3605
330
3606
330
31EF
330
31F0
330
31F1
330
31F2
330
31F3
330
3243
330
3244
330
3245
330
3246
330
3247
330
3248
330
3249
330
324A
330
324B
330
3256
330
325A
  0
IDBUFFER
  5
360C
330
0
100
AcDbIdBuffer
330
3601
330
3602
330
2FE8
330
2FE9
330
2FEA
330
2FEB
330
2FEC
330
2FED
330
2FEE
330
2FEF
330
2FF0
330
2FF1
330
2FF2
330
2FF3
330
2FF4
330
2FF5
330
2FF6
330
2FF7
330
2FF8
330
2FF9
330
311B
330
311C
330
311D
330
311E
330
311F
330
3120
330
35A6
330
35A7
330
35A8
330
35A9
330
35AA
330
35AB
330
35AC
330
35AD
330
35AE
330
35AF
330
35B0
330
35B1
330
35B2
330
35B3
330
35B4
330
35B5
330
35B6
330
35B7
330
35C6
330
35C7
330
35C8
330
35C9
330
35CA
330
35CB
  0
IDBUFFER
  5
360D
330
0
100
AcDbIdBuffer
  0
IDBUFFER
  5
360E
330
0
100
AcDbIdBuffer
330
326B
330
326C
330
326E
330
326F
330
3270
330
3271
  0
XRECORD
  5
3636
102
{ACAD_REACTORS
330
3635
102
}
330
3635
100
AcDbXrecord
280
     1
102
SHADEPLOT
 70
     0
102
SHADEPLOTRESLEVEL
 70
     2
102
SHADEPLOTCUSTOMDPI
 70
   300
  0
XRECORD
  5
3634
102
{ACAD_REACTORS
330
3633
102
}
330
3633
100
AcDbXrecord
280
     1
102
SHADEPLOT
 70
     0
102
SHADEPLOTRESLEVEL
 70
     2
102
SHADEPLOTCUSTOMDPI
 70
   300
  0
XRECORD
  5
363C
102
{ACAD_REACTORS
330
16CA
102
}
330
16CA
100
AcDbXrecord
280
     1
102
MATERIAL
148
0.0
149
0.0
149
0.0
 93
        0
 94
      127
282
     0
 72
     0
 77
     0
171
     0
175
     0
179
     0
273
     0
  0
XRECORD
  5
16CC
102
{ACAD_REACTORS
330
16CA
102
}
330
16CA
100
AcDbXrecord
280
     1
270
     1
271
     1
  0
XRECORD
  5
16CB
102
{ACAD_REACTORS
330
16CA
102
}
330
16CA
100
AcDbXrecord
280
     1
270
     1
271
     1
  0
XRECORD
  5
16CF
102
{ACAD_REACTORS
330
16CA
102
}
330
16CA
100
AcDbXrecord
280
     1
270
     1
271
     1
  0
XRECORD
  5
16CE
102
{ACAD_REACTORS
330
16CA
102
}
330
16CA
100
AcDbXrecord
280
     1
270
     1
271
     1
  0
XRECORD
  5
16D0
102
{ACAD_REACTORS
330
16CA
102
}
330
16CA
100
AcDbXrecord
280
     1
270
     1
271
     1
  0
XRECORD
  5
16CD
102
{ACAD_REACTORS
330
16CA
102
}
330
16CA
100
AcDbXrecord
280
     1
270
     1
271
     1
  0
XRECORD
  5
363B
102
{ACAD_REACTORS
330
16C2
102
}
330
16C2
100
AcDbXrecord
280
     1
102
MATERIAL
148
0.0
149
0.0
149
0.0
 93
        0
 94
      127
282
     0
 72
     0
 77
     0
171
     0
175
     0
179
     0
273
     0
  0
XRECORD
  5
16C4
102
{ACAD_REACTORS
330
16C2
102
}
330
16C2
100
AcDbXrecord
280
     1
270
     1
271
     1
  0
XRECORD
  5
16C3
102
{ACAD_REACTORS
330
16C2
102
}
330
16C2
100
AcDbXrecord
280
     1
270
     1
271
     1
  0
XRECORD
  5
16C7
102
{ACAD_REACTORS
330
16C2
102
}
330
16C2
100
AcDbXrecord
280
     1
270
     1
271
     1
  0
XRECORD
  5
16C6
102
{ACAD_REACTORS
330
16C2
102
}
330
16C2
100
AcDbXrecord
280
     1
270
     1
271
     1
  0
XRECORD
  5
16C8
102
{ACAD_REACTORS
330
16C2
102
}
330
16C2
100
AcDbXrecord
280
     1
270
     1
271
     1
  0
XRECORD
  5
16C5
102
{ACAD_REACTORS
330
16C2
102
}
330
16C2
100
AcDbXrecord
280
     1
270
     1
271
     1
  0
XRECORD
  5
363D
102
{ACAD_REACTORS
330
16D2
102
}
330
16D2
100
AcDbXrecord
280
     1
102
MATERIAL
148
0.0
149
0.0
149
0.0
 93
        0
 94
      127
282
     0
 72
     0
 77
     0
171
     0
175
     0
179
     0
273
     0
  0
XRECORD
  5
16D4
102
{ACAD_REACTORS
330
16D2
102
}
330
16D2
100
AcDbXrecord
280
     1
270
     1
271
     1
  0
XRECORD
  5
16D3
102
{ACAD_REACTORS
330
16D2
102
}
330
16D2
100
AcDbXrecord
280
     1
270
     1
271
     1
  0
XRECORD
  5
16D7
102
{ACAD_REACTORS
330
16D2
102
}
330
16D2
100
AcDbXrecord
280
     1
270
     1
271
     1
  0
XRECORD
  5
16D6
102
{ACAD_REACTORS
330
16D2
102
}
330
16D2
100
AcDbXrecord
280
     1
270
     1
271
     1
  0
XRECORD
  5
16D8
102
{ACAD_REACTORS
330
16D2
102
}
330
16D2
100
AcDbXrecord
280
     1
270
     1
271
     1
  0
XRECORD
  5
16D5
102
{ACAD_REACTORS
330
16D2
102
}
330
16D2
100
AcDbXrecord
280
     1
270
     1
271
     1
  0
CELLSTYLEMAP
  5
3631
102
{ACAD_REACTORS
330
1924
102
}
330
1924
100
AcDbCellStyleMap
 90
        3
300
CELLSTYLE
  1
TABLEFORMAT_BEGIN
 90
        5
170
     1
 91
        0
 92
    32768
 62
   257
 93
        1
300
CONTENTFORMAT
  1
CONTENTFORMAT_BEGIN
 90
        0
 91
        0
 92
      512
 93
        0
300

 40
0.0
140
1.0
 94
        5
 62
     0
340
150
144
6.0
309
CONTENTFORMAT_END
171
     1
301
MARGIN
  1
CELLMARGIN_BEGIN
 40
1.5
 40
1.5
 40
1.5
 40
1.5
 40
4.5
 40
4.5
309
CELLMARGIN_END
 94
        6
 95
        1
302
GRIDFORMAT
  1
GRIDFORMAT_BEGIN
 90
        0
 91
        1
 62
     0
 92
       -2
340
0
 93
        0
 40
1.125
309
GRIDFORMAT_END
 95
        2
302
GRIDFORMAT
  1
GRIDFORMAT_BEGIN
 90
        0
 91
        1
 62
     0
 92
       -2
340
0
 93
        0
 40
1.125
309
GRIDFORMAT_END
 95
        4
302
GRIDFORMAT
  1
GRIDFORMAT_BEGIN
 90
        0
 91
        1
 62
     0
 92
       -2
340
0
 93
        0
 40
1.125
309
GRIDFORMAT_END
 95
        8
302
GRIDFORMAT
  1
GRIDFORMAT_BEGIN
 90
        0
 91
        1
 62
     0
 92
       -2
340
0
 93
        0
 40
1.125
309
GRIDFORMAT_END
 95
       16
302
GRIDFORMAT
  1
GRIDFORMAT_BEGIN
 90
        0
 91
        1
 62
     0
 92
       -2
340
0
 93
        0
 40
1.125
309
GRIDFORMAT_END
 95
       32
302
GRIDFORMAT
  1
GRIDFORMAT_BEGIN
 90
        0
 91
        1
 62
     0
 92
       -2
340
0
 93
        0
 40
1.125
309
GRIDFORMAT_END
309
TABLEFORMAT_END
  1
CELLSTYLE_BEGIN
 90
        1
 91
        1
300
_TITLE
309
CELLSTYLE_END
300
CELLSTYLE
  1
TABLEFORMAT_BEGIN
 90
        5
170
     1
 91
        0
 92
        0
 62
   257
 93
        1
300
CONTENTFORMAT
  1
CONTENTFORMAT_BEGIN
 90
        0
 91
        0
 92
      512
 93
        0
300

 40
0.0
140
1.0
 94
        5
 62
     0
340
150
144
4.5
309
CONTENTFORMAT_END
171
     1
301
MARGIN
  1
CELLMARGIN_BEGIN
 40
1.5
 40
1.5
 40
1.5
 40
1.5
 40
4.5
 40
4.5
309
CELLMARGIN_END
 94
        6
 95
        1
302
GRIDFORMAT
  1
GRIDFORMAT_BEGIN
 90
        0
 91
        1
 62
     0
 92
       -2
340
0
 93
        0
 40
1.125
309
GRIDFORMAT_END
 95
        2
302
GRIDFORMAT
  1
GRIDFORMAT_BEGIN
 90
        0
 91
        1
 62
     0
 92
       -2
340
0
 93
        0
 40
1.125
309
GRIDFORMAT_END
 95
        4
302
GRIDFORMAT
  1
GRIDFORMAT_BEGIN
 90
        0
 91
        1
 62
     0
 92
       -2
340
0
 93
        0
 40
1.125
309
GRIDFORMAT_END
 95
        8
302
GRIDFORMAT
  1
GRIDFORMAT_BEGIN
 90
        0
 91
        1
 62
     0
 92
       -2
340
0
 93
        0
 40
1.125
309
GRIDFORMAT_END
 95
       16
302
GRIDFORMAT
  1
GRIDFORMAT_BEGIN
 90
        0
 91
        1
 62
     0
 92
       -2
340
0
 93
        0
 40
1.125
309
GRIDFORMAT_END
 95
       32
302
GRIDFORMAT
  1
GRIDFORMAT_BEGIN
 90
        0
 91
        1
 62
     0
 92
       -2
340
0
 93
        0
 40
1.125
309
GRIDFORMAT_END
309
TABLEFORMAT_END
  1
CELLSTYLE_BEGIN
 90
        2
 91
        1
300
_HEADER
309
CELLSTYLE_END
300
CELLSTYLE
  1
TABLEFORMAT_BEGIN
 90
        5
170
     1
 91
        0
 92
        0
 62
   257
 93
        1
300
CONTENTFORMAT
  1
CONTENTFORMAT_BEGIN
 90
        0
 91
        0
 92
      512
 93
        0
300

 40
0.0
140
1.0
 94
        2
 62
     0
340
150
144
4.5
309
CONTENTFORMAT_END
171
     1
301
MARGIN
  1
CELLMARGIN_BEGIN
 40
1.5
 40
1.5
 40
1.5
 40
1.5
 40
4.5
 40
4.5
309
CELLMARGIN_END
 94
        6
 95
        1
302
GRIDFORMAT
  1
GRIDFORMAT_BEGIN
 90
        0
 91
        1
 62
     0
 92
       -2
340
0
 93
        0
 40
1.125
309
GRIDFORMAT_END
 95
        2
302
GRIDFORMAT
  1
GRIDFORMAT_BEGIN
 90
        0
 91
        1
 62
     0
 92
       -2
340
0
 93
        0
 40
1.125
309
GRIDFORMAT_END
 95
        4
302
GRIDFORMAT
  1
GRIDFORMAT_BEGIN
 90
        0
 91
        1
 62
     0
 92
       -2
340
0
 93
        0
 40
1.125
309
GRIDFORMAT_END
 95
        8
302
GRIDFORMAT
  1
GRIDFORMAT_BEGIN
 90
        0
 91
        1
 62
     0
 92
       -2
340
0
 93
        0
 40
1.125
309
GRIDFORMAT_END
 95
       16
302
GRIDFORMAT
  1
GRIDFORMAT_BEGIN
 90
        0
 91
        1
 62
     0
 92
       -2
340
0
 93
        0
 40
1.125
309
GRIDFORMAT_END
 95
       32
302
GRIDFORMAT
  1
GRIDFORMAT_BEGIN
 90
        0
 91
        1
 62
     0
 92
       -2
340
0
 93
        0
 40
1.125
309
GRIDFORMAT_END
309
TABLEFORMAT_END
  1
CELLSTYLE_BEGIN
 90
        3
 91
        2
300
_DATA
309
CELLSTYLE_END
  0
XRECORD
  5
363E
102
{ACAD_REACTORS
330
1924
102
}
330
1924
100
AcDbXrecord
280
     1
102
ACAD_ROUNDTRIP_PRE2007_TABLESTYLE
 90
      512
 91
        0
  1

 92
      512
 93
        0
  2

 94
      512
 95
        0
  3

  0
ENDSEC
  0
EOF
