  0
SECTION
  2
HEADER
  9
$ACADVER
  1
AC1009
  9
$INSBASE
 10
0.0
 20
0.0
 30
0.0
  9
$EXTMIN
 10
-8.5
 20
15.0
 30
0.0
  9
$EXTMAX
 10
308.49999999999989
 20
335.0
 30
0.0
  9
$LIMMIN
 10
0.0
 20
0.0
  9
$LIMMAX
 10
12.0
 20
9.0
  9
$ORTHOMODE
 70
     0
  9
$REGENMODE
 70
     1
  9
$FILLMODE
 70
     1
  9
$QTEXTMODE
 70
     0
  9
$MIRRTEXT
 70
     1
  9
$DRAGMODE
 70
     2
  9
$LTSCALE
 40
1.0
  9
$OSMODE
 70
    37
  9
$ATTMODE
 70
     1
  9
$TEXTSIZE
 40
0.2
  9
$TRACEWID
 40
0.05
  9
$TEXTSTYLE
  7
STANDARD
  9
$CLAYER
  8
POCRTE
  9
$CELTYPE
  6
BYLAYER
  9
$CECOLOR
 62
   256
  9
$DIMSCALE
 40
1.0
  9
$DIMASZ
 40
0.18
  9
$DIMEXO
 40
0.0625
  9
$DIMDLI
 40
0.38
  9
$DIMRND
 40
0.0
  9
$DIMDLE
 40
0.0
  9
$DIMEXE
 40
0.18
  9
$DIMTP
 40
0.0
  9
$DIMTM
 40
0.0
  9
$DIMTXT
 40
0.18
  9
$DIMCEN
 40
0.09
  9
$DIMTSZ
 40
0.0
  9
$DIMTOL
 70
     0
  9
$DIMLIM
 70
     0
  9
$DIMTIH
 70
     1
  9
$DIMTOH
 70
     1
  9
$DIMSE1
 70
     0
  9
$DIMSE2
 70
     0
  9
$DIMTAD
 70
     0
  9
$DIMZIN
 70
     0
  9
$DIMBLK
  1

  9
$DIMASO
 70
     1
  9
$DIMSHO
 70
     1
  9
$DIMPOST
  1

  9
$DIMAPOST
  1

  9
$DIMALT
 70
     0
  9
$DIMALTD
 70
     2
  9
$DIMALTF
 40
25.399999999999999
  9
$DIMLFAC
 40
1.0
  9
$DIMTOFL
 70
     0
  9
$DIMTVP
 40
0.0
  9
$DIMTIX
 70
     0
  9
$DIMSOXD
 70
     0
  9
$DIMSAH
 70
     0
  9
$DIMBLK1
  1

  9
$DIMBLK2
  1

  9
$DIMSTYLE
  2
OSNOVA
  9
$DIMCLRD
 70
     0
  9
$DIMCLRE
 70
     0
  9
$DIMCLRT
 70
     0
  9
$DIMTFAC
 40
1.0
  9
$DIMGAP
 40
0.09
  9
$LUNITS
 70
     2
  9
$LUPREC
 70
     4
  9
$SKETCHINC
 40
0.1
  9
$FILLETRAD
 40
0.0
  9
$AUNITS
 70
     0
  9
$AUPREC
 70
     0
  9
$MENU
  1
acad
  9
$ELEVATION
 40
0.0
  9
$PELEVATION
 40
0.0
  9
$THICKNESS
 40
0.0
  9
$LIMCHECK
 70
     0
  9
$BLIPMODE
 70
     0
  9
$CHAMFERA
 40
0.0
  9
$CHAMFERB
 40
0.0
  9
$SKPOLY
 70
     0
  9
$TDCREATE
 40
2454488.460581365
  9
$TDUPDATE
 40
2454524.7018663189
  9
$TDINDWG
 40
0.097777963
  9
$TDUSRTIMER
 40
0.097777963
  9
$USRTIMER
 70
     1
  9
$ANGBASE
 50
0.0
  9
$ANGDIR
 70
     0
  9
$PDMODE
 70
     0
  9
$PDSIZE
 40
0.0
  9
$PLINEWID
 40
0.0
  9
$COORDS
 70
     2
  9
$SPLFRAME
 70
     0
  9
$SPLINETYPE
 70
     6
  9
$SPLINESEGS
 70
     8
  9
$ATTDIA
 70
     0
  9
$ATTREQ
 70
     1
  9
$HANDLING
 70
  4097
  9
$HANDSEED
  5
755
  9
$SURFTAB1
 70
     6
  9
$SURFTAB2
 70
     6
  9
$SURFTYPE
 70
     6
  9
$SURFU
 70
     6
  9
$SURFV
 70
     6
  9
$UCSNAME
  2

  9
$UCSORG
 10
0.0
 20
0.0
 30
0.0
  9
$UCSXDIR
 10
1.0
 20
0.0
 30
0.0
  9
$UCSYDIR
 10
0.0
 20
1.0
 30
0.0
  9
$PUCSNAME
  2

  9
$PUCSORG
 10
0.0
 20
0.0
 30
0.0
  9
$PUCSXDIR
 10
1.0
 20
0.0
 30
0.0
  9
$PUCSYDIR
 10
0.0
 20
1.0
 30
0.0
  9
$USERI1
 70
     0
  9
$USERI2
 70
     0
  9
$USERI3
 70
     0
  9
$USERI4
 70
     0
  9
$USERI5
 70
     0
  9
$USERR1
 40
0.0
  9
$USERR2
 40
0.0
  9
$USERR3
 40
0.0
  9
$USERR4
 40
0.0
  9
$USERR5
 40
0.0
  9
$WORLDVIEW
 70
     1
  9
$SHADEDGE
 70
     3
  9
$SHADEDIF
 70
    70
  9
$TILEMODE
 70
     1
  9
$MAXACTVP
 70
    16
  9
$PLIMCHECK
 70
     0
  9
$PEXTMIN
 10
1.0000000000000000E+020
 20
1.0000000000000000E+020
 30
1.0000000000000000E+020
  9
$PEXTMAX
 10
-1.0000000000000000E+020
 20
-1.0000000000000000E+020
 30
-1.0000000000000000E+020
  9
$PLIMMIN
 10
0.0
 20
0.0
  9
$PLIMMAX
 10
12.0
 20
9.0
  9
$UNITMODE
 70
     0
  9
$VISRETAIN
 70
     0
  9
$PLINEGEN
 70
     0
  9
$PSLTSCALE
 70
     1
  0
ENDSEC
  0
SECTION
  2
TABLES
  0
TABLE
  2
VPORT
 70
     2
  0
VPORT
  2
*ACTIVE
 70
     0
 10
0.0
 20
0.0
 11
1.0
 21
1.0
 12
138.10347391590611
 22
177.7918679299955
 13
0.0
 23
0.0
 14
0.5
 24
0.5
 15
10.0
 25
10.0
 16
0.0
 26
0.0
 36
1.0
 17
0.0
 27
0.0
 37
0.0
 40
350.53370643490479
 41
1.625615763546798
 42
50.0
 43
0.0
 44
0.0
 50
0.0
 51
0.0
 71
     0
 72
   100
 73
     1
 74
     1
 75
     1
 76
     1
 77
     0
 78
     2
  0
ENDTAB
  0
TABLE
  2
LTYPE
 70
    25
  0
LTYPE
  2
CONTINUOUS
 70
     0
  3
Solid line
 72
    65
 73
     0
 40
0.0
  0
LTYPE
  2
BORDER
 70
     0
  3
__ __ . __ __ . __ __ . __ __ . __ __ . __ __ .
 72
    65
 73
     6
 40
1.75
 49
0.5
 49
-0.25
 49
0.5
 49
-0.25
 49
0.0
 49
-0.25
  0
LTYPE
  2
BORDER2
 70
     0
  3
__.__.__.__.__.__.__.__.__.__.__.__.__.__.__.__
 72
    65
 73
     6
 40
0.875
 49
0.25
 49
-0.125
 49
0.25
 49
-0.125
 49
0.0
 49
-0.125
  0
LTYPE
  2
BORDERX2
 70
     0
  3
____  ____  .  ____  ____  .  ____  ____  .  __
 72
    65
 73
     6
 40
3.5
 49
1.0
 49
-0.5
 49
1.0
 49
-0.5
 49
0.0
 49
-0.5
  0
LTYPE
  2
CENTER
 70
     0
  3
____ _ ____ _ ____ _ ____ _ ____ _ ____ _ ____ 
 72
    65
 73
     4
 40
2.0
 49
1.25
 49
-0.25
 49
0.25
 49
-0.25
  0
LTYPE
  2
CENTER2
 70
     0
  3
___ _ ___ _ ___ _ ___ _ ___ _ ___ _ ___ _ ___ _
 72
    65
 73
     4
 40
1.125
 49
0.75
 49
-0.125
 49
0.125
 49
-0.125
  0
LTYPE
  2
CENTERX2
 70
     0
  3
________  __  ________  __  ________  __  _____
 72
    65
 73
     4
 40
4.0
 49
2.5
 49
-0.5
 49
0.5
 49
-0.5
  0
LTYPE
  2
DASHDOT
 70
     0
  3
__ . __ . __ . __ . __ . __ . __ . __ . __ . __
 72
    65
 73
     4
 40
1.0
 49
0.5
 49
-0.25
 49
0.0
 49
-0.25
  0
LTYPE
  2
DASHDOT2
 70
     0
  3
_._._._._._._._._._._._._._._._._._._._._._._._
 72
    65
 73
     4
 40
0.5
 49
0.25
 49
-0.125
 49
0.0
 49
-0.125
  0
LTYPE
  2
DASHDOTX2
 70
     0
  3
____  .  ____  .  ____  .  ____  .  ____  .  __
 72
    65
 73
     4
 40
2.0
 49
1.0
 49
-0.5
 49
0.0
 49
-0.5
  0
LTYPE
  2
DASHED
 70
     0
  3
__ __ __ __ __ __ __ __ __ __ __ __ __ __ __ __
 72
    65
 73
     2
 40
0.75
 49
0.5
 49
-0.25
  0
LTYPE
  2
DASHED2
 70
     0
  3
_ _ _ _ _ _ _ _ _ _ _ _ _ _ _ _ _ _ _ _ _ _ _ _
 72
    65
 73
     2
 40
0.375
 49
0.25
 49
-0.125
  0
LTYPE
  2
DASHEDX2
 70
     0
  3
____  ____  ____  ____  ____  ____  ____  ____ 
 72
    65
 73
     2
 40
1.5
 49
1.0
 49
-0.5
  0
LTYPE
  2
DIVIDE
 70
     0
  3
____ . . ____ . . ____ . . ____ . . ____ . . __
 72
    65
 73
     6
 40
1.25
 49
0.5
 49
-0.25
 49
0.0
 49
-0.25
 49
0.0
 49
-0.25
  0
LTYPE
  2
DIVIDE2
 70
     0
  3
__..__..__..__..__..__..__..__..__..__..__..__.
 72
    65
 73
     6
 40
0.625
 49
0.25
 49
-0.125
 49
0.0
 49
-0.125
 49
0.0
 49
-0.125
  0
LTYPE
  2
DIVIDEX2
 70
     0
  3
________  .  .  ________  .  .  ________  .  . 
 72
    65
 73
     6
 40
2.5
 49
1.0
 49
-0.5
 49
0.0
 49
-0.5
 49
0.0
 49
-0.5
  0
LTYPE
  2
DOT
 70
     0
  3
. . . . . . . . . . . . . . . . . . . . . . . .
 72
    65
 73
     2
 40
0.25
 49
0.0
 49
-0.25
  0
LTYPE
  2
DOT2
 70
     0
  3
...............................................
 72
    65
 73
     2
 40
0.125
 49
0.0
 49
-0.125
  0
LTYPE
  2
DOTX2
 70
     0
  3
.  .  .  .  .  .  .  .  .  .  .  .  .  .  .  . 
 72
    65
 73
     2
 40
0.5
 49
0.0
 49
-0.5
  0
LTYPE
  2
HIDDEN
 70
     0
  3
__ __ __ __ __ __ __ __ __ __ __ __ __ __ __ __
 72
    65
 73
     2
 40
0.375
 49
0.25
 49
-0.125
  0
LTYPE
  2
HIDDEN2
 70
     0
  3
_ _ _ _ _ _ _ _ _ _ _ _ _ _ _ _ _ _ _ _ _ _ _ _
 72
    65
 73
     2
 40
0.1875
 49
0.125
 49
-0.0625
  0
LTYPE
  2
HIDDENX2
 70
     0
  3
____ ____ ____ ____ ____ ____ ____ ____ ____ __
 72
    65
 73
     2
 40
0.75
 49
0.5
 49
-0.25
  0
LTYPE
  2
PHANTOM
 70
     0
  3
______  __  __  ______  __  __  ______  __  __ 
 72
    65
 73
     6
 40
2.5
 49
1.25
 49
-0.25
 49
0.25
 49
-0.25
 49
0.25
 49
-0.25
  0
LTYPE
  2
PHANTOM2
 70
     0
  3
___ _ _ ___ _ _ ___ _ _ ___ _ _ ___ _ _ ___ _ _
 72
    65
 73
     6
 40
1.25
 49
0.625
 49
-0.125
 49
0.125
 49
-0.125
 49
0.125
 49
-0.125
  0
LTYPE
  2
PHANTOMX2
 70
     0
  3
____________    ____    ____    ____________   
 72
    65
 73
     6
 40
5.0
 49
2.5
 49
-0.5
 49
0.5
 49
-0.5
 49
0.5
 49
-0.5
  0
ENDTAB
  0
TABLE
  2
LAYER
 70
    13
  0
LAYER
  2
0
 70
     0
 62
     7
  6
CONTINUOUS
  0
LAYER
  2
POCRTE
 70
     0
 62
     2
  6
DOT
  0
LAYER
  2
TEXTP
 70
     0
 62
     7
  6
CONTINUOUS
  0
LAYER
  2
TEXT
 70
     0
 62
     7
  6
CONTINUOUS
  0
LAYER
  2
CLINE
 70
     0
 62
    -1
  6
CENTER
  0
LAYER
  2
OSNOVA
 70
     0
 62
     3
  6
CONTINUOUS
  0
LAYER
  2
SPRED
 70
     0
 62
     3
  6
CONTINUOUS
  0
LAYER
  2
ZADAJ
 70
     0
 62
     3
  6
DASHED
  0
LAYER
  2
HATCH
 70
     0
 62
     7
  6
CONTINUOUS
  0
LAYER
  2
ASHADE
 70
     0
 62
     7
  6
CONTINUOUS
  0
LAYER
  2
1
 70
     0
 62
     1
  6
CONTINUOUS
  0
LAYER
  2
2
 70
     0
 62
     4
  6
CONTINUOUS
  0
LAYER
  2
3
 70
     0
 62
     6
  6
CONTINUOUS
  0
ENDTAB
  0
TABLE
  2
STYLE
 70
     5
  0
STYLE
  2
STANDARD
 70
     0
 40
0.0
 41
1.0
 50
0.0
 71
     0
 42
0.2
  3
txt
  4

  0
STYLE
  2
ROMAND
 70
     0
 40
0.0
 41
1.0
 50
0.0
 71
     0
 42
0.2
  3
romand
  4

  0
STYLE
  2
ADESK1
 70
     0
 40
0.0
 41
1.0
 50
0.0
 71
     0
 42
4.0
  3
romans
  4

  0
STYLE
  2
TECHNICLIGHT
 70
     0
 40
0.0
 41
1.0
 50
0.0
 71
     0
 42
0.2
  3
tel_____.pfb
  4

  0
STYLE
  2
ASHADE
 70
     0
 40
0.2
 41
1.0
 50
0.0
 71
     0
 42
0.2
  3
simplex
  4

  0
ENDTAB
  0
TABLE
  2
VIEW
 70
     0
  0
ENDTAB
  0
TABLE
  2
UCS
 70
     0
  0
ENDTAB
  0
TABLE
  2
APPID
 70
     2
  0
APPID
  2
ACAD
 70
     0
  0
APPID
  2
AVE_RENDER
 70
     0
  0
ENDTAB
  0
TABLE
  2
DIMSTYLE
 70
     1
  0
DIMSTYLE
  2
OSNOVA
 70
     0
  3

  4

  5

  6

  7

 40
1.0
 41
0.18
 42
0.0625
 43
0.38
 44
0.18
 45
0.0
 46
0.0
 47
0.0
 48
0.0
140
0.18
141
0.09
142
0.0
143
25.399999999999999
144
1.0
145
0.0
146
1.0
147
0.09
 71
     0
 72
     0
 73
     1
 74
     1
 75
     0
 76
     0
 77
     0
 78
     0
170
     0
171
     2
172
     0
173
     0
174
     0
175
     0
176
     0
177
     0
178
     0
  0
ENDTAB
  0
ENDSEC
  0
SECTION
  2
BLOCKS
  0
BLOCK
  8
0
  2
$MODEL_SPACE
 70
     0
 10
0.0
 20
0.0
 30
0.0
  3
$MODEL_SPACE
  1

  0
ENDBLK
  5
56
  8
0
  0
BLOCK
 67
     1
  8
0
  2
$PAPER_SPACE
 70
     0
 10
0.0
 20
0.0
 30
0.0
  3
$PAPER_SPACE
  1

  0
ENDBLK
  5
54
 67
     1
  8
0
  0
BLOCK
  8
0
  2
HAPD2
 70
     0
 10
0.0
 20
0.0
 30
0.0
  3
HAPD2
  1

  0
INSERT
  5
58
  8
ASHADE
 62
     1
  2
AVE_RENDER
 10
500.0
 20
500.0
 30
0.0
1001
AVE_RENDER
1002
{
1070
     2
1000
Pref
1070
    30
1070
    20
1070
     0
1070
     0
1000

1070
    10
1070
     0
1070
    30
1040
1.0
1070
     1
1040
0.3
1040
0.7
1040
0.0
1040
10.0
1010
-1.0
1020
-1.0
1030
-1.0
1040
0.3
1070
    49
1002
}
  0
INSERT
  5
59
  8
ASHADE
 62
     3
  2
AVE_RENDER
 10
500.0
 20
500.0
 30
0.0
1001
AVE_RENDER
1002
{
1070
     0
1000
Full Opt
1070
     0
1070
     1
1070
     1
1070
     1
1070
     0
1070
     0
1070
     0
1070
     1
1070
     1
1040
0.0001
1040
0.0001
1002
}
  0
INSERT
  5
5A
  8
ASHADE
 62
     4
  2
AVE_RENDER
 10
500.0
 20
500.0
 30
0.0
1001
AVE_RENDER
1002
{
1070
     0
1000
Quick Opt
1070
     0
1070
     1
1070
     1
1070
     1
1070
     0
1070
     0
1070
     1
1002
}
  0
POLYLINE
  5
5B
  8
POCRTE
 66
     1
 10
0.0
 20
0.0
 30
0.0
 70
     1
  0
VERTEX
  5
5B7
  8
POCRTE
 10
-469.24999999999989
 20
-405.25
 30
0.0
  0
VERTEX
  5
5B8
  8
POCRTE
 10
-394.24999999999989
 20
-405.25
 30
0.0
  0
VERTEX
  5
5B9
  8
POCRTE
 10
-394.24999999999989
 20
-330.25
 30
0.0
  0
VERTEX
  5
5BA
  8
POCRTE
 10
-469.24999999999989
 20
-330.25
 30
0.0
  0
SEQEND
  5
5BB
  8
POCRTE
  0
CIRCLE
  5
61
  8
POCRTE
 10
-465.74999999999989
 20
-402.74999999999989
 30
0.0
 40
1.25
  0
CIRCLE
  5
62
  8
POCRTE
 10
-465.74999999999989
 20
-332.74999999999977
 30
0.0
 40
1.25
  0
CIRCLE
  5
63
  8
POCRTE
 10
-397.75
 20
-402.74999999999989
 30
0.0
 40
1.25
  0
CIRCLE
  5
64
  8
POCRTE
 10
-397.75
 20
-332.74999999999977
 30
0.0
 40
1.25
  0
POLYLINE
  5
65
  8
POCRTE
 66
     1
 10
0.0
 20
0.0
 30
0.0
 70
     1
  0
VERTEX
  5
5BC
  8
POCRTE
 10
-469.24999999999989
 20
-320.25
 30
0.0
  0
VERTEX
  5
5BD
  8
POCRTE
 10
-394.24999999999989
 20
-320.25
 30
0.0
  0
VERTEX
  5
5BE
  8
POCRTE
 10
-394.24999999999989
 20
-245.25
 30
0.0
  0
VERTEX
  5
5BF
  8
POCRTE
 10
-469.24999999999989
 20
-245.25
 30
0.0
  0
SEQEND
  5
5C0
  8
POCRTE
  0
CIRCLE
  5
6B
  8
POCRTE
 10
-465.74999999999989
 20
-317.75
 30
0.0
 40
1.25
  0
CIRCLE
  5
6C
  8
POCRTE
 10
-465.74999999999989
 20
-247.75
 30
0.0
 40
1.25
  0
CIRCLE
  5
6D
  8
POCRTE
 10
-397.75
 20
-317.75
 30
0.0
 40
1.25
  0
CIRCLE
  5
6E
  8
POCRTE
 10
-397.75
 20
-247.75
 30
0.0
 40
1.25
  0
POLYLINE
  5
6F
  8
POCRTE
 66
     1
 10
0.0
 20
0.0
 30
0.0
 70
     1
  0
VERTEX
  5
5C1
  8
POCRTE
 10
-384.25
 20
-405.25
 30
0.0
  0
VERTEX
  5
5C2
  8
POCRTE
 10
-309.25
 20
-405.25
 30
0.0
  0
VERTEX
  5
5C3
  8
POCRTE
 10
-309.25
 20
-330.25
 30
0.0
  0
VERTEX
  5
5C4
  8
POCRTE
 10
-384.25
 20
-330.25
 30
0.0
  0
SEQEND
  5
5C5
  8
POCRTE
  0
CIRCLE
  5
75
  8
POCRTE
 10
-380.75
 20
-402.74999999999989
 30
0.0
 40
1.25
  0
CIRCLE
  5
76
  8
POCRTE
 10
-380.75
 20
-332.74999999999977
 30
0.0
 40
1.25
  0
CIRCLE
  5
77
  8
POCRTE
 10
-312.74999999999989
 20
-402.74999999999989
 30
0.0
 40
1.25
  0
CIRCLE
  5
78
  8
POCRTE
 10
-312.74999999999989
 20
-332.74999999999977
 30
0.0
 40
1.25
  0
POLYLINE
  5
79
  8
POCRTE
 66
     1
 10
0.0
 20
0.0
 30
0.0
 70
     1
  0
VERTEX
  5
5C6
  8
POCRTE
 10
-384.25
 20
-320.25
 30
0.0
  0
VERTEX
  5
5C7
  8
POCRTE
 10
-309.25
 20
-320.25
 30
0.0
  0
VERTEX
  5
5C8
  8
POCRTE
 10
-309.25
 20
-245.25
 30
0.0
  0
VERTEX
  5
5C9
  8
POCRTE
 10
-384.25
 20
-245.25
 30
0.0
  0
SEQEND
  5
5CA
  8
POCRTE
  0
CIRCLE
  5
7F
  8
POCRTE
 10
-380.75
 20
-317.75
 30
0.0
 40
1.25
  0
CIRCLE
  5
80
  8
POCRTE
 10
-380.75
 20
-247.75
 30
0.0
 40
1.25
  0
CIRCLE
  5
81
  8
POCRTE
 10
-312.74999999999989
 20
-317.75
 30
0.0
 40
1.25
  0
CIRCLE
  5
82
  8
POCRTE
 10
-312.74999999999989
 20
-247.75
 30
0.0
 40
1.25
  0
POLYLINE
  5
83
  8
POCRTE
 66
     1
 10
0.0
 20
0.0
 30
0.0
 70
     1
  0
VERTEX
  5
5CB
  8
POCRTE
 10
-299.25
 20
-405.25
 30
0.0
  0
VERTEX
  5
5CC
  8
POCRTE
 10
-224.25
 20
-405.25
 30
0.0
  0
VERTEX
  5
5CD
  8
POCRTE
 10
-224.25
 20
-330.25
 30
0.0
  0
VERTEX
  5
5CE
  8
POCRTE
 10
-299.25
 20
-330.25
 30
0.0
  0
SEQEND
  5
5CF
  8
POCRTE
  0
CIRCLE
  5
89
  8
POCRTE
 10
-295.74999999999989
 20
-402.74999999999989
 30
0.0
 40
1.25
  0
CIRCLE
  5
8A
  8
POCRTE
 10
-295.74999999999989
 20
-332.74999999999977
 30
0.0
 40
1.25
  0
CIRCLE
  5
8B
  8
POCRTE
 10
-227.7499999999998
 20
-402.74999999999989
 30
0.0
 40
1.25
  0
CIRCLE
  5
8C
  8
POCRTE
 10
-227.7499999999998
 20
-332.74999999999977
 30
0.0
 40
1.25
  0
POLYLINE
  5
8D
  8
POCRTE
 66
     1
 10
0.0
 20
0.0
 30
0.0
 70
     1
  0
VERTEX
  5
5D0
  8
POCRTE
 10
-299.25
 20
-320.25
 30
0.0
  0
VERTEX
  5
5D1
  8
POCRTE
 10
-224.25
 20
-320.25
 30
0.0
  0
VERTEX
  5
5D2
  8
POCRTE
 10
-224.25
 20
-245.25
 30
0.0
  0
VERTEX
  5
5D3
  8
POCRTE
 10
-299.25
 20
-245.25
 30
0.0
  0
SEQEND
  5
5D4
  8
POCRTE
  0
CIRCLE
  5
93
  8
POCRTE
 10
-295.74999999999989
 20
-317.75
 30
0.0
 40
1.25
  0
CIRCLE
  5
94
  8
POCRTE
 10
-295.74999999999989
 20
-247.75
 30
0.0
 40
1.25
  0
CIRCLE
  5
95
  8
POCRTE
 10
-227.7499999999998
 20
-317.75
 30
0.0
 40
1.25
  0
CIRCLE
  5
96
  8
POCRTE
 10
-227.7499999999998
 20
-247.75
 30
0.0
 40
1.25
  0
LINE
  5
97
  8
OSNOVA
 10
-463.81350832689623
 20
-248.24999999999989
 30
0.0
 11
-399.68649167310372
 21
-248.24999999999989
 31
0.0
  0
LINE
  5
98
  8
OSNOVA
 10
-463.81350832689623
 20
-317.24999999999989
 30
0.0
 11
-399.68649167310372
 21
-317.24999999999989
 31
0.0
  0
LINE
  5
99
  8
OSNOVA
 10
-468.75
 20
-249.7499999999998
 30
0.0
 11
-468.75
 21
-315.74999999999977
 31
0.0
  0
LINE
  5
9A
  8
OSNOVA
 10
-468.75
 20
-315.74999999999977
 30
0.0
 11
-465.74999999999989
 21
-315.74999999999977
 31
0.0
  0
ARC
  5
9B
  8
OSNOVA
 10
-465.74999999999989
 20
-317.75
 30
0.0
 40
2.0
 50
14.477512185929861
 51
90.0
  0
ARC
  5
9C
  8
OSNOVA
 10
-465.74999999999989
 20
-247.75
 30
0.0
 40
2.0
 50
270.0
 51
345.52248781406962
  0
LINE
  5
9D
  8
OSNOVA
 10
-468.75
 20
-249.7499999999998
 30
0.0
 11
-465.74999999999989
 21
-249.7499999999998
 31
0.0
  0
LINE
  5
9E
  8
OSNOVA
 10
-394.74999999999977
 20
-249.7499999999998
 30
0.0
 11
-394.74999999999977
 21
-315.74999999999977
 31
0.0
  0
ARC
  5
9F
  8
OSNOVA
 10
-397.75
 20
-317.75
 30
0.0
 40
2.0
 50
90.0
 51
165.5224878140701
  0
LINE
  5
A0
  8
OSNOVA
 10
-397.75
 20
-315.74999999999977
 30
0.0
 11
-394.74999999999977
 21
-315.74999999999977
 31
0.0
  0
ARC
  5
A1
  8
OSNOVA
 10
-397.75
 20
-247.75
 30
0.0
 40
2.0
 50
194.4775121859301
 51
270.0
  0
LINE
  5
A2
  8
OSNOVA
 10
-397.75
 20
-249.7499999999998
 30
0.0
 11
-394.74999999999977
 21
-249.7499999999998
 31
0.0
  0
LINE
  5
A3
  8
OSNOVA
 10
-378.81350832689623
 20
-333.25
 30
0.0
 11
-314.6864916731036
 21
-333.25
 31
0.0
  0
LINE
  5
A4
  8
OSNOVA
 10
-378.81350832689623
 20
-402.24999999999989
 30
0.0
 11
-314.6864916731036
 21
-402.24999999999989
 31
0.0
  0
LINE
  5
A5
  8
OSNOVA
 10
-383.75
 20
-334.74999999999977
 30
0.0
 11
-383.75
 21
-400.75
 31
0.0
  0
LINE
  5
A6
  8
OSNOVA
 10
-383.75
 20
-400.75
 30
0.0
 11
-380.75
 21
-400.75
 31
0.0
  0
ARC
  5
A7
  8
OSNOVA
 10
-380.75
 20
-402.74999999999989
 30
0.0
 40
2.0
 50
14.477512185929861
 51
90.0
  0
ARC
  5
A8
  8
OSNOVA
 10
-380.75
 20
-332.74999999999977
 30
0.0
 40
2.0
 50
270.0
 51
345.52248781406962
  0
LINE
  5
A9
  8
OSNOVA
 10
-383.75
 20
-334.74999999999977
 30
0.0
 11
-380.75
 21
-334.74999999999977
 31
0.0
  0
LINE
  5
AA
  8
OSNOVA
 10
-309.75
 20
-334.74999999999977
 30
0.0
 11
-309.75
 21
-400.75
 31
0.0
  0
ARC
  5
AB
  8
OSNOVA
 10
-312.74999999999989
 20
-402.74999999999989
 30
0.0
 40
2.0
 50
90.0
 51
165.5224878140701
  0
LINE
  5
AC
  8
OSNOVA
 10
-312.74999999999989
 20
-400.75
 30
0.0
 11
-309.75
 21
-400.75
 31
0.0
  0
ARC
  5
AD
  8
OSNOVA
 10
-312.74999999999989
 20
-332.74999999999977
 30
0.0
 40
2.0
 50
194.4775121859301
 51
270.0
  0
LINE
  5
AE
  8
OSNOVA
 10
-312.74999999999989
 20
-334.74999999999977
 30
0.0
 11
-309.75
 21
-334.74999999999977
 31
0.0
  0
LINE
  5
AF
  8
OSNOVA
 10
-378.81350832689623
 20
-248.24999999999989
 30
0.0
 11
-314.6864916731036
 21
-248.24999999999989
 31
0.0
  0
LINE
  5
B0
  8
OSNOVA
 10
-378.81350832689623
 20
-317.24999999999989
 30
0.0
 11
-314.6864916731036
 21
-317.24999999999989
 31
0.0
  0
LINE
  5
B1
  8
OSNOVA
 10
-383.75
 20
-249.7499999999998
 30
0.0
 11
-383.75
 21
-315.74999999999977
 31
0.0
  0
LINE
  5
B2
  8
OSNOVA
 10
-383.75
 20
-315.74999999999977
 30
0.0
 11
-380.75
 21
-315.74999999999977
 31
0.0
  0
ARC
  5
B3
  8
OSNOVA
 10
-380.75
 20
-317.75
 30
0.0
 40
2.0
 50
14.477512185929861
 51
90.0
  0
ARC
  5
B4
  8
OSNOVA
 10
-380.75
 20
-247.75
 30
0.0
 40
2.0
 50
270.0
 51
345.52248781406962
  0
LINE
  5
B5
  8
OSNOVA
 10
-383.75
 20
-249.7499999999998
 30
0.0
 11
-380.75
 21
-249.7499999999998
 31
0.0
  0
LINE
  5
B6
  8
OSNOVA
 10
-309.75
 20
-249.7499999999998
 30
0.0
 11
-309.75
 21
-315.74999999999977
 31
0.0
  0
ARC
  5
B7
  8
OSNOVA
 10
-312.74999999999989
 20
-317.75
 30
0.0
 40
2.0
 50
90.0
 51
165.5224878140701
  0
LINE
  5
B8
  8
OSNOVA
 10
-312.74999999999989
 20
-315.74999999999977
 30
0.0
 11
-309.75
 21
-315.74999999999977
 31
0.0
  0
ARC
  5
B9
  8
OSNOVA
 10
-312.74999999999989
 20
-247.75
 30
0.0
 40
2.0
 50
194.4775121859301
 51
270.0
  0
LINE
  5
BA
  8
OSNOVA
 10
-312.74999999999989
 20
-249.7499999999998
 30
0.0
 11
-309.75
 21
-249.7499999999998
 31
0.0
  0
LINE
  5
BB
  8
OSNOVA
 10
-293.81350832689611
 20
-333.25
 30
0.0
 11
-229.6864916731036
 21
-333.25
 31
0.0
  0
LINE
  5
BC
  8
OSNOVA
 10
-293.81350832689611
 20
-402.24999999999989
 30
0.0
 11
-229.6864916731036
 21
-402.24999999999989
 31
0.0
  0
LINE
  5
BD
  8
OSNOVA
 10
-298.74999999999977
 20
-334.74999999999977
 30
0.0
 11
-298.74999999999977
 21
-400.75
 31
0.0
  0
LINE
  5
BE
  8
OSNOVA
 10
-298.74999999999977
 20
-400.75
 30
0.0
 11
-295.74999999999989
 21
-400.75
 31
0.0
  0
ARC
  5
BF
  8
OSNOVA
 10
-295.74999999999989
 20
-402.74999999999989
 30
0.0
 40
2.0
 50
14.477512185929861
 51
90.0
  0
ARC
  5
C0
  8
OSNOVA
 10
-295.74999999999989
 20
-332.74999999999977
 30
0.0
 40
2.0
 50
270.0
 51
345.52248781406962
  0
LINE
  5
C1
  8
OSNOVA
 10
-298.74999999999977
 20
-334.74999999999977
 30
0.0
 11
-295.74999999999989
 21
-334.74999999999977
 31
0.0
  0
LINE
  5
C2
  8
OSNOVA
 10
-224.7499999999998
 20
-334.74999999999977
 30
0.0
 11
-224.7499999999998
 21
-400.75
 31
0.0
  0
ARC
  5
C3
  8
OSNOVA
 10
-227.7499999999998
 20
-402.74999999999989
 30
0.0
 40
2.0
 50
90.0
 51
165.5224878140701
  0
LINE
  5
C4
  8
OSNOVA
 10
-227.7499999999998
 20
-400.75
 30
0.0
 11
-224.7499999999998
 21
-400.75
 31
0.0
  0
ARC
  5
C5
  8
OSNOVA
 10
-227.7499999999998
 20
-332.74999999999977
 30
0.0
 40
2.0
 50
194.4775121859301
 51
270.0
  0
LINE
  5
C6
  8
OSNOVA
 10
-227.7499999999998
 20
-334.74999999999977
 30
0.0
 11
-224.7499999999998
 21
-334.74999999999977
 31
0.0
  0
LINE
  5
C7
  8
OSNOVA
 10
-293.81350832689611
 20
-248.24999999999989
 30
0.0
 11
-229.6864916731036
 21
-248.24999999999989
 31
0.0
  0
LINE
  5
C8
  8
OSNOVA
 10
-293.81350832689611
 20
-317.24999999999989
 30
0.0
 11
-229.6864916731036
 21
-317.24999999999989
 31
0.0
  0
LINE
  5
C9
  8
OSNOVA
 10
-298.74999999999977
 20
-249.7499999999998
 30
0.0
 11
-298.74999999999977
 21
-315.74999999999977
 31
0.0
  0
LINE
  5
CA
  8
OSNOVA
 10
-298.74999999999977
 20
-315.74999999999977
 30
0.0
 11
-295.74999999999989
 21
-315.74999999999977
 31
0.0
  0
ARC
  5
CB
  8
OSNOVA
 10
-295.74999999999989
 20
-317.75
 30
0.0
 40
2.0
 50
14.477512185929861
 51
90.0
  0
ARC
  5
CC
  8
OSNOVA
 10
-295.74999999999989
 20
-247.75
 30
0.0
 40
2.0
 50
270.0
 51
345.52248781406962
  0
LINE
  5
CD
  8
OSNOVA
 10
-298.74999999999977
 20
-249.7499999999998
 30
0.0
 11
-295.74999999999989
 21
-249.7499999999998
 31
0.0
  0
LINE
  5
CE
  8
OSNOVA
 10
-224.7499999999998
 20
-249.7499999999998
 30
0.0
 11
-224.7499999999998
 21
-315.74999999999977
 31
0.0
  0
ARC
  5
CF
  8
OSNOVA
 10
-227.7499999999998
 20
-317.75
 30
0.0
 40
2.0
 50
90.0
 51
165.5224878140701
  0
LINE
  5
D0
  8
OSNOVA
 10
-227.7499999999998
 20
-315.74999999999977
 30
0.0
 11
-224.7499999999998
 21
-315.74999999999977
 31
0.0
  0
ARC
  5
D1
  8
OSNOVA
 10
-227.7499999999998
 20
-247.75
 30
0.0
 40
2.0
 50
194.4775121859301
 51
270.0
  0
LINE
  5
D2
  8
OSNOVA
 10
-227.7499999999998
 20
-249.7499999999998
 30
0.0
 11
-224.7499999999998
 21
-249.7499999999998
 31
0.0
  0
CIRCLE
  5
D3
  8
OSNOVA
 10
-365.74999999999977
 20
-471.75
 30
0.0
 40
3.25
  0
CIRCLE
  5
D4
  8
OSNOVA
 10
-346.74999999999977
 20
-480.25
 30
0.0
 40
3.25
  0
CIRCLE
  5
D5
  8
OSNOVA
 10
-327.74999999999977
 20
-471.75
 30
0.0
 40
3.25
  0
CIRCLE
  5
D6
  8
OSNOVA
 10
-365.74999999999977
 20
-461.74999999999989
 30
0.0
 40
3.25
  0
CIRCLE
  5
D7
  8
OSNOVA
 10
-346.74999999999977
 20
-470.24999999999989
 30
0.0
 40
3.25
  0
CIRCLE
  5
D8
  8
OSNOVA
 10
-327.74999999999977
 20
-461.74999999999989
 30
0.0
 40
3.25
  0
CIRCLE
  5
D9
  8
OSNOVA
 10
-365.74999999999977
 20
-451.74999999999989
 30
0.0
 40
3.25
  0
CIRCLE
  5
DA
  8
OSNOVA
 10
-346.74999999999977
 20
-460.25
 30
0.0
 40
3.25
  0
CIRCLE
  5
DB
  8
OSNOVA
 10
-327.74999999999977
 20
-451.74999999999989
 30
0.0
 40
3.25
  0
LINE
  5
DC
  8
POCRTE
 10
-489.25
 20
-430.25
 30
0.0
 11
-204.24999999999989
 21
-430.25
 31
0.0
  0
LINE
  5
DD
  8
POCRTE
 10
-489.25
 20
-330.25
 30
0.0
 11
-204.24999999999989
 21
-330.25
 31
0.0
  0
CIRCLE
  5
DE
  8
OSNOVA
 10
-479.25
 20
-340.24999999999989
 30
0.0
 40
3.0
  0
CIRCLE
  5
DF
  8
OSNOVA
 10
-479.25
 20
-420.24999999999989
 30
0.0
 40
3.0
  0
CIRCLE
  5
E0
  8
OSNOVA
 10
-214.25
 20
-340.24999999999989
 30
0.0
 40
3.0
  0
CIRCLE
  5
E1
  8
OSNOVA
 10
-214.25
 20
-420.24999999999989
 30
0.0
 40
3.0
  0
LINE
  5
E2
  8
POCRTE
 10
-489.25
 20
-320.25
 30
0.0
 11
-204.24999999999989
 21
-320.25
 31
0.0
  0
LINE
  5
E3
  8
POCRTE
 10
-489.25
 20
-220.25
 30
0.0
 11
-204.24999999999989
 21
-220.25
 31
0.0
  0
CIRCLE
  5
E4
  8
OSNOVA
 10
-479.25
 20
-230.25
 30
0.0
 40
3.0
  0
CIRCLE
  5
E5
  8
OSNOVA
 10
-479.25
 20
-310.25
 30
0.0
 40
3.0
  0
CIRCLE
  5
E6
  8
OSNOVA
 10
-214.25
 20
-230.25
 30
0.0
 40
3.0
  0
CIRCLE
  5
E7
  8
OSNOVA
 10
-214.25
 20
-310.25
 30
0.0
 40
3.0
  0
POINT
  5
E8
  8
1
 10
-479.25
 20
-420.24999999999989
 30
0.0
  0
POINT
  5
E9
  8
1
 10
-479.25
 20
-340.24999999999989
 30
0.0
  0
POINT
  5
EA
  8
1
 10
-214.25
 20
-340.24999999999989
 30
0.0
  0
POINT
  5
EB
  8
1
 10
-214.25
 20
-420.24999999999989
 30
0.0
  0
POINT
  5
EC
  8
1
 10
-365.74999999999977
 20
-471.75
 30
0.0
  0
POINT
  5
ED
  8
1
 10
-346.74999999999977
 20
-480.25
 30
0.0
  0
POINT
  5
EE
  8
1
 10
-327.74999999999977
 20
-471.75
 30
0.0
  0
POINT
  5
EF
  8
1
 10
-465.74999999999989
 20
-402.74999999999989
 30
0.0
  0
POINT
  5
F0
  8
1
 10
-465.74999999999989
 20
-332.74999999999977
 30
0.0
  0
POINT
  5
F1
  8
1
 10
-397.75
 20
-332.74999999999977
 30
0.0
  0
POINT
  5
F2
  8
1
 10
-397.75
 20
-402.74999999999989
 30
0.0
  0
POINT
  5
F3
  8
1
 10
-346.74999999999977
 20
-470.24999999999989
 30
0.0
  0
POINT
  5
F4
  8
1
 10
-365.74999999999977
 20
-461.74999999999989
 30
0.0
  0
POINT
  5
F5
  8
1
 10
-327.74999999999977
 20
-461.74999999999989
 30
0.0
  0
POINT
  5
F6
  8
1
 10
-365.74999999999977
 20
-451.74999999999989
 30
0.0
  0
POINT
  5
F7
  8
1
 10
-346.74999999999977
 20
-460.24999999999989
 30
0.0
  0
POINT
  5
F8
  8
1
 10
-327.74999999999977
 20
-451.74999999999989
 30
0.0
  0
POINT
  5
F9
  8
1
 10
-465.74999999999989
 20
-317.75
 30
0.0
  0
POINT
  5
FA
  8
1
 10
-397.75
 20
-317.75
 30
0.0
  0
POINT
  5
FB
  8
1
 10
-397.75
 20
-247.7499999999998
 30
0.0
  0
POINT
  5
FC
  8
1
 10
-465.74999999999989
 20
-247.7499999999998
 30
0.0
  0
POINT
  5
FD
  8
1
 10
-380.75
 20
-402.74999999999989
 30
0.0
  0
POINT
  5
FE
  8
1
 10
-312.74999999999989
 20
-402.74999999999989
 30
0.0
  0
POINT
  5
FF
  8
1
 10
-312.74999999999989
 20
-332.74999999999977
 30
0.0
  0
POINT
  5
100
  8
1
 10
-380.75
 20
-332.74999999999977
 30
0.0
  0
POINT
  5
101
  8
1
 10
-380.75
 20
-317.75
 30
0.0
  0
POINT
  5
102
  8
1
 10
-312.74999999999989
 20
-317.75
 30
0.0
  0
POINT
  5
103
  8
1
 10
-312.74999999999989
 20
-247.7499999999998
 30
0.0
  0
POINT
  5
104
  8
1
 10
-380.75
 20
-247.7499999999998
 30
0.0
  0
POINT
  5
105
  8
1
 10
-295.74999999999989
 20
-402.74999999999989
 30
0.0
  0
POINT
  5
106
  8
1
 10
-227.74999999999989
 20
-402.74999999999989
 30
0.0
  0
POINT
  5
107
  8
1
 10
-227.74999999999989
 20
-332.74999999999977
 30
0.0
  0
POINT
  5
108
  8
1
 10
-295.74999999999989
 20
-332.74999999999977
 30
0.0
  0
POINT
  5
109
  8
1
 10
-295.74999999999989
 20
-317.75
 30
0.0
  0
POINT
  5
10A
  8
1
 10
-227.74999999999989
 20
-317.75
 30
0.0
  0
POINT
  5
10B
  8
1
 10
-227.74999999999989
 20
-247.7499999999998
 30
0.0
  0
POINT
  5
10C
  8
1
 10
-295.74999999999989
 20
-247.7499999999998
 30
0.0
  0
POLYLINE
  5
10D
  8
OSNOVA
 66
     1
 10
0.0
 20
0.0
 30
0.0
 70
     1
  0
VERTEX
  5
5D5
  8
OSNOVA
 10
-394.74999999999977
 20
-400.75
 30
0.0
  0
VERTEX
  5
5D6
  8
OSNOVA
 10
-397.75
 20
-400.75
 30
0.0
 42
0.3419987131196465
  0
VERTEX
  5
5D7
  8
OSNOVA
 10
-399.68649167310372
 20
-402.24999999999989
 30
0.0
  0
VERTEX
  5
5D8
  8
OSNOVA
 10
-463.81350832689623
 20
-402.24999999999989
 30
0.0
 42
0.3419987131196467
  0
VERTEX
  5
5D9
  8
OSNOVA
 10
-465.74999999999989
 20
-400.75
 30
0.0
  0
VERTEX
  5
5DA
  8
OSNOVA
 10
-468.75
 20
-400.75
 30
0.0
  0
VERTEX
  5
5DB
  8
OSNOVA
 10
-468.75
 20
-334.74999999999977
 30
0.0
  0
VERTEX
  5
5DC
  8
OSNOVA
 10
-465.74999999999989
 20
-334.74999999999977
 30
0.0
 42
0.3419987131196444
  0
VERTEX
  5
5DD
  8
OSNOVA
 10
-463.81350832689623
 20
-333.25
 30
0.0
  0
VERTEX
  5
5DE
  8
OSNOVA
 10
-399.68649167310372
 20
-333.25
 30
0.0
 42
0.3419987131196451
  0
VERTEX
  5
5DF
  8
OSNOVA
 10
-397.75
 20
-334.74999999999977
 30
0.0
  0
VERTEX
  5
5E0
  8
OSNOVA
 10
-394.74999999999977
 20
-334.74999999999977
 30
0.0
  0
SEQEND
  5
5E1
  8
OSNOVA
  0
POLYLINE
  5
11B
  8
2
 66
     1
 10
0.0
 20
0.0
 30
0.0
 70
     1
  0
VERTEX
  5
5E2
  8
2
 10
-395.74999999999989
 20
-399.75
 30
0.0
  0
VERTEX
  5
5E3
  8
2
 10
-397.75
 20
-399.75
 30
0.0
 42
0.2679491924315331
  0
VERTEX
  5
5E4
  8
2
 10
-400.34807621135798
 20
-401.25
 30
0.0
  0
VERTEX
  5
5E5
  8
2
 10
-463.15192378864663
 20
-401.25
 30
0.0
 42
0.2679491924311219
  0
VERTEX
  5
5E6
  8
2
 10
-465.74999999999989
 20
-399.75
 30
0.0
  0
VERTEX
  5
5E7
  8
2
 10
-467.75
 20
-399.75
 30
0.0
  0
VERTEX
  5
5E8
  8
2
 10
-467.75
 20
-335.74999999999989
 30
0.0
  0
VERTEX
  5
5E9
  8
2
 10
-465.74999999999989
 20
-335.74999999999989
 30
0.0
 42
0.2679491924307064
  0
VERTEX
  5
5EA
  8
2
 10
-463.15192378865129
 20
-334.25
 30
0.0
  0
VERTEX
  5
5EB
  8
2
 10
-400.34807621135332
 20
-334.25
 30
0.0
 42
0.2679491924311137
  0
VERTEX
  5
5EC
  8
2
 10
-397.75000000000011
 20
-335.74999999999989
 30
0.0
  0
VERTEX
  5
5ED
  8
2
 10
-395.74999999999989
 20
-335.74999999999989
 30
0.0
  0
SEQEND
  5
5EE
  8
2
  0
POLYLINE
  5
129
  8
2
 66
     1
 10
0.0
 20
0.0
 30
0.0
 70
     1
  0
VERTEX
  5
5EF
  8
2
 10
-395.74999999999989
 20
-314.74999999999989
 30
0.0
  0
VERTEX
  5
5F0
  8
2
 10
-397.75
 20
-314.74999999999989
 30
0.0
 42
0.2679491924315331
  0
VERTEX
  5
5F1
  8
2
 10
-400.34807621135798
 20
-316.25
 30
0.0
  0
VERTEX
  5
5F2
  8
2
 10
-463.15192378864663
 20
-316.25
 30
0.0
 42
0.2679491924311219
  0
VERTEX
  5
5F3
  8
2
 10
-465.74999999999989
 20
-314.74999999999989
 30
0.0
  0
VERTEX
  5
5F4
  8
2
 10
-467.75
 20
-314.74999999999989
 30
0.0
  0
VERTEX
  5
5F5
  8
2
 10
-467.75
 20
-250.7499999999998
 30
0.0
  0
VERTEX
  5
5F6
  8
2
 10
-465.74999999999989
 20
-250.7499999999998
 30
0.0
 42
0.2679491924307064
  0
VERTEX
  5
5F7
  8
2
 10
-463.15192378865129
 20
-249.25
 30
0.0
  0
VERTEX
  5
5F8
  8
2
 10
-400.34807621135332
 20
-249.25
 30
0.0
 42
0.2679491924311137
  0
VERTEX
  5
5F9
  8
2
 10
-397.75000000000011
 20
-250.7499999999998
 30
0.0
  0
VERTEX
  5
5FA
  8
2
 10
-395.74999999999989
 20
-250.7499999999998
 30
0.0
  0
SEQEND
  5
5FB
  8
2
  0
POLYLINE
  5
137
  8
2
 66
     1
 10
0.0
 20
0.0
 30
0.0
 70
     1
  0
VERTEX
  5
5FC
  8
2
 10
-310.74999999999989
 20
-399.75
 30
0.0
  0
VERTEX
  5
5FD
  8
2
 10
-312.75
 20
-399.75
 30
0.0
 42
0.2679491924315331
  0
VERTEX
  5
5FE
  8
2
 10
-315.34807621135798
 20
-401.25
 30
0.0
  0
VERTEX
  5
5FF
  8
2
 10
-378.15192378864663
 20
-401.25
 30
0.0
 42
0.2679491924311219
  0
VERTEX
  5
600
  8
2
 10
-380.75
 20
-399.75
 30
0.0
  0
VERTEX
  5
601
  8
2
 10
-382.75
 20
-399.75
 30
0.0
  0
VERTEX
  5
602
  8
2
 10
-382.75
 20
-335.74999999999989
 30
0.0
  0
VERTEX
  5
603
  8
2
 10
-380.74999999999989
 20
-335.74999999999989
 30
0.0
 42
0.2679491924307064
  0
VERTEX
  5
604
  8
2
 10
-378.15192378865129
 20
-334.25
 30
0.0
  0
VERTEX
  5
605
  8
2
 10
-315.34807621135332
 20
-334.25
 30
0.0
 42
0.2679491924311137
  0
VERTEX
  5
606
  8
2
 10
-312.75000000000011
 20
-335.74999999999989
 30
0.0
  0
VERTEX
  5
607
  8
2
 10
-310.74999999999989
 20
-335.74999999999989
 30
0.0
  0
SEQEND
  5
608
  8
2
  0
POLYLINE
  5
145
  8
2
 66
     1
 10
0.0
 20
0.0
 30
0.0
 70
     1
  0
VERTEX
  5
609
  8
2
 10
-310.74999999999989
 20
-314.74999999999989
 30
0.0
  0
VERTEX
  5
60A
  8
2
 10
-312.75
 20
-314.74999999999989
 30
0.0
 42
0.2679491924315331
  0
VERTEX
  5
60B
  8
2
 10
-315.34807621135798
 20
-316.25
 30
0.0
  0
VERTEX
  5
60C
  8
2
 10
-378.15192378864663
 20
-316.25
 30
0.0
 42
0.2679491924311219
  0
VERTEX
  5
60D
  8
2
 10
-380.75
 20
-314.74999999999989
 30
0.0
  0
VERTEX
  5
60E
  8
2
 10
-382.75
 20
-314.74999999999989
 30
0.0
  0
VERTEX
  5
60F
  8
2
 10
-382.75
 20
-250.7499999999998
 30
0.0
  0
VERTEX
  5
610
  8
2
 10
-380.74999999999989
 20
-250.7499999999998
 30
0.0
 42
0.2679491924307064
  0
VERTEX
  5
611
  8
2
 10
-378.15192378865129
 20
-249.25
 30
0.0
  0
VERTEX
  5
612
  8
2
 10
-315.34807621135332
 20
-249.25
 30
0.0
 42
0.2679491924311137
  0
VERTEX
  5
613
  8
2
 10
-312.75000000000011
 20
-250.7499999999998
 30
0.0
  0
VERTEX
  5
614
  8
2
 10
-310.74999999999989
 20
-250.7499999999998
 30
0.0
  0
SEQEND
  5
615
  8
2
  0
POLYLINE
  5
153
  8
2
 66
     1
 10
0.0
 20
0.0
 30
0.0
 70
     1
  0
VERTEX
  5
616
  8
2
 10
-225.7499999999998
 20
-399.75
 30
0.0
  0
VERTEX
  5
617
  8
2
 10
-227.75
 20
-399.75
 30
0.0
 42
0.2679491924315331
  0
VERTEX
  5
618
  8
2
 10
-230.34807621135801
 20
-401.25
 30
0.0
  0
VERTEX
  5
619
  8
2
 10
-293.15192378864663
 20
-401.25
 30
0.0
 42
0.2679491924311219
  0
VERTEX
  5
61A
  8
2
 10
-295.74999999999989
 20
-399.75
 30
0.0
  0
VERTEX
  5
61B
  8
2
 10
-297.75
 20
-399.75
 30
0.0
  0
VERTEX
  5
61C
  8
2
 10
-297.75
 20
-335.74999999999989
 30
0.0
  0
VERTEX
  5
61D
  8
2
 10
-295.74999999999989
 20
-335.74999999999989
 30
0.0
 42
0.2679491924307064
  0
VERTEX
  5
61E
  8
2
 10
-293.15192378865117
 20
-334.25
 30
0.0
  0
VERTEX
  5
61F
  8
2
 10
-230.34807621135329
 20
-334.25
 30
0.0
 42
0.2679491924311137
  0
VERTEX
  5
620
  8
2
 10
-227.75000000000011
 20
-335.74999999999989
 30
0.0
  0
VERTEX
  5
621
  8
2
 10
-225.7499999999998
 20
-335.74999999999989
 30
0.0
  0
SEQEND
  5
622
  8
2
  0
POLYLINE
  5
161
  8
2
 66
     1
 10
0.0
 20
0.0
 30
0.0
 70
     1
  0
VERTEX
  5
623
  8
2
 10
-225.7499999999998
 20
-314.74999999999989
 30
0.0
  0
VERTEX
  5
624
  8
2
 10
-227.75
 20
-314.74999999999989
 30
0.0
 42
0.2679491924315331
  0
VERTEX
  5
625
  8
2
 10
-230.34807621135801
 20
-316.25
 30
0.0
  0
VERTEX
  5
626
  8
2
 10
-293.15192378864663
 20
-316.25
 30
0.0
 42
0.2679491924311219
  0
VERTEX
  5
627
  8
2
 10
-295.74999999999989
 20
-314.74999999999989
 30
0.0
  0
VERTEX
  5
628
  8
2
 10
-297.75
 20
-314.74999999999989
 30
0.0
  0
VERTEX
  5
629
  8
2
 10
-297.75
 20
-250.7499999999998
 30
0.0
  0
VERTEX
  5
62A
  8
2
 10
-295.74999999999989
 20
-250.7499999999998
 30
0.0
 42
0.2679491924307064
  0
VERTEX
  5
62B
  8
2
 10
-293.15192378865117
 20
-249.25
 30
0.0
  0
VERTEX
  5
62C
  8
2
 10
-230.34807621135329
 20
-249.25
 30
0.0
 42
0.2679491924311137
  0
VERTEX
  5
62D
  8
2
 10
-227.75000000000011
 20
-250.7499999999998
 30
0.0
  0
VERTEX
  5
62E
  8
2
 10
-225.7499999999998
 20
-250.7499999999998
 30
0.0
  0
SEQEND
  5
62F
  8
2
  0
POINT
  5
16F
  8
1
 10
-479.25
 20
-310.25
 30
0.0
  0
POINT
  5
170
  8
1
 10
-479.25
 20
-230.25
 30
0.0
  0
POINT
  5
171
  8
1
 10
-214.25
 20
-310.25
 30
0.0
  0
POINT
  5
172
  8
1
 10
-214.25
 20
-230.25
 30
0.0
  0
POINT
  5
173
  8
1
 10
-479.25
 20
-270.25
 30
0.0
  0
CIRCLE
  5
174
  8
OSNOVA
 10
-479.25
 20
-270.25
 30
0.0
 40
3.0
  0
POINT
  5
175
  8
1
 10
-214.25
 20
-270.25
 30
0.0
  0
CIRCLE
  5
176
  8
OSNOVA
 10
-214.25
 20
-270.25
 30
0.0
 40
3.0
  0
POINT
  5
177
  8
1
 10
-214.25
 20
-380.25
 30
0.0
  0
CIRCLE
  5
178
  8
OSNOVA
 10
-214.25
 20
-380.25
 30
0.0
 40
3.0
  0
POINT
  5
179
  8
1
 10
-479.25
 20
-380.25
 30
0.0
  0
CIRCLE
  5
17A
  8
OSNOVA
 10
-479.25
 20
-380.25
 30
0.0
 40
3.0
  0
POLYLINE
  5
17B
  8
OSNOVA
 66
     1
 10
0.0
 20
0.0
 30
0.0
 70
     1
  0
VERTEX
  5
630
  8
OSNOVA
 10
-489.25
 20
-445.24999999999989
 30
0.0
  0
VERTEX
  5
631
  8
OSNOVA
 10
-379.24999999999989
 20
-445.24999999999989
 30
0.0
  0
VERTEX
  5
632
  8
OSNOVA
 10
-379.24999999999989
 20
-489.25
 30
0.0
  0
VERTEX
  5
633
  8
OSNOVA
 10
-314.25
 20
-489.25
 30
0.0
  0
VERTEX
  5
634
  8
OSNOVA
 10
-314.25
 20
-445.24999999999989
 30
0.0
  0
VERTEX
  5
635
  8
OSNOVA
 10
-204.24999999999989
 20
-445.24999999999989
 30
0.0
  0
VERTEX
  5
636
  8
OSNOVA
 10
-204.24999999999989
 20
-215.24999999999989
 30
0.0
  0
VERTEX
  5
637
  8
OSNOVA
 10
-489.25
 20
-215.2499999999998
 30
0.0
  0
SEQEND
  5
638
  8
OSNOVA
  0
POLYLINE
  5
185
  8
3
 66
     1
 10
0.0
 20
0.0
 30
0.0
 70
     1
  0
VERTEX
  5
639
  8
3
 10
-490.24999999999989
 20
-446.25
 30
0.0
  0
VERTEX
  5
63A
  8
3
 10
-380.25
 20
-446.25
 30
0.0
  0
VERTEX
  5
63B
  8
3
 10
-380.25
 20
-490.24999999999989
 30
0.0
  0
VERTEX
  5
63C
  8
3
 10
-313.25
 20
-490.24999999999989
 30
0.0
  0
VERTEX
  5
63D
  8
3
 10
-313.25
 20
-446.25
 30
0.0
  0
VERTEX
  5
63E
  8
3
 10
-203.25
 20
-446.25
 30
0.0
  0
VERTEX
  5
63F
  8
3
 10
-203.25
 20
-214.25
 30
0.0
  0
VERTEX
  5
640
  8
3
 10
-490.24999999999989
 20
-214.2499999999998
 30
0.0
  0
SEQEND
  5
641
  8
3
  0
ENDBLK
  5
18F
  8
0
  0
BLOCK
  8
0
  2
A4P
 70
     0
 10
0.0
 20
0.0
 30
0.0
  3
A4P
  1

  0
POLYLINE
  5
195
  8
TEXTP
 66
     1
 10
0.0
 20
0.0
 30
0.0
 70
     1
 40
0.02
 41
0.02
  0
VERTEX
  5
642
  8
TEXTP
 10
0.0
 20
0.0
 30
0.0
  0
VERTEX
  5
643
  8
TEXTP
 10
0.0
 20
285.0
 30
0.0
  0
VERTEX
  5
644
  8
TEXTP
 10
198.0
 20
285.0
 30
0.0
  0
VERTEX
  5
645
  8
TEXTP
 10
198.0
 20
0.0
 30
0.0
  0
SEQEND
  5
646
  8
TEXTP
  0
POLYLINE
  5
19B
  8
TEXTP
 66
     1
 10
0.0
 20
0.0
 30
0.0
 70
     1
 40
0.02
 41
0.02
  0
VERTEX
  5
647
  8
TEXTP
 10
4.5
 20
4.5
 30
0.0
  0
VERTEX
  5
648
  8
TEXTP
 10
4.5
 20
280.5
 30
0.0
  0
VERTEX
  5
649
  8
TEXTP
 10
193.5
 20
280.5
 30
0.0
  0
VERTEX
  5
64A
  8
TEXTP
 10
193.5
 20
4.5
 30
0.0
  0
SEQEND
  5
64B
  8
TEXTP
  0
LINE
  5
1A1
  8
TEXTP
 10
4.0
 20
22.5
 30
0.0
 11
194.0
 21
22.5
 31
0.0
  0
LINE
  5
1A2
  8
TEXTP
 10
4.0
 20
12.5
 30
0.0
 11
194.0
 21
12.5
 31
0.0
  0
LINE
  5
1A3
  8
TEXTP
 10
4.0
 20
13.0
 30
0.0
 11
194.0
 21
13.0
 31
0.0
  0
LINE
  5
1A4
  8
TEXTP
 10
4.0
 20
22.0
 30
0.0
 11
194.0
 21
22.0
 31
0.0
  0
POLYLINE
  5
1A5
  8
TEXTP
 66
     1
 10
0.0
 20
0.0
 30
0.0
 70
     1
 40
0.02
 41
0.02
  0
VERTEX
  5
64C
  8
TEXTP
 10
4.0
 20
4.0
 30
0.0
  0
VERTEX
  5
64D
  8
TEXTP
 10
4.0
 20
281.0
 30
0.0
  0
VERTEX
  5
64E
  8
TEXTP
 10
194.0
 20
281.0
 30
0.0
  0
VERTEX
  5
64F
  8
TEXTP
 10
194.0
 20
4.0
 30
0.0
  0
SEQEND
  5
650
  8
TEXTP
  0
TEXT
  5
1AB
  8
TEXTP
 10
5.0
 20
6.0
 30
0.0
 40
4.0
  1
kosov
  7
ADESK1
  0
LINE
  5
1AD
  8
TEXTP
 10
23.5
 20
4.0
 30
0.0
 11
23.5
 21
13.0
 31
0.0
  0
LINE
  5
1AE
  8
TEXTP
 10
15.5
 20
13.0
 30
0.0
 11
15.5
 21
22.0
 31
0.0
  0
LINE
  5
1AF
  8
TEXTP
 10
15.0
 20
13.0
 30
0.0
 11
15.0
 21
22.0
 31
0.0
  0
LINE
  5
1B0
  8
TEXTP
 10
43.0
 20
4.0
 30
0.0
 11
43.0
 21
13.0
 31
0.0
  0
TEXT
  5
1B1
  8
TEXTP
 10
44.5
 20
6.0
 30
0.0
 40
4.0
  1
material
  7
ADESK1
  0
LINE
  5
1B2
  8
TEXTP
 10
43.5
 20
4.0
 30
0.0
 11
43.5
 21
13.0
 31
0.0
  0
LINE
  5
1B3
  8
TEXTP
 10
70.0
 20
4.0
 30
0.0
 11
70.0
 21
13.0
 31
0.0
  0
TEXT
  5
1B4
  8
TEXTP
 10
144.0
 20
14.5
 30
0.0
 40
4.0
  1
S. Korpar
  7
ADESK1
  0
TEXT
  5
1B5
  8
TEXTP
 10
104.0
 20
14.5
 30
0.0
 40
4.0
  1
konstr.
  7
ADESK1
  0
LINE
  5
1B6
  8
TEXTP
 10
100.5
 20
13.0
 30
0.0
 11
100.5
 21
22.0
 31
0.0
  0
LINE
  5
1B7
  8
TEXTP
 10
100.0
 20
13.0
 30
0.0
 11
100.0
 21
22.0
 31
0.0
  0
LINE
  5
1B8
  8
TEXTP
 10
139.5
 20
4.0
 30
0.0
 11
139.5
 21
13.0
 31
0.0
  0
LINE
  5
1B9
  8
TEXTP
 10
158.0
 20
4.0
 30
0.0
 11
158.0
 21
13.0
 31
0.0
  0
LINE
  5
1BA
  8
TEXTP
 10
140.0
 20
4.0
 30
0.0
 11
140.0
 21
13.0
 31
0.0
  0
TEXT
  5
1BB
  8
TEXTP
 10
141.0
 20
6.0
 30
0.0
 40
4.0
  1
mere
  7
ADESK1
  0
LINE
  5
1BC
  8
TEXTP
 10
130.0
 20
13.0
 30
0.0
 11
130.0
 21
22.0
 31
0.0
  0
TEXT
  5
1BD
  8
TEXTP
 10
167.0
 20
6.0
 30
0.0
 40
4.0
  1
mm
  7
ADESK1
  0
ENDBLK
  5
1BE
  8
0
  0
BLOCK
  8
0
  2
AVE_RENDER
 70
     0
 10
500.0
 20
500.0
 30
0.0
  3
AVE_RENDER
  1
AVE_RENDER
  0
ENDBLK
  5
1C0
  8
0
  0
BLOCK
  8
0
  2
A$C4856780D
 70
     0
 10
0.0
 20
0.0
 30
0.0
  3
A$C4856780D
  1

  0
LINE
  5
340
  8
POCRTE
 10
-37.5
 20
37.5
 30
0.0
 11
37.5
 21
-37.5
 31
0.0
  0
LINE
  5
341
  8
POCRTE
 10
-37.5
 20
-37.5
 30
0.0
 11
37.5
 21
37.5
 31
0.0
  0
POLYLINE
  5
342
  8
2
 66
     1
 10
0.0
 20
0.0
 30
0.0
 70
     1
  0
VERTEX
  5
66B
  8
2
 10
36.000000000000107
 20
-32.0
 30
0.0
  0
VERTEX
  5
66C
  8
2
 10
33.999999999999943
 20
-32.0
 30
0.0
 42
0.2679491924315331
  0
VERTEX
  5
66D
  8
2
 10
31.401923788641959
 20
-33.5
 30
0.0
  0
VERTEX
  5
66E
  8
2
 10
-31.40192378864668
 20
-33.5
 30
0.0
 42
0.2679491924311219
  0
VERTEX
  5
66F
  8
2
 10
-34.0
 20
-32.0
 30
0.0
  0
VERTEX
  5
670
  8
2
 10
-36.0
 20
-32.0
 30
0.0
  0
VERTEX
  5
671
  8
2
 10
-36.0
 20
32.000000000000107
 30
0.0
  0
VERTEX
  5
672
  8
2
 10
-33.999999999999943
 20
32.000000000000107
 30
0.0
 42
0.2679491924307064
  0
VERTEX
  5
673
  8
2
 10
-31.401923788651281
 20
33.5
 30
0.0
  0
VERTEX
  5
674
  8
2
 10
31.401923788646631
 20
33.5
 30
0.0
 42
0.2679491924311137
  0
VERTEX
  5
675
  8
2
 10
33.999999999999879
 20
32.000000000000107
 30
0.0
  0
VERTEX
  5
676
  8
2
 10
36.000000000000107
 20
32.000000000000107
 30
0.0
  0
SEQEND
  5
677
  8
2
  0
LINE
  5
343
  8
OSNOVA
 10
-32.063508326896219
 20
-34.5
 30
0.0
 11
32.06350832689634
 21
-34.5
 31
0.0
  0
LINE
  5
344
  8
OSNOVA
 10
-32.063508326896219
 20
34.5
 30
0.0
 11
32.06350832689634
 21
34.5
 31
0.0
  0
POLYLINE
  5
345
  8
POCRTE
 66
     1
 10
0.0
 20
0.0
 30
0.0
 70
     1
  0
VERTEX
  5
678
  8
POCRTE
 10
-37.5
 20
-37.5
 30
0.0
  0
VERTEX
  5
679
  8
POCRTE
 10
37.5
 20
-37.5
 30
0.0
  0
VERTEX
  5
67A
  8
POCRTE
 10
37.5
 20
37.5
 30
0.0
  0
VERTEX
  5
67B
  8
POCRTE
 10
-37.5
 20
37.5
 30
0.0
  0
SEQEND
  5
67C
  8
POCRTE
  0
CIRCLE
  5
346
  8
POCRTE
 10
-34.0
 20
35.000000000000107
 30
0.0
 40
1.25
  0
LINE
  5
347
  8
OSNOVA
 10
-37.0
 20
33.000000000000107
 30
0.0
 11
-37.0
 21
-33.0
 31
0.0
  0
ARC
  5
348
  8
OSNOVA
 10
-34.0
 20
-35.0
 30
0.0
 40
2.0
 50
14.477512185929861
 51
90.0
  0
LINE
  5
349
  8
OSNOVA
 10
-37.0
 20
-33.0
 30
0.0
 11
-34.0
 21
-33.0
 31
0.0
  0
CIRCLE
  5
34A
  8
POCRTE
 10
-34.0
 20
-35.0
 30
0.0
 40
1.25
  0
POINT
  5
34B
  8
1
 10
-34.0
 20
-35.0
 30
0.0
  0
ARC
  5
34C
  8
OSNOVA
 10
-34.0
 20
35.000000000000107
 30
0.0
 40
2.0
 50
270.0
 51
345.52248781407008
  0
LINE
  5
34D
  8
OSNOVA
 10
-37.0
 20
33.000000000000107
 30
0.0
 11
-34.0
 21
33.000000000000107
 31
0.0
  0
POINT
  5
34E
  8
1
 10
-34.0
 20
35.000000000000107
 30
0.0
  0
CIRCLE
  5
34F
  8
POCRTE
 10
34.0
 20
35.000000000000107
 30
0.0
 40
1.25
  0
LINE
  5
350
  8
OSNOVA
 10
37.0
 20
33.000000000000107
 30
0.0
 11
37.0
 21
-33.0
 31
0.0
  0
LINE
  5
351
  8
OSNOVA
 10
34.0
 20
-33.0
 30
0.0
 11
37.0
 21
-33.0
 31
0.0
  0
CIRCLE
  5
352
  8
POCRTE
 10
34.0
 20
-35.0
 30
0.0
 40
1.25
  0
POINT
  5
353
  8
1
 10
34.0
 20
-35.0
 30
0.0
  0
ARC
  5
354
  8
OSNOVA
 10
34.0
 20
-35.0
 30
0.0
 40
2.0
 50
90.0
 51
165.5224878140701
  0
LINE
  5
355
  8
OSNOVA
 10
34.0
 20
33.000000000000107
 30
0.0
 11
37.0
 21
33.000000000000107
 31
0.0
  0
POINT
  5
356
  8
1
 10
34.0
 20
35.000000000000107
 30
0.0
  0
ARC
  5
357
  8
OSNOVA
 10
34.0
 20
35.000000000000107
 30
0.0
 40
2.0
 50
194.47751218592981
 51
270.0
  0
ENDBLK
  5
359
  8
0
  0
BLOCK
  8
0
  2
A$C27B92669
 70
     0
 10
0.0
 20
0.0
 30
0.0
  3
A$C27B92669
  1

  0
CIRCLE
  5
4A0
  8
POCRTE
 10
246.2039645514981
 20
91.905400785370148
 30
0.0
 40
1.25
  0
LINE
  5
4A1
  8
OSNOVA
 10
175.22357047358119
 20
94.509946147545179
 30
0.0
 11
170.9471955309771
 21
28.648632636878801
 31
0.0
  0
LINE
  5
4A2
  8
OSNOVA
 10
161.1445154870259
 20
94.369877783551601
 30
0.0
 11
166.7303838481113
 21
28.60668082162897
 31
0.0
  0
CIRCLE
  5
4A3
  8
POCRTE
 10
90.229989410985397
 20
90.353661727290842
 30
0.0
 40
1.25
  0
LINE
  5
4A4
  8
OSNOVA
 10
92.201850282106449
 20
90.019349440735013
 30
0.0
 11
156.09878402125571
 21
95.446699037965686
 31
0.0
  0
POLYLINE
  5
4A5
  8
2
 66
     1
 10
0.0
 20
0.0
 30
0.0
 70
     1
  0
VERTEX
  5
67D
  8
2
 10
165.64933740382341
 20
29.518458527702251
 30
0.0
  0
VERTEX
  5
67E
  8
2
 10
163.6565132534619
 20
29.349189789487689
 30
0.0
 42
0.2679491924315331
  0
VERTEX
  5
67F
  8
2
 10
161.1947102978863
 20
27.634685135675451
 30
0.0
  0
VERTEX
  5
680
  8
2
 10
98.616198204071225
 20
22.319321118457299
 30
0.0
 42
0.2679491924311219
  0
VERTEX
  5
681
  8
2
 10
95.900492141178148
 20
23.594052690187478
 30
0.0
  0
VERTEX
  5
682
  8
2
 10
93.907667990816876
 20
23.42478395197281
 30
0.0
  0
VERTEX
  5
683
  8
2
 10
88.491068367946156
 20
87.195156763534328
 30
0.0
  0
VERTEX
  5
684
  8
2
 10
90.483892518307499
 20
87.364425501748883
 30
0.0
 42
0.2679491924307064
  0
VERTEX
  5
685
  8
2
 10
92.945695473873855
 20
89.078930155560215
 30
0.0
  0
VERTEX
  5
686
  8
2
 10
155.5242075676982
 20
94.394294172779254
 30
0.0
 42
0.2679491924311137
  0
VERTEX
  5
687
  8
2
 10
158.23991363059119
 20
93.119562601048969
 30
0.0
  0
VERTEX
  5
688
  8
2
 10
160.2327377809527
 20
93.288831339263666
 30
0.0
  0
SEQEND
  5
689
  8
2
  0
POLYLINE
  5
4A6
  8
POCRTE
 66
     1
 10
0.0
 20
0.0
 30
0.0
 70
     1
  0
VERTEX
  5
68A
  8
POCRTE
 10
92.878538908136335
 20
17.817565984818199
 30
0.0
  0
VERTEX
  5
68B
  8
POCRTE
 10
167.6094445466847
 20
24.16514366786987
 30
0.0
  0
VERTEX
  5
68C
  8
POCRTE
 10
161.26186686363309
 20
98.896049306418163
 30
0.0
  0
VERTEX
  5
68D
  8
POCRTE
 10
86.530961225084752
 20
92.548471623366595
 30
0.0
  0
SEQEND
  5
68E
  8
POCRTE
  0
POLYLINE
  5
4A7
  8
POCRTE
 66
     1
 10
0.0
 20
0.0
 30
0.0
 70
     1
  0
VERTEX
  5
68F
  8
POCRTE
 10
170.1566751673854
 20
24.190485313746979
 30
0.0
  0
VERTEX
  5
690
  8
POCRTE
 10
244.9990768840517
 20
19.330968333515209
 30
0.0
  0
VERTEX
  5
691
  8
POCRTE
 10
249.85859386428359
 20
94.173370050181347
 30
0.0
  0
VERTEX
  5
692
  8
POCRTE
 10
175.0161921476174
 20
99.032887030413235
 30
0.0
  0
SEQEND
  5
693
  8
POCRTE
  0
POLYLINE
  5
4A8
  8
2
 66
     1
 10
0.0
 20
0.0
 30
0.0
 70
     1
  0
VERTEX
  5
694
  8
2
 10
243.85859342826879
 20
24.916601465675392
 30
0.0
  0
VERTEX
  5
695
  8
2
 10
241.86279604915751
 20
25.046188585148229
 30
0.0
 42
0.2679491924315331
  0
VERTEX
  5
696
  8
2
 10
239.1729888628733
 20
23.717679157015141
 30
0.0
  0
VERTEX
  5
697
  8
2
 10
176.5011116664505
 20
27.786964006691608
 30
0.0
 42
0.2679491924311219
  0
VERTEX
  5
698
  8
2
 10
174.00568515938019
 20
29.452150647225029
 30
0.0
  0
VERTEX
  5
699
  8
2
 10
172.00988778026911
 20
29.58173776669798
 30
0.0
  0
VERTEX
  5
69A
  8
2
 10
176.1566756034004
 20
93.447253898253166
 30
0.0
  0
VERTEX
  5
69B
  8
2
 10
178.15247298251151
 20
93.317666778780222
 30
0.0
 42
0.2679491924307064
  0
VERTEX
  5
69C
  8
2
 10
180.8422801687864
 20
94.646176206913651
 30
0.0
  0
VERTEX
  5
69D
  8
2
 10
243.51415736521849
 20
90.576891357236718
 30
0.0
 42
0.2679491924311137
  0
VERTEX
  5
69E
  8
2
 10
246.00958387228869
 20
88.911704716703397
 30
0.0
  0
VERTEX
  5
69F
  8
2
 10
248.0053812514
 20
88.782117597230581
 30
0.0
  0
SEQEND
  5
6A0
  8
2
  0
LINE
  5
4A9
  8
OSNOVA
 10
180.246879384778
 20
95.686941313768671
 30
0.0
 11
244.2391452687045
 21
91.531923629492553
 31
0.0
  0
LINE
  5
4AA
  8
OSNOVA
 10
13.42295349202004
 20
152.97043002377919
 30
0.0
 11
25.733539868596491
 21
88.128703773895609
 31
0.0
  0
POLYLINE
  5
4AB
  8
2
 66
     1
 10
0.0
 20
0.0
 30
0.0
 70
     1
  0
VERTEX
  5
6A1
  8
2
 10
97.265894866550084
 20
102.7274088002586
 30
0.0
  0
VERTEX
  5
6A2
  8
2
 10
95.300994071098899
 20
102.3543607282412
 30
0.0
 42
0.2679491924315331
  0
VERTEX
  5
6A3
  8
2
 10
93.028299117942154
 20
100.3960814708521
 30
0.0
  0
VERTEX
  5
6A4
  8
2
 10
31.326634086942651
 20
88.681654343858895
 30
0.0
 42
0.2679491924311219
  0
VERTEX
  5
6A5
  8
2
 10
28.494367025764291
 20
89.670726279647155
 30
0.0
  0
VERTEX
  5
6A6
  8
2
 10
26.529466230313261
 20
89.297678207629815
 30
0.0
  0
VERTEX
  5
6A7
  8
2
 10
14.59192792575424
 20
152.17450366206239
 30
0.0
  0
VERTEX
  5
6A8
  8
2
 10
16.556828721205299
 20
152.5475517340798
 30
0.0
 42
0.2679491924307064
  0
VERTEX
  5
6A9
  8
2
 10
18.829523674352959
 20
154.50583099146709
 30
0.0
  0
VERTEX
  5
6AA
  8
2
 10
80.531188705361586
 20
166.22025811846231
 30
0.0
 42
0.2679491924311137
  0
VERTEX
  5
6AB
  8
2
 10
83.363455766539815
 20
165.23118618267381
 30
0.0
  0
VERTEX
  5
6AC
  8
2
 10
85.328356561991086
 20
165.60423425469119
 30
0.0
  0
SEQEND
  5
6AD
  8
2
  0
POLYLINE
  5
4AC
  8
POCRTE
 66
     1
 10
0.0
 20
0.0
 30
0.0
 70
     1
  0
VERTEX
  5
6AE
  8
POCRTE
 10
26.081672831773059
 20
83.614414966126319
 30
0.0
  0
VERTEX
  5
6AF
  8
POCRTE
 10
99.765452661186274
 20
97.603717666781449
 30
0.0
  0
VERTEX
  5
6B0
  8
POCRTE
 10
85.776149960531185
 20
171.28749749619459
 30
0.0
  0
VERTEX
  5
6B1
  8
POCRTE
 10
12.092370131118001
 20
157.29819479553959
 30
0.0
  0
SEQEND
  5
6B2
  8
POCRTE
  0
LINE
  5
4AD
  8
OSNOVA
 10
30.86318413021905
 20
87.575802527897963
 30
0.0
 11
93.864797146687977
 21
99.537032491362766
 31
0.0
  0
LINE
  5
4AE
  8
OSNOVA
 10
98.041621750513926
 20
21.266916253270551
 30
0.0
 11
161.93855548966309
 21
26.694265850501321
 31
0.0
  0
LINE
  5
4AF
  8
OSNOVA
 10
22.004346367202
 20
4.1802269100506351
 30
0.0
 11
84.379070905367513
 21
19.068746101150619
 31
0.0
  0
POLYLINE
  5
4B0
  8
2
 66
     1
 10
0.0
 20
0.0
 30
0.0
 70
     1
  0
VERTEX
  5
6B3
  8
2
 10
87.627565793310552
 20
22.414377230761939
 30
0.0
  0
VERTEX
  5
6B4
  8
2
 10
85.682216460285488
 20
21.95003256082407
 30
0.0
 42
0.2679491924315331
  0
VERTEX
  5
6B5
  8
2
 10
83.503392050282287
 20
19.887819140637362
 30
0.0
  0
VERTEX
  5
6B6
  8
2
 10
22.415680552344782
 20
5.3065032035878508
 30
0.0
 42
0.2679491924311219
  0
VERTEX
  5
6B7
  8
2
 10
19.540339137439439
 20
6.1623137829394627
 30
0.0
  0
VERTEX
  5
6B8
  8
2
 10
17.594989804414521
 20
5.6979691130016468
 30
0.0
  0
VERTEX
  5
6B9
  8
2
 10
2.7359603664054362
 20
67.949147769798174
 30
0.0
  0
VERTEX
  5
6BA
  8
2
 10
4.6813096994303569
 20
68.413492439735933
 30
0.0
 42
0.2679491924307064
  0
VERTEX
  5
6BB
  8
2
 10
6.8601341094245347
 20
70.475705859920481
 30
0.0
  0
VERTEX
  5
6BC
  8
2
 10
67.94784560737105
 20
85.057021796971981
 30
0.0
 42
0.2679491924311137
  0
VERTEX
  5
6BD
  8
2
 10
70.823187022276343
 20
84.201211217620539
 30
0.0
  0
VERTEX
  5
6BE
  8
2
 10
72.768536355301393
 20
84.665555887558284
 30
0.0
  0
SEQEND
  5
6BF
  8
2
  0
POLYLINE
  5
4B1
  8
POCRTE
 66
     1
 10
0.0
 20
0.0
 30
0.0
 70
     1
  0
VERTEX
  5
6C0
  8
POCRTE
 10
17.41292564697482
 20
-0.0000000552701067
 30
0.0
  0
VERTEX
  5
6C1
  8
POCRTE
 10
90.363525635408038
 20
17.41292506739682
 30
0.0
  0
VERTEX
  5
6C2
  8
POCRTE
 10
72.95060051274109
 20
90.363525055829996
 30
0.0
  0
VERTEX
  5
6C3
  8
POCRTE
 10
0.0000005243078363
 20
72.950599933163062
 30
0.0
  0
SEQEND
  5
6C4
  8
POCRTE
  0
LINE
  5
4B2
  8
OSNOVA
 10
5.984455254348461
 20
71.294778899409266
 30
0.0
 11
68.359179792513999
 21
86.183298090509183
 31
0.0
  0
LINE
  5
4B3
  8
OSNOVA
 10
1.5311133649240669
 20
68.689650101341726
 30
0.0
 11
16.854487472870971
 21
4.493122111520278
 31
0.0
  0
LINE
  5
4B4
  8
OSNOVA
 10
16.854487472870971
 20
4.493122111520278
 30
0.0
 11
19.772511472408318
 21
5.1896391164269744
 31
0.0
  0
CIRCLE
  5
4B5
  8
POCRTE
 10
20.23685614234611
 20
3.2442897834020519
 30
0.0
 40
1.25
  0
ARC
  5
4B6
  8
OSNOVA
 10
20.23685614234611
 20
3.2442897834020519
 30
0.0
 40
2.0
 50
27.902512185931599
 51
103.4249999999994
  0
POINT
  5
4B7
  8
1
 10
20.23685614234611
 20
3.2442897834020519
 30
0.0
  0
ARC
  5
4B8
  8
OSNOVA
 10
3.984792694523605
 20
71.331516439273287
 30
0.0
 40
2.0
 50
283.42499999999927
 51
358.94748781407031
  0
CIRCLE
  5
4B9
  8
POCRTE
 10
3.984792694523605
 20
71.331516439273287
 30
0.0
 40
1.25
  0
LINE
  5
4BA
  8
OSNOVA
 10
1.5311133649240669
 20
68.689650101341726
 30
0.0
 11
4.4491373644614214
 21
69.386167106248422
 31
0.0
  0
POINT
  5
4BB
  8
1
 10
3.984792694523605
 20
71.331516439273287
 30
0.0
  0
CIRCLE
  5
4BC
  8
POCRTE
 10
29.053939133790461
 20
86.723375086470597
 30
0.0
 40
1.25
  0
LINE
  5
4BD
  8
OSNOVA
 10
25.733539868596491
 20
88.128703773895609
 30
0.0
 11
28.680891061773021
 21
88.688275881921868
 31
0.0
  0
POINT
  5
4BE
  8
1
 10
29.053939133790461
 20
86.723375086470597
 30
0.0
  0
ARC
  5
4BF
  8
OSNOVA
 10
29.053939133790461
 20
86.723375086470597
 30
0.0
 40
2.0
 50
25.227512185930362
 51
100.7499999999997
  0
ARC
  5
4C0
  8
OSNOVA
 10
90.229989410985397
 20
90.353661727290842
 30
0.0
 40
2.0
 50
274.8550000000003
 51
350.3774878140689
  0
LINE
  5
4C1
  8
OSNOVA
 10
87.410021923658164
 20
88.106934469607495
 30
0.0
 11
92.995890284743595
 21
22.34373750768475
 31
0.0
  0
LINE
  5
4C2
  8
OSNOVA
 10
73.50903868684486
 20
85.870402889039624
 30
0.0
 11
88.832412794791765
 21
21.67387489921839
 31
0.0
  0
ARC
  5
4C3
  8
OSNOVA
 10
86.378733465192227
 20
19.032008561286709
 30
0.0
 40
2.0
 50
103.4249999999994
 51
178.94748781407031
  0
CIRCLE
  5
4C4
  8
POCRTE
 10
86.378733465192227
 20
19.032008561286709
 30
0.0
 40
1.25
  0
POINT
  5
4C5
  8
1
 10
86.378733465192227
 20
19.032008561286709
 30
0.0
  0
LINE
  5
4C6
  8
OSNOVA
 10
85.914388795254439
 20
20.977357894311581
 30
0.0
 11
88.832412794791765
 21
21.67387489921839
 31
0.0
  0
ARC
  5
4C7
  8
OSNOVA
 10
70.126670017369747
 20
87.119235217157893
 30
0.0
 40
2.0
 50
207.90251218593161
 51
283.42499999999927
  0
LINE
  5
4C8
  8
OSNOVA
 10
70.591014687307535
 20
85.173885884133014
 30
0.0
 11
73.50903868684486
 21
85.870402889039624
 31
0.0
  0
POINT
  5
4C9
  8
1
 10
70.126670017369747
 20
87.119235217157893
 30
0.0
  0
CIRCLE
  5
4CA
  8
POCRTE
 10
70.126670017369747
 20
87.119235217157893
 30
0.0
 40
1.25
  0
LINE
  5
4CB
  8
OSNOVA
 10
87.410021923658164
 20
88.106934469607495
 30
0.0
 11
90.399258149200122
 21
88.360837576929498
 31
0.0
  0
POINT
  5
4CC
  8
1
 10
90.229989410985397
 20
90.353661727290842
 30
0.0
  0
CIRCLE
  5
4CD
  8
POCRTE
 10
96.154395248500208
 20
20.60481646464563
 30
0.0
 40
1.25
  0
ARC
  5
4CE
  8
OSNOVA
 10
96.154395248500208
 20
20.60481646464563
 30
0.0
 40
2.0
 50
19.332512185931112
 51
94.855000000000331
  0
LINE
  5
4CF
  8
OSNOVA
 10
92.995890284743595
 20
22.34373750768475
 30
0.0
 11
95.985126510285511
 21
22.59764061500686
 31
0.0
  0
POINT
  5
4D0
  8
1
 10
96.154395248500208
 20
20.60481646464563
 30
0.0
  0
LINE
  5
4D1
  8
OSNOVA
 10
175.7761237629646
 20
26.831931734435891
 30
0.0
 11
239.76838964689111
 21
22.67691405015966
 31
0.0
  0
LINE
  5
4D2
  8
OSNOVA
 10
170.9471955309771
 20
28.648632636878801
 30
0.0
 11
173.94089159964381
 21
28.454251957669491
 31
0.0
  0
CIRCLE
  5
4D3
  8
POCRTE
 10
163.91041636078401
 20
26.35995356394573
 30
0.0
 40
1.25
  0
LINE
  5
4D4
  8
OSNOVA
 10
163.74114762256929
 20
28.35277771430696
 30
0.0
 11
166.7303838481113
 21
28.60668082162897
 31
0.0
  0
ARC
  5
4D5
  8
OSNOVA
 10
163.91041636078401
 20
26.35995356394573
 30
0.0
 40
2.0
 50
94.855000000000331
 51
170.37748781406901
  0
POINT
  5
4D6
  8
1
 10
163.91041636078401
 20
26.35995356394573
 30
0.0
  0
CIRCLE
  5
4D7
  8
POCRTE
 10
173.81130448017089
 20
26.45845457855841
 30
0.0
 40
1.25
  0
ARC
  5
4D8
  8
OSNOVA
 10
173.81130448017089
 20
26.45845457855841
 30
0.0
 40
2.0
 50
10.762512185930991
 51
86.285000000000537
  0
POINT
  5
4D9
  8
1
 10
173.81130448017089
 20
26.45845457855841
 30
0.0
  0
LINE
  5
4DA
  8
OSNOVA
 10
249.0680735006919
 20
89.715222727049763
 30
0.0
 11
244.7916985580878
 21
23.853909216383268
 31
0.0
  0
ARC
  5
4DB
  8
OSNOVA
 10
241.66841536994829
 20
22.05249251648149
 30
0.0
 40
2.0
 50
86.285000000000537
 51
161.8074878140711
  0
CIRCLE
  5
4DC
  8
POCRTE
 10
241.66841536994829
 20
22.05249251648149
 30
0.0
 40
1.25
  0
LINE
  5
4DD
  8
OSNOVA
 10
241.79800248942121
 20
24.048289895592571
 30
0.0
 11
244.7916985580878
 21
23.853909216383268
 31
0.0
  0
POINT
  5
4DE
  8
1
 10
241.66841536994829
 20
22.05249251648149
 30
0.0
  0
LINE
  5
4DF
  8
OSNOVA
 10
246.07437743202519
 20
89.909603406259066
 30
0.0
 11
249.0680735006919
 21
89.715222727049763
 31
0.0
  0
ARC
  5
4E0
  8
OSNOVA
 10
246.2039645514981
 20
91.905400785370148
 30
0.0
 40
2.0
 50
190.76251218593089
 51
266.28500000000048
  0
LINE
  5
4E1
  8
OSNOVA
 10
104.1765788295702
 20
170.17249427876499
 30
0.0
 11
168.200458114409
 21
173.8080336109914
 31
0.0
  0
POLYLINE
  5
4E2
  8
POCRTE
 66
     1
 10
0.0
 20
0.0
 30
0.0
 70
     1
  0
VERTEX
  5
6C5
  8
POCRTE
 10
102.8307115306521
 20
97.980084131122453
 30
0.0
  0
VERTEX
  5
6C6
  8
POCRTE
 10
177.71008682245329
 20
102.23204319837571
 30
0.0
  0
VERTEX
  5
6C7
  8
POCRTE
 10
173.4581277552
 20
177.11141849017699
 30
0.0
  0
VERTEX
  5
6C8
  8
POCRTE
 10
98.578752463398871
 20
172.85945942292341
 30
0.0
  0
SEQEND
  5
6C9
  8
POCRTE
  0
POLYLINE
  5
4E3
  8
2
 66
     1
 10
0.0
 20
0.0
 30
0.0
 70
     1
  0
VERTEX
  5
6CA
  8
2
 10
175.9006889850188
 20
107.638158205096
 30
0.0
  0
VERTEX
  5
6CB
  8
2
 10
173.9039056439039
 20
107.52477262996931
 30
0.0
 42
0.2679491924315331
  0
VERTEX
  5
6CC
  8
2
 10
171.395047176356
 20
105.8798929414092
 30
0.0
  0
VERTEX
  5
6CD
  8
2
 10
108.6922088762376
 20
102.31936775254719
 30
0.0
 42
0.2679491924311219
  0
VERTEX
  5
6CE
  8
2
 10
106.0132720460042
 20
103.6696630756597
 30
0.0
  0
VERTEX
  5
6CF
  8
2
 10
104.0164887048896
 20
103.556277500533
 30
0.0
  0
VERTEX
  5
6D0
  8
2
 10
100.3881503008334
 20
167.45334441620329
 30
0.0
  0
VERTEX
  5
6D1
  8
2
 10
102.38493364194819
 20
167.56672999132999
 30
0.0
 42
0.2679491924307064
  0
VERTEX
  5
6D2
  8
2
 10
104.8937921094868
 20
169.21160967988951
 30
0.0
  0
VERTEX
  5
6D3
  8
2
 10
167.59663040961439
 20
172.772134868752
 30
0.0
 42
0.2679491924311137
  0
VERTEX
  5
6D4
  8
2
 10
170.2755672398477
 20
171.4218395456397
 30
0.0
  0
VERTEX
  5
6D5
  8
2
 10
172.27235058096261
 20
171.5352251207664
 30
0.0
  0
SEQEND
  5
6D6
  8
2
  0
LINE
  5
4E4
  8
OSNOVA
 10
108.0883811714432
 20
101.2834690103079
 30
0.0
 11
172.112260456282
 21
104.9190083425344
 31
0.0
  0
LINE
  5
4E5
  8
OSNOVA
 10
17.993025645616399
 20
155.36487997095821
 30
0.0
 11
80.994638662085279
 21
167.3261099344227
 31
0.0
  0
CIRCLE
  5
4E6
  8
POCRTE
 10
15.99725661317904
 20
155.49490292725631
 30
0.0
 40
1.25
  0
ARC
  5
4E7
  8
OSNOVA
 10
15.99725661317904
 20
155.49490292725631
 30
0.0
 40
2.0
 50
280.74999999999972
 51
356.2724878140699
  0
LINE
  5
4E8
  8
OSNOVA
 10
13.42295349202004
 20
152.97043002377919
 30
0.0
 11
16.37030468519654
 21
153.5300021318055
 31
0.0
  0
POINT
  5
4E9
  8
1
 10
15.99725661317904
 20
155.49490292725631
 30
0.0
  0
LINE
  5
4EA
  8
OSNOVA
 10
86.124282923707739
 20
166.7732086884256
 30
0.0
 11
98.434869300284234
 21
101.93148243854171
 31
0.0
  0
LINE
  5
4EB
  8
OSNOVA
 10
83.176931730531223
 20
166.2136365803994
 30
0.0
 11
86.124282923707739
 21
166.7732086884256
 31
0.0
  0
CIRCLE
  5
4EC
  8
POCRTE
 10
82.803883658513769
 20
168.1785373758502
 30
0.0
 40
1.25
  0
ARC
  5
4ED
  8
OSNOVA
 10
82.803883658513769
 20
168.1785373758502
 30
0.0
 40
2.0
 50
205.22751218593029
 51
280.74999999999972
  0
POINT
  5
4EE
  8
1
 10
82.803883658513769
 20
168.1785373758502
 30
0.0
  0
LINE
  5
4EF
  8
OSNOVA
 10
99.333065842712756
 20
168.3950432991974
 30
0.0
 11
103.07478982189549
 21
102.5011930424121
 31
0.0
  0
LINE
  5
4F0
  8
OSNOVA
 10
95.487518107107718
 20
101.3719103305157
 30
0.0
 11
98.434869300284234
 21
101.93148243854171
 31
0.0
  0
ARC
  5
4F1
  8
OSNOVA
 10
95.860566179125158
 20
99.407009535064503
 30
0.0
 40
2.0
 50
100.7499999999997
 51
176.2724878140699
  0
POINT
  5
4F2
  8
1
 10
95.860566179125158
 20
99.407009535064503
 30
0.0
  0
CIRCLE
  5
4F3
  8
POCRTE
 10
95.860566179125158
 20
99.407009535064503
 30
0.0
 40
1.25
  0
CIRCLE
  5
4F4
  8
POCRTE
 10
106.18335040869439
 20
100.6744880639876
 30
0.0
 40
1.25
  0
LINE
  5
4F5
  8
OSNOVA
 10
103.07478982189549
 20
102.5011930424121
 30
0.0
 11
106.0699648335676
 21
102.6712714051023
 31
0.0
  0
POINT
  5
4F6
  8
1
 10
106.18335040869439
 20
100.6744880639876
 30
0.0
  0
ARC
  5
4F7
  8
OSNOVA
 10
106.18335040869439
 20
100.6744880639876
 30
0.0
 40
2.0
 50
17.72751218593103
 51
93.250000000000057
  0
CIRCLE
  5
4F8
  8
POCRTE
 10
102.214855279258
 20
170.5619050030021
 30
0.0
 40
1.25
  0
ARC
  5
4F9
  8
OSNOVA
 10
102.214855279258
 20
170.5619050030021
 30
0.0
 40
2.0
 50
273.25
 51
348.77248781407138
  0
LINE
  5
4FA
  8
OSNOVA
 10
99.333065842712756
 20
168.3950432991974
 30
0.0
 11
102.3282408543847
 21
168.56512166188739
 31
0.0
  0
POINT
  5
4FB
  8
1
 10
102.214855279258
 20
170.5619050030021
 30
0.0
  0
POLYLINE
  5
4FC
  8
POCRTE
 66
     1
 10
0.0
 20
0.0
 30
0.0
 70
     1
  0
VERTEX
  5
6D7
  8
POCRTE
 10
180.79824765883541
 20
102.2050932270399
 30
0.0
  0
VERTEX
  5
6D8
  8
POCRTE
 10
255.5920115412969
 20
96.646956462385106
 30
0.0
  0
VERTEX
  5
6D9
  8
POCRTE
 10
261.15014830595192
 20
171.4407203448464
 30
0.0
  0
VERTEX
  5
6DA
  8
POCRTE
 10
186.3563844234904
 20
176.9988571095013
 30
0.0
  0
SEQEND
  5
6DB
  8
POCRTE
  0
LINE
  5
4FD
  8
OSNOVA
 10
191.55560128019869
 20
173.60421636434941
 30
0.0
 11
255.5062805080712
 21
168.8518599794015
 31
0.0
  0
LINE
  5
4FE
  8
OSNOVA
 10
186.44211545671621
 20
104.7939535924849
 30
0.0
 11
250.39279468458869
 21
100.04159720753709
 31
0.0
  0
POLYLINE
  5
4FF
  8
2
 66
     1
 10
0.0
 20
0.0
 30
0.0
 70
     1
  0
VERTEX
  5
6DC
  8
2
 10
254.50373295972241
 20
102.2429952157253
 30
0.0
  0
VERTEX
  5
6DD
  8
2
 10
252.50923258952329
 20
102.3912121961161
 30
0.0
 42
0.2679491924315331
  0
VERTEX
  5
6DE
  8
2
 10
249.80713787155091
 20
101.0878764239033
 30
0.0
  0
VERTEX
  5
6DF
  8
2
 10
187.17598925013991
 20
105.7421747463182
 30
0.0
 42
0.2679491924311219
  0
VERTEX
  5
6E0
  8
2
 10
184.69622000275839
 20
107.43058952940321
 30
0.0
  0
VERTEX
  5
6E1
  8
2
 10
182.70171963255939
 20
107.57880650979411
 30
0.0
  0
VERTEX
  5
6E2
  8
2
 10
187.444663005065
 20
171.4028183561613
 30
0.0
  0
VERTEX
  5
6E3
  8
2
 10
189.439163375264
 20
171.25460137577051
 30
0.0
 42
0.2679491924307064
  0
VERTEX
  5
6E4
  8
2
 10
192.14125809322709
 20
172.55793714798401
 30
0.0
  0
VERTEX
  5
6E5
  8
2
 10
254.7724067146473
 20
167.90363882556841
 30
0.0
 42
0.2679491924311137
  0
VERTEX
  5
6E6
  8
2
 10
257.25217596202879
 20
166.2152240424833
 30
0.0
  0
VERTEX
  5
6E7
  8
2
 10
259.24667633222811
 20
166.06700706209261
 30
0.0
  0
SEQEND
  5
6E8
  8
2
  0
LINE
  5
500
  8
OSNOVA
 10
181.63036095726449
 20
106.6556648148899
 30
0.0
 11
184.6221115125629
 21
106.4333393443039
 31
0.0
  0
LINE
  5
501
  8
OSNOVA
 10
186.52152131016089
 20
172.47417703145609
 30
0.0
 11
181.63036095726449
 21
106.6556648148899
 31
0.0
  0
LINE
  5
502
  8
OSNOVA
 10
173.21404946395651
 20
172.5903095788872
 30
0.0
 11
176.95577344313941
 21
106.6964593221022
 31
0.0
  0
LINE
  5
503
  8
OSNOVA
 10
158.155279261484
 20
94.115974676229712
 30
0.0
 11
161.1445154870259
 21
94.369877783551601
 31
0.0
  0
CIRCLE
  5
504
  8
POCRTE
 10
157.98601052326919
 20
96.108798826590842
 30
0.0
 40
1.25
  0
ARC
  5
505
  8
OSNOVA
 10
157.98601052326919
 20
96.108798826590842
 30
0.0
 40
2.0
 50
199.33251218593111
 51
274.8550000000003
  0
POINT
  5
506
  8
1
 10
157.98601052326919
 20
96.108798826590842
 30
0.0
  0
CIRCLE
  5
507
  8
POCRTE
 10
174.07398400659409
 20
104.5295976182972
 30
0.0
 40
1.25
  0
LINE
  5
508
  8
OSNOVA
 10
175.22357047358119
 20
94.509946147545179
 30
0.0
 11
178.2172665422479
 21
94.315565468335876
 31
0.0
  0
CIRCLE
  5
509
  8
POCRTE
 10
178.3468536617207
 20
96.311362847446958
 30
0.0
 40
1.25
  0
POINT
  5
50A
  8
1
 10
174.07398400659409
 20
104.5295976182972
 30
0.0
  0
ARC
  5
50B
  8
OSNOVA
 10
178.3468536617207
 20
96.311362847446958
 30
0.0
 40
2.0
 50
266.28500000000048
 51
341.80748781407112
  0
POINT
  5
50C
  8
1
 10
178.3468536617207
 20
96.311362847446958
 30
0.0
  0
LINE
  5
50D
  8
OSNOVA
 10
173.9605984314673
 20
106.52638095941199
 30
0.0
 11
176.95577344313941
 21
106.6964593221022
 31
0.0
  0
ARC
  5
50E
  8
OSNOVA
 10
174.07398400659409
 20
104.5295976182972
 30
0.0
 40
2.0
 50
93.250000000000057
 51
168.7724878140715
  0
LINE
  5
50F
  8
OSNOVA
 10
170.21887445228441
 20
172.4202312161971
 30
0.0
 11
173.21404946395651
 21
172.5903095788872
 31
0.0
  0
ARC
  5
510
  8
OSNOVA
 10
170.10548887715771
 20
174.4170145573118
 30
0.0
 40
2.0
 50
197.727512185931
 51
273.25
  0
CIRCLE
  5
511
  8
POCRTE
 10
170.10548887715771
 20
174.4170145573118
 30
0.0
 40
1.25
  0
POINT
  5
512
  8
1
 10
170.10548887715771
 20
174.4170145573118
 30
0.0
  0
CIRCLE
  5
513
  8
POCRTE
 10
184.47389453217221
 20
104.4388389741049
 30
0.0
 40
1.25
  0
POINT
  5
514
  8
1
 10
184.47389453217221
 20
104.4388389741049
 30
0.0
  0
ARC
  5
515
  8
OSNOVA
 10
184.47389453217221
 20
104.4388389741049
 30
0.0
 40
2.0
 50
10.227512185930181
 51
85.749999999999062
  0
LINE
  5
516
  8
OSNOVA
 10
186.52152131016089
 20
172.47417703145609
 30
0.0
 11
189.5132718654593
 21
172.25185156086999
 31
0.0
  0
CIRCLE
  5
517
  8
POCRTE
 10
189.6614888458501
 20
174.246351931069
 30
0.0
 40
1.25
  0
POINT
  5
518
  8
1
 10
189.6614888458501
 20
174.246351931069
 30
0.0
  0
ARC
  5
519
  8
OSNOVA
 10
189.6614888458501
 20
174.246351931069
 30
0.0
 40
2.0
 50
265.75000000000063
 51
341.27248781407093
  0
LINE
  5
51A
  8
OSNOVA
 10
260.31803500752278
 20
166.99014875699669
 30
0.0
 11
255.4268746546264
 21
101.1716365404304
 31
0.0
  0
ARC
  5
51B
  8
OSNOVA
 10
252.28690711893719
 20
99.399461640817677
 30
0.0
 40
2.0
 50
85.749999999999062
 51
161.2724878140709
  0
CIRCLE
  5
51C
  8
POCRTE
 10
252.28690711893719
 20
99.399461640817677
 30
0.0
 40
1.25
  0
POINT
  5
51D
  8
1
 10
246.2039645514981
 20
91.905400785370148
 30
0.0
  0
LINE
  5
51E
  8
OSNOVA
 10
252.43512409932791
 20
101.3939620110166
 30
0.0
 11
255.4268746546264
 21
101.1716365404304
 31
0.0
  0
POINT
  5
51F
  8
1
 10
252.28690711893719
 20
99.399461640817677
 30
0.0
  0
CIRCLE
  5
520
  8
POCRTE
 10
257.47450143261511
 20
169.20697459778179
 30
0.0
 40
1.25
  0
LINE
  5
521
  8
OSNOVA
 10
257.32628445222429
 20
167.21247422758279
 30
0.0
 11
260.31803500752278
 21
166.99014875699669
 31
0.0
  0
POINT
  5
522
  8
1
 10
257.47450143261511
 20
169.20697459778179
 30
0.0
  0
ARC
  5
523
  8
OSNOVA
 10
257.47450143261511
 20
169.20697459778179
 30
0.0
 40
2.0
 50
190.22751218593021
 51
265.75000000000063
  0
ENDBLK
  5
525
  8
0
  0
ENDSEC
  0
SECTION
  2
ENTITIES
  0
INSERT
  5
1C1
  8
ASHADE
 62
     1
  2
AVE_RENDER
 10
1000.0
 20
1000.0
 30
0.0
1001
AVE_RENDER
1002
{
1070
     2
1000
Pref
1070
    30
1070
    20
1070
     0
1070
     0
1000

1070
    10
1070
     0
1070
    30
1040
1.0
1070
     1
1040
0.3
1040
0.7
1040
0.0
1040
10.0
1010
-1.0
1020
-1.0
1030
-1.0
1040
0.3
1070
    49
1002
}
  0
INSERT
  5
1C2
  8
ASHADE
 62
     3
  2
AVE_RENDER
 10
1000.0
 20
1000.0
 30
0.0
1001
AVE_RENDER
1002
{
1070
     0
1000
Full Opt
1070
     0
1070
     1
1070
     1
1070
     1
1070
     0
1070
     0
1070
     0
1070
     1
1070
     1
1040
0.0001
1040
0.0001
1002
}
  0
INSERT
  5
1C3
  8
ASHADE
 62
     4
  2
AVE_RENDER
 10
1000.0
 20
1000.0
 30
0.0
1001
AVE_RENDER
1002
{
1070
     0
1000
Quick Opt
1070
     0
1070
     1
1070
     1
1070
     1
1070
     0
1070
     0
1070
     1
1002
}
  0
CIRCLE
  5
23C
  8
OSNOVA
 10
131.00000000000011
 20
33.5
 30
0.0
 40
3.25
  0
CIRCLE
  5
23D
  8
OSNOVA
 10
150.00000000000011
 20
25.0
 30
0.0
 40
3.25
  0
CIRCLE
  5
23E
  8
OSNOVA
 10
169.00000000000011
 20
33.5
 30
0.0
 40
3.25
  0
CIRCLE
  5
23F
  8
OSNOVA
 10
131.00000000000011
 20
43.5
 30
0.0
 40
3.25
  0
CIRCLE
  5
240
  8
OSNOVA
 10
150.00000000000011
 20
35.0
 30
0.0
 40
3.25
  0
CIRCLE
  5
241
  8
OSNOVA
 10
169.00000000000011
 20
43.5
 30
0.0
 40
3.25
  0
CIRCLE
  5
242
  8
OSNOVA
 10
131.00000000000011
 20
53.50000000000005
 30
0.0
 40
3.25
  0
CIRCLE
  5
243
  8
OSNOVA
 10
150.00000000000011
 20
45.0
 30
0.0
 40
3.25
  0
CIRCLE
  5
244
  8
OSNOVA
 10
169.00000000000011
 20
53.50000000000005
 30
0.0
 40
3.25
  0
CIRCLE
  5
247
  8
OSNOVA
 10
2.5
 20
160.0
 30
0.0
 40
3.0
  0
CIRCLE
  5
248
  8
OSNOVA
 10
2.5
 20
80.0
 30
0.0
 40
3.0
  0
CIRCLE
  5
249
  8
OSNOVA
 10
297.5
 20
160.0
 30
0.0
 40
3.0
  0
CIRCLE
  5
24A
  8
OSNOVA
 10
297.5
 20
80.0
 30
0.0
 40
3.0
  0
CIRCLE
  5
24D
  8
OSNOVA
 10
2.5
 20
270.0
 30
0.0
 40
3.0
  0
CIRCLE
  5
24E
  8
OSNOVA
 10
2.5
 20
190.0
 30
0.0
 40
3.0
  0
CIRCLE
  5
24F
  8
OSNOVA
 10
297.5
 20
270.0
 30
0.0
 40
3.0
  0
CIRCLE
  5
250
  8
OSNOVA
 10
297.5
 20
190.0
 30
0.0
 40
3.0
  0
POINT
  5
251
  8
1
 10
2.5
 20
80.0
 30
0.0
  0
POINT
  5
252
  8
1
 10
2.5
 20
160.0
 30
0.0
  0
POINT
  5
253
  8
1
 10
297.5
 20
160.0
 30
0.0
  0
POINT
  5
254
  8
1
 10
297.5
 20
80.0
 30
0.0
  0
POINT
  5
255
  8
1
 10
131.00000000000011
 20
33.5
 30
0.0
  0
POINT
  5
257
  8
1
 10
169.00000000000011
 20
33.5
 30
0.0
  0
POINT
  5
25C
  8
1
 10
150.00000000000011
 20
35.0
 30
0.0
  0
POINT
  5
25D
  8
1
 10
131.00000000000011
 20
43.5
 30
0.0
  0
POINT
  5
25E
  8
1
 10
169.00000000000011
 20
43.5
 30
0.0
  0
POINT
  5
25F
  8
1
 10
131.00000000000011
 20
53.50000000000005
 30
0.0
  0
POINT
  5
260
  8
1
 10
150.00000000000011
 20
45.000000000000057
 30
0.0
  0
POINT
  5
261
  8
1
 10
169.00000000000011
 20
53.50000000000005
 30
0.0
  0
POINT
  5
2D8
  8
1
 10
2.5
 20
190.0
 30
0.0
  0
POINT
  5
2D9
  8
1
 10
2.5
 20
270.0
 30
0.0
  0
POINT
  5
2DA
  8
1
 10
297.5
 20
190.0
 30
0.0
  0
POINT
  5
2DB
  8
1
 10
297.5
 20
270.0
 30
0.0
  0
POINT
  5
2DC
  8
1
 10
2.5
 20
230.0
 30
0.0
  0
CIRCLE
  5
2DD
  8
OSNOVA
 10
2.5
 20
230.0
 30
0.0
 40
3.0
  0
POINT
  5
2DE
  8
1
 10
297.5
 20
230.0
 30
0.0
  0
CIRCLE
  5
2DF
  8
OSNOVA
 10
297.5
 20
230.0
 30
0.0
 40
3.0
  0
POINT
  5
2E0
  8
1
 10
297.5
 20
120.0
 30
0.0
  0
CIRCLE
  5
2E1
  8
OSNOVA
 10
297.5
 20
120.0
 30
0.0
 40
3.0
  0
POINT
  5
2E2
  8
1
 10
2.5
 20
120.0
 30
0.0
  0
CIRCLE
  5
2E3
  8
OSNOVA
 10
2.5
 20
120.0
 30
0.0
 40
3.0
  0
LINE
  5
30C
  8
CLINE
 10
-8.5067146893051824
 20
174.9959967445109
 30
0.0
 11
15.288904988647642
 21
335.03935137217331
 31
0.0
  0
LINE
  5
30D
  8
CLINE
 10
149.99999944514178
 20
15.000038106362046
 30
0.0
 11
308.56300061821747
 21
74.483175885086041
 31
0.0
  0
POINT
  5
310
  8
1
 10
150.00000000000011
 20
25.0
 30
0.0
  0
CIRCLE
  5
316
  8
OSNOVA
 10
192.50000000000011
 20
315.0
 30
0.0
 40
3.25
  0
CIRCLE
  5
317
  8
OSNOVA
 10
192.50000000000011
 20
305.0
 30
0.0
 40
3.25
  0
CIRCLE
  5
318
  8
OSNOVA
 10
192.50000000000011
 20
325.0
 30
0.0
 40
3.25
  0
CIRCLE
  5
319
  8
OSNOVA
 10
173.50000000000011
 20
296.49999999999989
 30
0.0
 40
3.25
  0
CIRCLE
  5
31A
  8
OSNOVA
 10
173.50000000000011
 20
316.5
 30
0.0
 40
3.25
  0
CIRCLE
  5
31B
  8
OSNOVA
 10
173.50000000000011
 20
306.49999999999989
 30
0.0
 40
3.25
  0
POINT
  5
31C
  8
1
 10
173.50000000000011
 20
316.5
 30
0.0
  0
POINT
  5
31D
  8
1
 10
173.50000000000011
 20
306.49999999999989
 30
0.0
  0
POINT
  5
31E
  8
1
 10
173.50000000000011
 20
296.49999999999989
 30
0.0
  0
CIRCLE
  5
31F
  8
OSNOVA
 10
211.50000000000011
 20
296.49999999999989
 30
0.0
 40
3.25
  0
CIRCLE
  5
320
  8
OSNOVA
 10
211.50000000000011
 20
316.5
 30
0.0
 40
3.25
  0
CIRCLE
  5
321
  8
OSNOVA
 10
211.50000000000011
 20
306.49999999999989
 30
0.0
 40
3.25
  0
POINT
  5
322
  8
1
 10
192.50000000000011
 20
325.0
 30
0.0
  0
POINT
  5
323
  8
1
 10
192.50000000000011
 20
315.0
 30
0.0
  0
POINT
  5
324
  8
1
 10
192.50000000000011
 20
304.99999999999989
 30
0.0
  0
POINT
  5
325
  8
1
 10
211.50000000000011
 20
316.5
 30
0.0
  0
POINT
  5
326
  8
1
 10
211.50000000000011
 20
306.49999999999989
 30
0.0
  0
POINT
  5
327
  8
1
 10
211.50000000000011
 20
296.49999999999989
 30
0.0
  0
POLYLINE
  5
328
  8
OSNOVA
 66
     1
 10
0.0
 20
0.0
 30
0.0
 70
     1
  0
VERTEX
  5
651
  8
OSNOVA
 10
225.0
 20
290.0
 30
0.0
  0
VERTEX
  5
652
  8
OSNOVA
 10
225.0
 20
334.0
 30
0.0
  0
VERTEX
  5
653
  8
OSNOVA
 10
160.0
 20
334.0
 30
0.0
  0
VERTEX
  5
654
  8
OSNOVA
 10
160.0
 20
290.0
 30
0.0
  0
VERTEX
  5
655
  8
OSNOVA
 10
-7.5
 20
290.00000000000011
 30
0.0
  0
VERTEX
  5
656
  8
OSNOVA
 10
-7.5
 20
60.0
 30
0.0
  0
VERTEX
  5
657
  8
OSNOVA
 10
117.5
 20
60.0
 30
0.0
  0
VERTEX
  5
658
  8
OSNOVA
 10
117.5
 20
16.0
 30
0.0
  0
VERTEX
  5
659
  8
OSNOVA
 10
182.5
 20
16.0
 30
0.0
  0
VERTEX
  5
65A
  8
OSNOVA
 10
182.5
 20
60.0
 30
0.0
  0
VERTEX
  5
65B
  8
OSNOVA
 10
307.5
 20
60.0
 30
0.0
  0
VERTEX
  5
65C
  8
OSNOVA
 10
307.5
 20
290.0
 30
0.0
  0
SEQEND
  5
65D
  8
OSNOVA
  0
POLYLINE
  5
329
  8
3
 66
     1
 10
0.0
 20
0.0
 30
0.0
 70
     1
  0
VERTEX
  5
65E
  8
3
 10
226.0
 20
291.0
 30
0.0
  0
VERTEX
  5
65F
  8
3
 10
226.0
 20
335.0
 30
0.0
  0
VERTEX
  5
660
  8
3
 10
159.0
 20
335.0
 30
0.0
  0
VERTEX
  5
661
  8
3
 10
159.0
 20
291.0
 30
0.0
  0
VERTEX
  5
662
  8
3
 10
-8.5
 20
291.00000000000011
 30
0.0
  0
VERTEX
  5
663
  8
3
 10
-8.5
 20
59.0
 30
0.0
  0
VERTEX
  5
664
  8
3
 10
116.5
 20
59.0
 30
0.0
  0
VERTEX
  5
665
  8
3
 10
116.5
 20
15.0
 30
0.0
  0
VERTEX
  5
666
  8
3
 10
183.49999999999989
 20
15.0
 30
0.0
  0
VERTEX
  5
667
  8
3
 10
183.49999999999989
 20
59.0
 30
0.0
  0
VERTEX
  5
668
  8
3
 10
308.49999999999989
 20
59.0
 30
0.0
  0
VERTEX
  5
669
  8
3
 10
308.49999999999989
 20
291.0
 30
0.0
  0
SEQEND
  5
66A
  8
3
  0
CIRCLE
  5
527
  8
POCRTE
 10
265.70396455149807
 20
168.90540078537009
 30
0.0
 40
1.25
  0
LINE
  5
528
  8
OSNOVA
 10
194.72357047358119
 20
171.50994614754509
 30
0.0
 11
190.4471955309771
 21
105.6486326368788
 31
0.0
  0
LINE
  5
529
  8
OSNOVA
 10
180.64451548702581
 20
171.36987778355149
 30
0.0
 11
186.2303838481113
 21
105.6066808216289
 31
0.0
  0
CIRCLE
  5
52A
  8
POCRTE
 10
109.7299894109854
 20
167.35366172729081
 30
0.0
 40
1.25
  0
LINE
  5
52B
  8
OSNOVA
 10
111.70185028210641
 20
167.019349440735
 30
0.0
 11
175.59878402125571
 21
172.44669903796569
 31
0.0
  0
POLYLINE
  5
52C
  8
2
 66
     1
 10
0.0
 20
0.0
 30
0.0
 70
     1
  0
VERTEX
  5
6E9
  8
2
 10
185.14933740382341
 20
106.51845852770219
 30
0.0
  0
VERTEX
  5
6EA
  8
2
 10
183.1565132534619
 20
106.3491897894877
 30
0.0
 42
0.2679491924315331
  0
VERTEX
  5
6EB
  8
2
 10
180.6947102978863
 20
104.6346851356754
 30
0.0
  0
VERTEX
  5
6EC
  8
2
 10
118.1161982040712
 20
99.319321118457324
 30
0.0
 42
0.2679491924311219
  0
VERTEX
  5
6ED
  8
2
 10
115.40049214117811
 20
100.5940526901874
 30
0.0
  0
VERTEX
  5
6EE
  8
2
 10
113.4076679908168
 20
100.4247839519728
 30
0.0
  0
VERTEX
  5
6EF
  8
2
 10
107.9910683679461
 20
164.1951567635343
 30
0.0
  0
VERTEX
  5
6F0
  8
2
 10
109.9838925183074
 20
164.3644255017488
 30
0.0
 42
0.2679491924307064
  0
VERTEX
  5
6F1
  8
2
 10
112.4456954738738
 20
166.07893015556019
 30
0.0
  0
VERTEX
  5
6F2
  8
2
 10
175.0242075676982
 20
171.39429417277921
 30
0.0
 42
0.2679491924311137
  0
VERTEX
  5
6F3
  8
2
 10
177.73991363059119
 20
170.1195626010489
 30
0.0
  0
VERTEX
  5
6F4
  8
2
 10
179.7327377809527
 20
170.2888313392636
 30
0.0
  0
SEQEND
  5
6F5
  8
2
  0
POLYLINE
  5
52D
  8
POCRTE
 66
     1
 10
0.0
 20
0.0
 30
0.0
 70
     1
  0
VERTEX
  5
6F6
  8
POCRTE
 10
112.37853890813631
 20
94.817565984818216
 30
0.0
  0
VERTEX
  5
6F7
  8
POCRTE
 10
187.1094445466847
 20
101.1651436678698
 30
0.0
  0
VERTEX
  5
6F8
  8
POCRTE
 10
180.76186686363309
 20
175.89604930641809
 30
0.0
  0
VERTEX
  5
6F9
  8
POCRTE
 10
106.0309612250847
 20
169.54847162336651
 30
0.0
  0
SEQEND
  5
6FA
  8
POCRTE
  0
POLYLINE
  5
52E
  8
POCRTE
 66
     1
 10
0.0
 20
0.0
 30
0.0
 70
     1
  0
VERTEX
  5
6FB
  8
POCRTE
 10
189.6566751673854
 20
101.1904853137469
 30
0.0
  0
VERTEX
  5
6FC
  8
POCRTE
 10
264.49907688405159
 20
96.33096833351523
 30
0.0
  0
VERTEX
  5
6FD
  8
POCRTE
 10
269.35859386428359
 20
171.17337005018129
 30
0.0
  0
VERTEX
  5
6FE
  8
POCRTE
 10
194.5161921476174
 20
176.03288703041321
 30
0.0
  0
SEQEND
  5
6FF
  8
POCRTE
  0
POLYLINE
  5
52F
  8
2
 66
     1
 10
0.0
 20
0.0
 30
0.0
 70
     1
  0
VERTEX
  5
700
  8
2
 10
263.35859342826882
 20
101.9166014656754
 30
0.0
  0
VERTEX
  5
701
  8
2
 10
261.36279604915751
 20
102.0461885851482
 30
0.0
 42
0.2679491924315331
  0
VERTEX
  5
702
  8
2
 10
258.6729888628733
 20
100.7176791570151
 30
0.0
  0
VERTEX
  5
703
  8
2
 10
196.0011116664505
 20
104.7869640066916
 30
0.0
 42
0.2679491924311219
  0
VERTEX
  5
704
  8
2
 10
193.50568515938019
 20
106.452150647225
 30
0.0
  0
VERTEX
  5
705
  8
2
 10
191.50988778026911
 20
106.5817377666979
 30
0.0
  0
VERTEX
  5
706
  8
2
 10
195.6566756034004
 20
170.44725389825311
 30
0.0
  0
VERTEX
  5
707
  8
2
 10
197.65247298251151
 20
170.31766677878019
 30
0.0
 42
0.2679491924307064
  0
VERTEX
  5
708
  8
2
 10
200.3422801687864
 20
171.64617620691359
 30
0.0
  0
VERTEX
  5
709
  8
2
 10
263.01415736521841
 20
167.57689135723669
 30
0.0
 42
0.2679491924311137
  0
VERTEX
  5
70A
  8
2
 10
265.50958387228872
 20
165.91170471670341
 30
0.0
  0
VERTEX
  5
70B
  8
2
 10
267.50538125140002
 20
165.7821175972305
 30
0.0
  0
SEQEND
  5
70C
  8
2
  0
LINE
  5
530
  8
OSNOVA
 10
199.746879384778
 20
172.68694131376861
 30
0.0
 11
263.73914526870448
 21
168.5319236294925
 31
0.0
  0
LINE
  5
531
  8
OSNOVA
 10
32.922953492020042
 20
229.97043002377919
 30
0.0
 11
45.233539868596488
 21
165.12870377389561
 31
0.0
  0
POLYLINE
  5
532
  8
2
 66
     1
 10
0.0
 20
0.0
 30
0.0
 70
     1
  0
VERTEX
  5
70D
  8
2
 10
116.76589486655
 20
179.72740880025859
 30
0.0
  0
VERTEX
  5
70E
  8
2
 10
114.8009940710988
 20
179.3543607282412
 30
0.0
 42
0.2679491924315331
  0
VERTEX
  5
70F
  8
2
 10
112.5282991179421
 20
177.3960814708521
 30
0.0
  0
VERTEX
  5
710
  8
2
 10
50.826634086942647
 20
165.6816543438589
 30
0.0
 42
0.2679491924311219
  0
VERTEX
  5
711
  8
2
 10
47.994367025764291
 20
166.67072627964711
 30
0.0
  0
VERTEX
  5
712
  8
2
 10
46.029466230313261
 20
166.29767820762979
 30
0.0
  0
VERTEX
  5
713
  8
2
 10
34.091927925754241
 20
229.17450366206239
 30
0.0
  0
VERTEX
  5
714
  8
2
 10
36.056828721205299
 20
229.5475517340798
 30
0.0
 42
0.2679491924307064
  0
VERTEX
  5
715
  8
2
 10
38.329523674352963
 20
231.50583099146709
 30
0.0
  0
VERTEX
  5
716
  8
2
 10
100.0311887053615
 20
243.22025811846231
 30
0.0
 42
0.2679491924311137
  0
VERTEX
  5
717
  8
2
 10
102.8634557665398
 20
242.23118618267381
 30
0.0
  0
VERTEX
  5
718
  8
2
 10
104.828356561991
 20
242.60423425469119
 30
0.0
  0
SEQEND
  5
719
  8
2
  0
POLYLINE
  5
533
  8
POCRTE
 66
     1
 10
0.0
 20
0.0
 30
0.0
 70
     1
  0
VERTEX
  5
71A
  8
POCRTE
 10
45.581672831773062
 20
160.6144149661263
 30
0.0
  0
VERTEX
  5
71B
  8
POCRTE
 10
119.2654526611862
 20
174.60371766678139
 30
0.0
  0
VERTEX
  5
71C
  8
POCRTE
 10
105.2761499605311
 20
248.28749749619459
 30
0.0
  0
VERTEX
  5
71D
  8
POCRTE
 10
31.592370131117999
 20
234.29819479553959
 30
0.0
  0
SEQEND
  5
71E
  8
POCRTE
  0
LINE
  5
534
  8
OSNOVA
 10
50.363184130219061
 20
164.57580252789791
 30
0.0
 11
113.36479714668791
 21
176.53703249136271
 31
0.0
  0
LINE
  5
535
  8
OSNOVA
 10
117.5416217505139
 20
98.266916253270566
 30
0.0
 11
181.43855548966309
 21
103.6942658505013
 31
0.0
  0
LINE
  5
536
  8
OSNOVA
 10
41.504346367201997
 20
81.180226910050635
 30
0.0
 11
103.8790709053675
 21
96.068746101150623
 31
0.0
  0
POLYLINE
  5
537
  8
2
 66
     1
 10
0.0
 20
0.0
 30
0.0
 70
     1
  0
VERTEX
  5
71F
  8
2
 10
107.1275657933105
 20
99.414377230761943
 30
0.0
  0
VERTEX
  5
720
  8
2
 10
105.1822164602854
 20
98.95003256082407
 30
0.0
 42
0.2679491924315331
  0
VERTEX
  5
721
  8
2
 10
103.0033920502822
 20
96.887819140637376
 30
0.0
  0
VERTEX
  5
722
  8
2
 10
41.915680552344782
 20
82.306503203587852
 30
0.0
 42
0.2679491924311219
  0
VERTEX
  5
723
  8
2
 10
39.040339137439439
 20
83.162313782939464
 30
0.0
  0
VERTEX
  5
724
  8
2
 10
37.094989804414517
 20
82.697969113001648
 30
0.0
  0
VERTEX
  5
725
  8
2
 10
22.235960366405429
 20
144.94914776979809
 30
0.0
  0
VERTEX
  5
726
  8
2
 10
24.181309699430351
 20
145.4134924397359
 30
0.0
 42
0.2679491924307064
  0
VERTEX
  5
727
  8
2
 10
26.360134109424529
 20
147.4757058599204
 30
0.0
  0
VERTEX
  5
728
  8
2
 10
87.44784560737105
 20
162.0570217969719
 30
0.0
 42
0.2679491924311137
  0
VERTEX
  5
729
  8
2
 10
90.323187022276358
 20
161.20121121762051
 30
0.0
  0
VERTEX
  5
72A
  8
2
 10
92.268536355301379
 20
161.6655558875583
 30
0.0
  0
SEQEND
  5
72B
  8
2
  0
POLYLINE
  5
538
  8
POCRTE
 66
     1
 10
0.0
 20
0.0
 30
0.0
 70
     1
  0
VERTEX
  5
72C
  8
POCRTE
 10
36.91292564697482
 20
76.999999944729893
 30
0.0
  0
VERTEX
  5
72D
  8
POCRTE
 10
109.863525635408
 20
94.412925067396827
 30
0.0
  0
VERTEX
  5
72E
  8
POCRTE
 10
92.45060051274109
 20
167.36352505583
 30
0.0
  0
VERTEX
  5
72F
  8
POCRTE
 10
19.500000524307829
 20
149.95059993316301
 30
0.0
  0
SEQEND
  5
730
  8
POCRTE
  0
LINE
  5
539
  8
OSNOVA
 10
25.484455254348461
 20
148.29477889940921
 30
0.0
 11
87.859179792513984
 21
163.18329809050911
 31
0.0
  0
LINE
  5
53A
  8
OSNOVA
 10
21.031113364924071
 20
145.6896501013417
 30
0.0
 11
36.354487472870971
 21
81.493122111520265
 31
0.0
  0
LINE
  5
53B
  8
OSNOVA
 10
36.354487472870971
 20
81.493122111520265
 30
0.0
 11
39.272511472408318
 21
82.189639116426974
 31
0.0
  0
CIRCLE
  5
53C
  8
POCRTE
 10
39.736856142346113
 20
80.244289783402053
 30
0.0
 40
1.25
  0
ARC
  5
53D
  8
OSNOVA
 10
39.736856142346113
 20
80.244289783402053
 30
0.0
 40
2.0
 50
27.902512185931691
 51
103.4249999999994
  0
POINT
  5
53E
  8
1
 10
39.736856142346113
 20
80.244289783402053
 30
0.0
  0
ARC
  5
53F
  8
OSNOVA
 10
23.484792694523598
 20
148.3315164392732
 30
0.0
 40
2.0
 50
283.42499999999927
 51
358.94748781407031
  0
CIRCLE
  5
540
  8
POCRTE
 10
23.484792694523598
 20
148.3315164392732
 30
0.0
 40
1.25
  0
LINE
  5
541
  8
OSNOVA
 10
21.031113364924071
 20
145.6896501013417
 30
0.0
 11
23.949137364461421
 21
146.38616710624839
 31
0.0
  0
POINT
  5
542
  8
1
 10
23.484792694523598
 20
148.3315164392732
 30
0.0
  0
CIRCLE
  5
543
  8
POCRTE
 10
48.553939133790458
 20
163.7233750864705
 30
0.0
 40
1.25
  0
LINE
  5
544
  8
OSNOVA
 10
45.233539868596488
 20
165.12870377389561
 30
0.0
 11
48.180891061773032
 21
165.68827588192181
 31
0.0
  0
POINT
  5
545
  8
1
 10
48.553939133790458
 20
163.7233750864705
 30
0.0
  0
ARC
  5
546
  8
OSNOVA
 10
48.553939133790458
 20
163.7233750864705
 30
0.0
 40
2.0
 50
25.227512185930362
 51
100.7499999999997
  0
ARC
  5
547
  8
OSNOVA
 10
109.7299894109854
 20
167.35366172729081
 30
0.0
 40
2.0
 50
274.85500000000019
 51
350.37748781406879
  0
LINE
  5
548
  8
OSNOVA
 10
106.91002192365811
 20
165.10693446960741
 30
0.0
 11
112.4958902847436
 21
99.34373750768475
 31
0.0
  0
LINE
  5
549
  8
OSNOVA
 10
93.00903868684486
 20
162.87040288903961
 30
0.0
 11
108.33241279479169
 21
98.67387489921839
 31
0.0
  0
ARC
  5
54A
  8
OSNOVA
 10
105.8787334651922
 20
96.03200856128673
 30
0.0
 40
2.0
 50
103.4249999999994
 51
178.94748781407031
  0
CIRCLE
  5
54B
  8
POCRTE
 10
105.8787334651922
 20
96.03200856128673
 30
0.0
 40
1.25
  0
POINT
  5
54C
  8
1
 10
105.8787334651922
 20
96.03200856128673
 30
0.0
  0
LINE
  5
54D
  8
OSNOVA
 10
105.4143887952544
 20
97.977357894311581
 30
0.0
 11
108.33241279479169
 21
98.67387489921839
 31
0.0
  0
ARC
  5
54E
  8
OSNOVA
 10
89.626670017369733
 20
164.11923521715789
 30
0.0
 40
2.0
 50
207.90251218593161
 51
283.42499999999927
  0
LINE
  5
54F
  8
OSNOVA
 10
90.091014687307535
 20
162.173885884133
 30
0.0
 11
93.00903868684486
 21
162.87040288903961
 31
0.0
  0
POINT
  5
550
  8
1
 10
89.626670017369733
 20
164.11923521715789
 30
0.0
  0
CIRCLE
  5
551
  8
POCRTE
 10
89.626670017369733
 20
164.11923521715789
 30
0.0
 40
1.25
  0
LINE
  5
552
  8
OSNOVA
 10
106.91002192365811
 20
165.10693446960741
 30
0.0
 11
109.89925814920009
 21
165.36083757692941
 31
0.0
  0
POINT
  5
553
  8
1
 10
109.7299894109854
 20
167.35366172729081
 30
0.0
  0
CIRCLE
  5
554
  8
POCRTE
 10
115.65439524850019
 20
97.604816464645637
 30
0.0
 40
1.25
  0
ARC
  5
555
  8
OSNOVA
 10
115.65439524850019
 20
97.604816464645637
 30
0.0
 40
2.0
 50
19.332512185931112
 51
94.855000000000246
  0
LINE
  5
556
  8
OSNOVA
 10
112.4958902847436
 20
99.34373750768475
 30
0.0
 11
115.4851265102855
 21
99.597640615006867
 31
0.0
  0
POINT
  5
557
  8
1
 10
115.65439524850019
 20
97.604816464645637
 30
0.0
  0
LINE
  5
558
  8
OSNOVA
 10
195.2761237629646
 20
103.8319317344359
 30
0.0
 11
259.26838964689108
 21
99.676914050159667
 31
0.0
  0
LINE
  5
559
  8
OSNOVA
 10
190.4471955309771
 20
105.6486326368788
 30
0.0
 11
193.44089159964381
 21
105.4542519576695
 31
0.0
  0
CIRCLE
  5
55A
  8
POCRTE
 10
183.4104163607841
 20
103.35995356394569
 30
0.0
 40
1.25
  0
LINE
  5
55B
  8
OSNOVA
 10
183.24114762256929
 20
105.3527777143069
 30
0.0
 11
186.2303838481113
 21
105.6066808216289
 31
0.0
  0
ARC
  5
55C
  8
OSNOVA
 10
183.4104163607841
 20
103.35995356394569
 30
0.0
 40
2.0
 50
94.855000000000246
 51
170.37748781406879
  0
POINT
  5
55D
  8
1
 10
183.4104163607841
 20
103.35995356394569
 30
0.0
  0
CIRCLE
  5
55E
  8
POCRTE
 10
193.31130448017089
 20
103.4584545785584
 30
0.0
 40
1.25
  0
ARC
  5
55F
  8
OSNOVA
 10
193.31130448017089
 20
103.4584545785584
 30
0.0
 40
2.0
 50
10.76251218593114
 51
86.285000000000593
  0
POINT
  5
560
  8
1
 10
193.31130448017089
 20
103.4584545785584
 30
0.0
  0
LINE
  5
561
  8
OSNOVA
 10
268.56807350069192
 20
166.71522272704971
 30
0.0
 11
264.29169855808777
 21
100.8539092163832
 31
0.0
  0
ARC
  5
562
  8
OSNOVA
 10
261.16841536994832
 20
99.052492516481493
 30
0.0
 40
2.0
 50
86.285000000000593
 51
161.80748781407149
  0
CIRCLE
  5
563
  8
POCRTE
 10
261.16841536994832
 20
99.052492516481493
 30
0.0
 40
1.25
  0
LINE
  5
564
  8
OSNOVA
 10
261.29800248942109
 20
101.0482898955925
 30
0.0
 11
264.29169855808777
 21
100.8539092163832
 31
0.0
  0
POINT
  5
565
  8
1
 10
261.16841536994832
 20
99.052492516481493
 30
0.0
  0
LINE
  5
566
  8
OSNOVA
 10
265.57437743202519
 20
166.90960340625901
 30
0.0
 11
268.56807350069192
 21
166.71522272704971
 31
0.0
  0
ARC
  5
567
  8
OSNOVA
 10
265.70396455149807
 20
168.90540078537009
 30
0.0
 40
2.0
 50
190.76251218593109
 51
266.28500000000048
  0
LINE
  5
568
  8
OSNOVA
 10
123.6765788295702
 20
247.17249427876499
 30
0.0
 11
187.700458114409
 21
250.8080336109914
 31
0.0
  0
POLYLINE
  5
569
  8
POCRTE
 66
     1
 10
0.0
 20
0.0
 30
0.0
 70
     1
  0
VERTEX
  5
731
  8
POCRTE
 10
122.3307115306521
 20
174.9800841311224
 30
0.0
  0
VERTEX
  5
732
  8
POCRTE
 10
197.21008682245329
 20
179.23204319837569
 30
0.0
  0
VERTEX
  5
733
  8
POCRTE
 10
192.9581277552
 20
254.11141849017699
 30
0.0
  0
VERTEX
  5
734
  8
POCRTE
 10
118.0787524633988
 20
249.85945942292341
 30
0.0
  0
SEQEND
  5
735
  8
POCRTE
  0
POLYLINE
  5
56A
  8
2
 66
     1
 10
0.0
 20
0.0
 30
0.0
 70
     1
  0
VERTEX
  5
736
  8
2
 10
195.4006889850188
 20
184.638158205096
 30
0.0
  0
VERTEX
  5
737
  8
2
 10
193.4039056439039
 20
184.52477262996931
 30
0.0
 42
0.2679491924315331
  0
VERTEX
  5
738
  8
2
 10
190.895047176356
 20
182.8798929414092
 30
0.0
  0
VERTEX
  5
739
  8
2
 10
128.1922088762376
 20
179.31936775254721
 30
0.0
 42
0.2679491924311219
  0
VERTEX
  5
73A
  8
2
 10
125.5132720460042
 20
180.66966307565971
 30
0.0
  0
VERTEX
  5
73B
  8
2
 10
123.5164887048896
 20
180.55627750053301
 30
0.0
  0
VERTEX
  5
73C
  8
2
 10
119.8881503008334
 20
244.45334441620329
 30
0.0
  0
VERTEX
  5
73D
  8
2
 10
121.88493364194809
 20
244.56672999132999
 30
0.0
 42
0.2679491924307064
  0
VERTEX
  5
73E
  8
2
 10
124.3937921094868
 20
246.21160967988951
 30
0.0
  0
VERTEX
  5
73F
  8
2
 10
187.09663040961439
 20
249.772134868752
 30
0.0
 42
0.2679491924311137
  0
VERTEX
  5
740
  8
2
 10
189.7755672398477
 20
248.4218395456397
 30
0.0
  0
VERTEX
  5
741
  8
2
 10
191.77235058096261
 20
248.5352251207664
 30
0.0
  0
SEQEND
  5
742
  8
2
  0
LINE
  5
56B
  8
OSNOVA
 10
127.5883811714432
 20
178.2834690103079
 30
0.0
 11
191.612260456282
 21
181.9190083425344
 31
0.0
  0
LINE
  5
56C
  8
OSNOVA
 10
37.493025645616399
 20
232.36487997095821
 30
0.0
 11
100.49463866208529
 21
244.32610993442279
 31
0.0
  0
CIRCLE
  5
56D
  8
POCRTE
 10
35.49725661317904
 20
232.49490292725631
 30
0.0
 40
1.25
  0
ARC
  5
56E
  8
OSNOVA
 10
35.49725661317904
 20
232.49490292725631
 30
0.0
 40
2.0
 50
280.7499999999996
 51
356.2724878140699
  0
LINE
  5
56F
  8
OSNOVA
 10
32.922953492020042
 20
229.97043002377919
 30
0.0
 11
35.870304685196537
 21
230.5300021318055
 31
0.0
  0
POINT
  5
570
  8
1
 10
35.49725661317904
 20
232.49490292725631
 30
0.0
  0
LINE
  5
571
  8
OSNOVA
 10
105.6242829237077
 20
243.7732086884256
 30
0.0
 11
117.93486930028421
 21
178.93148243854171
 31
0.0
  0
LINE
  5
572
  8
OSNOVA
 10
102.67693173053119
 20
243.2136365803994
 30
0.0
 11
105.6242829237077
 21
243.7732086884256
 31
0.0
  0
CIRCLE
  5
573
  8
POCRTE
 10
102.3038836585137
 20
245.1785373758502
 30
0.0
 40
1.25
  0
ARC
  5
574
  8
OSNOVA
 10
102.3038836585137
 20
245.1785373758502
 30
0.0
 40
2.0
 50
205.22751218593029
 51
280.7499999999996
  0
POINT
  5
575
  8
1
 10
102.3038836585137
 20
245.1785373758502
 30
0.0
  0
LINE
  5
576
  8
OSNOVA
 10
118.8330658427127
 20
245.39504329919751
 30
0.0
 11
122.57478982189561
 21
179.5011930424121
 31
0.0
  0
LINE
  5
577
  8
OSNOVA
 10
114.9875181071077
 20
178.3719103305157
 30
0.0
 11
117.93486930028421
 21
178.93148243854171
 31
0.0
  0
ARC
  5
578
  8
OSNOVA
 10
115.3605661791251
 20
176.40700953506439
 30
0.0
 40
2.0
 50
100.7499999999997
 51
176.2724878140699
  0
POINT
  5
579
  8
1
 10
115.3605661791251
 20
176.40700953506439
 30
0.0
  0
CIRCLE
  5
57A
  8
POCRTE
 10
115.3605661791251
 20
176.40700953506439
 30
0.0
 40
1.25
  0
CIRCLE
  5
57B
  8
POCRTE
 10
125.68335040869439
 20
177.67448806398761
 30
0.0
 40
1.25
  0
LINE
  5
57C
  8
OSNOVA
 10
122.57478982189561
 20
179.5011930424121
 30
0.0
 11
125.5699648335676
 21
179.67127140510229
 31
0.0
  0
POINT
  5
57D
  8
1
 10
125.68335040869439
 20
177.67448806398761
 30
0.0
  0
ARC
  5
57E
  8
OSNOVA
 10
125.68335040869439
 20
177.67448806398761
 30
0.0
 40
2.0
 50
17.72751218593103
 51
93.250000000000014
  0
CIRCLE
  5
57F
  8
POCRTE
 10
121.714855279258
 20
247.5619050030021
 30
0.0
 40
1.25
  0
ARC
  5
580
  8
OSNOVA
 10
121.714855279258
 20
247.5619050030021
 30
0.0
 40
2.0
 50
273.24999999999989
 51
348.77248781407138
  0
LINE
  5
581
  8
OSNOVA
 10
118.8330658427127
 20
245.39504329919751
 30
0.0
 11
121.8282408543847
 21
245.56512166188739
 31
0.0
  0
POINT
  5
582
  8
1
 10
121.714855279258
 20
247.5619050030021
 30
0.0
  0
POLYLINE
  5
583
  8
POCRTE
 66
     1
 10
0.0
 20
0.0
 30
0.0
 70
     1
  0
VERTEX
  5
743
  8
POCRTE
 10
200.29824765883541
 20
179.2050932270399
 30
0.0
  0
VERTEX
  5
744
  8
POCRTE
 10
275.09201154129693
 20
173.64695646238511
 30
0.0
  0
VERTEX
  5
745
  8
POCRTE
 10
280.65014830595192
 20
248.4407203448464
 30
0.0
  0
VERTEX
  5
746
  8
POCRTE
 10
205.8563844234904
 20
253.99885710950139
 30
0.0
  0
SEQEND
  5
747
  8
POCRTE
  0
LINE
  5
584
  8
OSNOVA
 10
211.0556012801988
 20
250.60421636434941
 30
0.0
 11
275.0062805080712
 21
245.8518599794015
 31
0.0
  0
LINE
  5
585
  8
OSNOVA
 10
205.94211545671621
 20
181.79395359248491
 30
0.0
 11
269.89279468458858
 21
177.04159720753711
 31
0.0
  0
POLYLINE
  5
586
  8
2
 66
     1
 10
0.0
 20
0.0
 30
0.0
 70
     1
  0
VERTEX
  5
748
  8
2
 10
274.00373295972241
 20
179.2429952157253
 30
0.0
  0
VERTEX
  5
749
  8
2
 10
272.00923258952332
 20
179.3912121961161
 30
0.0
 42
0.2679491924315331
  0
VERTEX
  5
74A
  8
2
 10
269.30713787155088
 20
178.08787642390331
 30
0.0
  0
VERTEX
  5
74B
  8
2
 10
206.67598925013999
 20
182.7421747463182
 30
0.0
 42
0.2679491924311219
  0
VERTEX
  5
74C
  8
2
 10
204.19622000275839
 20
184.43058952940319
 30
0.0
  0
VERTEX
  5
74D
  8
2
 10
202.20171963255939
 20
184.57880650979411
 30
0.0
  0
VERTEX
  5
74E
  8
2
 10
206.944663005065
 20
248.4028183561613
 30
0.0
  0
VERTEX
  5
74F
  8
2
 10
208.939163375264
 20
248.25460137577051
 30
0.0
 42
0.2679491924307064
  0
VERTEX
  5
750
  8
2
 10
211.64125809322709
 20
249.55793714798401
 30
0.0
  0
VERTEX
  5
751
  8
2
 10
274.27240671464727
 20
244.90363882556841
 30
0.0
 42
0.2679491924311137
  0
VERTEX
  5
752
  8
2
 10
276.7521759620289
 20
243.2152240424833
 30
0.0
  0
VERTEX
  5
753
  8
2
 10
278.74667633222811
 20
243.06700706209261
 30
0.0
  0
SEQEND
  5
754
  8
2
  0
LINE
  5
587
  8
OSNOVA
 10
201.13036095726449
 20
183.65566481488989
 30
0.0
 11
204.1221115125629
 21
183.4333393443039
 31
0.0
  0
LINE
  5
588
  8
OSNOVA
 10
206.02152131016089
 20
249.47417703145609
 30
0.0
 11
201.13036095726449
 21
183.65566481488989
 31
0.0
  0
LINE
  5
589
  8
OSNOVA
 10
192.71404946395651
 20
249.59030957888729
 30
0.0
 11
196.45577344313941
 21
183.69645932210221
 31
0.0
  0
LINE
  5
58A
  8
OSNOVA
 10
177.655279261484
 20
171.11597467622971
 30
0.0
 11
180.64451548702581
 21
171.36987778355149
 31
0.0
  0
CIRCLE
  5
58B
  8
POCRTE
 10
177.48601052326919
 20
173.1087988265908
 30
0.0
 40
1.25
  0
ARC
  5
58C
  8
OSNOVA
 10
177.48601052326919
 20
173.1087988265908
 30
0.0
 40
2.0
 50
199.33251218593111
 51
274.85500000000019
  0
POINT
  5
58D
  8
1
 10
177.48601052326919
 20
173.1087988265908
 30
0.0
  0
CIRCLE
  5
58E
  8
POCRTE
 10
193.57398400659409
 20
181.5295976182972
 30
0.0
 40
1.25
  0
LINE
  5
58F
  8
OSNOVA
 10
194.72357047358119
 20
171.50994614754509
 30
0.0
 11
197.7172665422479
 21
171.31556546833579
 31
0.0
  0
CIRCLE
  5
590
  8
POCRTE
 10
197.8468536617207
 20
173.3113628474469
 30
0.0
 40
1.25
  0
POINT
  5
591
  8
1
 10
193.57398400659409
 20
181.5295976182972
 30
0.0
  0
ARC
  5
592
  8
OSNOVA
 10
197.8468536617207
 20
173.3113628474469
 30
0.0
 40
2.0
 50
266.28500000000048
 51
341.80748781407152
  0
POINT
  5
593
  8
1
 10
197.8468536617207
 20
173.3113628474469
 30
0.0
  0
LINE
  5
594
  8
OSNOVA
 10
193.4605984314673
 20
183.52638095941199
 30
0.0
 11
196.45577344313941
 21
183.69645932210221
 31
0.0
  0
ARC
  5
595
  8
OSNOVA
 10
193.57398400659409
 20
181.5295976182972
 30
0.0
 40
2.0
 50
93.250000000000014
 51
168.77248781407141
  0
LINE
  5
596
  8
OSNOVA
 10
189.7188744522845
 20
249.4202312161971
 30
0.0
 11
192.71404946395651
 21
249.59030957888729
 31
0.0
  0
ARC
  5
597
  8
OSNOVA
 10
189.60548887715771
 20
251.4170145573118
 30
0.0
 40
2.0
 50
197.727512185931
 51
273.24999999999989
  0
CIRCLE
  5
598
  8
POCRTE
 10
189.60548887715771
 20
251.4170145573118
 30
0.0
 40
1.25
  0
POINT
  5
599
  8
1
 10
189.60548887715771
 20
251.4170145573118
 30
0.0
  0
CIRCLE
  5
59A
  8
POCRTE
 10
203.97389453217221
 20
181.4388389741049
 30
0.0
 40
1.25
  0
POINT
  5
59B
  8
1
 10
203.97389453217221
 20
181.4388389741049
 30
0.0
  0
ARC
  5
59C
  8
OSNOVA
 10
203.97389453217221
 20
181.4388389741049
 30
0.0
 40
2.0
 50
10.227512185930109
 51
85.749999999998977
  0
LINE
  5
59D
  8
OSNOVA
 10
206.02152131016089
 20
249.47417703145609
 30
0.0
 11
209.0132718654593
 21
249.25185156086999
 31
0.0
  0
CIRCLE
  5
59E
  8
POCRTE
 10
209.1614888458501
 20
251.246351931069
 30
0.0
 40
1.25
  0
POINT
  5
59F
  8
1
 10
209.1614888458501
 20
251.246351931069
 30
0.0
  0
ARC
  5
5A0
  8
OSNOVA
 10
209.1614888458501
 20
251.246351931069
 30
0.0
 40
2.0
 50
265.75000000000063
 51
341.27248781407093
  0
LINE
  5
5A1
  8
OSNOVA
 10
279.81803500752289
 20
243.99014875699669
 30
0.0
 11
274.92687465462637
 21
178.1716365404304
 31
0.0
  0
ARC
  5
5A2
  8
OSNOVA
 10
271.78690711893722
 20
176.39946164081761
 30
0.0
 40
2.0
 50
85.749999999998977
 51
161.27248781407101
  0
CIRCLE
  5
5A3
  8
POCRTE
 10
271.78690711893722
 20
176.39946164081761
 30
0.0
 40
1.25
  0
POINT
  5
5A4
  8
1
 10
265.70396455149807
 20
168.90540078537009
 30
0.0
  0
LINE
  5
5A5
  8
OSNOVA
 10
271.93512409932799
 20
178.39396201101661
 30
0.0
 11
274.92687465462637
 21
178.1716365404304
 31
0.0
  0
POINT
  5
5A6
  8
1
 10
271.78690711893722
 20
176.39946164081761
 30
0.0
  0
CIRCLE
  5
5A7
  8
POCRTE
 10
276.97450143261511
 20
246.20697459778179
 30
0.0
 40
1.25
  0
LINE
  5
5A8
  8
OSNOVA
 10
276.8262844522244
 20
244.21247422758279
 30
0.0
 11
279.81803500752289
 21
243.99014875699669
 31
0.0
  0
POINT
  5
5A9
  8
1
 10
276.97450143261511
 20
246.20697459778179
 30
0.0
  0
ARC
  5
5AA
  8
OSNOVA
 10
276.97450143261511
 20
246.20697459778179
 30
0.0
 40
2.0
 50
190.2275121859301
 51
265.75000000000063
  0
ENDSEC
  0
EOF
